  0
SECTION
  2
HEADER
  9
$ACADVER
  1
AC1024
  9
$ACADMAINTVER
 70
    37
  9
$DWGCODEPAGE
  3
ANSI_932
  9
$AUTHOR
  1
水田
  9
$CUSTOMPROPERTYTAG
  1
マネージャ
  9
$CUSTOMPROPERTY
  1

  9
$CUSTOMPROPERTYTAG
  1
会社
  9
$CUSTOMPROPERTY
  1

  9
$CUSTOMPROPERTYTAG
  1
カテゴリ
  9
$CUSTOMPROPERTY
  1

  9
$CUSTOMPROPERTYTAG
  1
部品番号
  9
$CUSTOMPROPERTY
  1

  9
$CUSTOMPROPERTYTAG
  1
説明
  9
$CUSTOMPROPERTY
  1

  9
$CUSTOMPROPERTYTAG
  1
プロジェクト
  9
$CUSTOMPROPERTY
  1

  9
$CUSTOMPROPERTYTAG
  1
設計者
  9
$CUSTOMPROPERTY
  1
水田
  9
$CUSTOMPROPERTYTAG
  1
エンジニア
  9
$CUSTOMPROPERTY
  1

  9
$CUSTOMPROPERTYTAG
  1
責任者
  9
$CUSTOMPROPERTY
  1

  9
$CUSTOMPROPERTYTAG
  1
コスト センター
  9
$CUSTOMPROPERTY
  1

  9
$CUSTOMPROPERTYTAG
  1
ベンダー
  9
$CUSTOMPROPERTY
  1

  9
$CUSTOMPROPERTYTAG
  1
ユーザ ステータス
  9
$CUSTOMPROPERTY
  1

  9
$CUSTOMPROPERTYTAG
  1
設計ステータス
  9
$CUSTOMPROPERTY
  1
作業中
  9
$CUSTOMPROPERTYTAG
  1
確認者
  9
$CUSTOMPROPERTY
  1

  9
$CUSTOMPROPERTYTAG
  1
エンジニアリング承認者
  9
$CUSTOMPROPERTY
  1

  9
$CUSTOMPROPERTYTAG
  1
製造承認者
  9
$CUSTOMPROPERTY
  1

  9
$INSBASE
 10
0.0
 20
0.0
 30
0.0
  9
$EXTMIN
 10
0.0
 20
0.0
 30
0.0
  9
$EXTMAX
 10
297.0
 20
210.0
 30
0.0
  9
$LIMMIN
 10
0.0
 20
0.0
  9
$LIMMAX
 10
297.0
 20
210.0
  9
$ORTHOMODE
 70
     0
  9
$REGENMODE
 70
     1
  9
$FILLMODE
 70
     1
  9
$QTEXTMODE
 70
     0
  9
$MIRRTEXT
 70
     0
  9
$LTSCALE
 40
1.0
  9
$ATTMODE
 70
     1
  9
$TEXTSIZE
 40
0.2
  9
$TRACEWID
 40
0.05
  9
$TEXTSTYLE
  7
Standard
  9
$CLAYER
  8
0
  9
$CELTYPE
  6
ByLayer
  9
$CECOLOR
 62
   256
  9
$CELTSCALE
 40
1.0
  9
$DISPSILH
 70
     0
  9
$DIMSCALE
 40
1.0
  9
$DIMASZ
 40
1.799999999999999
  9
$DIMEXO
 40
0.0625
  9
$DIMDLI
 40
0.38
  9
$DIMRND
 40
0.0
  9
$DIMDLE
 40
0.0
  9
$DIMEXE
 40
0.18
  9
$DIMTP
 40
0.0
  9
$DIMTM
 40
0.0
  9
$DIMTXT
 40
0.25
  9
$DIMCEN
 40
0.09
  9
$DIMTSZ
 40
0.0
  9
$DIMTOL
 70
     0
  9
$DIMLIM
 70
     0
  9
$DIMTIH
 70
     1
  9
$DIMTOH
 70
     1
  9
$DIMSE1
 70
     0
  9
$DIMSE2
 70
     0
  9
$DIMTAD
 70
     0
  9
$DIMZIN
 70
     0
  9
$DIMBLK
  1

  9
$DIMASO
 70
     1
  9
$DIMSHO
 70
     1
  9
$DIMPOST
  1

  9
$DIMAPOST
  1

  9
$DIMALT
 70
     0
  9
$DIMALTD
 70
     2
  9
$DIMALTF
 40
25.4
  9
$DIMLFAC
 40
1.0
  9
$DIMTOFL
 70
     0
  9
$DIMTVP
 40
0.0
  9
$DIMTIX
 70
     0
  9
$DIMSOXD
 70
     0
  9
$DIMSAH
 70
     0
  9
$DIMBLK1
  1

  9
$DIMBLK2
  1

  9
$DIMSTYLE
  2
Standard
  9
$DIMCLRD
 70
     0
  9
$DIMCLRE
 70
     0
  9
$DIMCLRT
 70
     0
  9
$DIMTFAC
 40
1.0
  9
$DIMGAP
 40
0.09
  9
$DIMJUST
 70
     0
  9
$DIMSD1
 70
     0
  9
$DIMSD2
 70
     0
  9
$DIMTOLJ
 70
     1
  9
$DIMTZIN
 70
     0
  9
$DIMALTZ
 70
     0
  9
$DIMALTTZ
 70
     0
  9
$DIMUPT
 70
     0
  9
$DIMDEC
 70
     4
  9
$DIMTDEC
 70
     4
  9
$DIMALTU
 70
     2
  9
$DIMALTTD
 70
     2
  9
$DIMTXSTY
  7
Standard
  9
$DIMAUNIT
 70
     0
  9
$DIMADEC
 70
     0
  9
$DIMALTRND
 40
0.0
  9
$DIMAZIN
 70
     0
  9
$DIMDSEP
 70
    46
  9
$DIMATFIT
 70
     3
  9
$DIMFRAC
 70
     0
  9
$DIMLDRBLK
  1

  9
$DIMLUNIT
 70
     2
  9
$DIMLWD
 70
    -2
  9
$DIMLWE
 70
    -2
  9
$DIMTMOVE
 70
     0
  9
$DIMFXL
 40
1.0
  9
$DIMFXLON
 70
     0
  9
$DIMJOGANG
 40
0.7853981633974483
  9
$DIMTFILL
 70
     0
  9
$DIMTFILLCLR
 70
     0
  9
$DIMARCSYM
 70
     0
  9
$DIMLTYPE
  6

  9
$DIMLTEX1
  6

  9
$DIMLTEX2
  6

  9
$DIMTXTDIRECTION
 70
     0
  9
$LUNITS
 70
     2
  9
$LUPREC
 70
     4
  9
$SKETCHINC
 40
0.1
  9
$FILLETRAD
 40
0.0
  9
$AUNITS
 70
     0
  9
$AUPREC
 70
     0
  9
$MENU
  1
.
  9
$ELEVATION
 40
0.0
  9
$PELEVATION
 40
0.0
  9
$THICKNESS
 40
0.0
  9
$LIMCHECK
 70
     0
  9
$CHAMFERA
 40
0.0
  9
$CHAMFERB
 40
0.0
  9
$CHAMFERC
 40
0.0
  9
$CHAMFERD
 40
0.0
  9
$SKPOLY
 70
     0
  9
$TDCREATE
 40
2457053.542572465
  9
$TDUCREATE
 40
2457053.167572465
  9
$TDUPDATE
 40
2457053.542572465
  9
$TDUUPDATE
 40
2457053.167572465
  9
$TDINDWG
 40
0.0000278241
  9
$TDUSRTIMER
 40
0.0000278241
  9
$USRTIMER
 70
     1
  9
$ANGBASE
 50
0.0
  9
$ANGDIR
 70
     0
  9
$PDMODE
 70
     0
  9
$PDSIZE
 40
0.0
  9
$PLINEWID
 40
0.0
  9
$SPLFRAME
 70
     0
  9
$SPLINETYPE
 70
     6
  9
$SPLINESEGS
 70
     8
  9
$HANDSEED
  5
339
  9
$SURFTAB1
 70
     6
  9
$SURFTAB2
 70
     6
  9
$SURFTYPE
 70
     6
  9
$SURFU
 70
     6
  9
$SURFV
 70
     6
  9
$UCSBASE
  2

  9
$UCSNAME
  2

  9
$UCSORG
 10
0.0
 20
0.0
 30
0.0
  9
$UCSXDIR
 10
1.0
 20
0.0
 30
0.0
  9
$UCSYDIR
 10
0.0
 20
1.0
 30
0.0
  9
$UCSORTHOREF
  2

  9
$UCSORTHOVIEW
 70
     0
  9
$UCSORGTOP
 10
0.0
 20
0.0
 30
0.0
  9
$UCSORGBOTTOM
 10
0.0
 20
0.0
 30
0.0
  9
$UCSORGLEFT
 10
0.0
 20
0.0
 30
0.0
  9
$UCSORGRIGHT
 10
0.0
 20
0.0
 30
0.0
  9
$UCSORGFRONT
 10
0.0
 20
0.0
 30
0.0
  9
$UCSORGBACK
 10
0.0
 20
0.0
 30
0.0
  9
$PUCSBASE
  2

  9
$PUCSNAME
  2

  9
$PUCSORG
 10
0.0
 20
0.0
 30
0.0
  9
$PUCSXDIR
 10
1.0
 20
0.0
 30
0.0
  9
$PUCSYDIR
 10
0.0
 20
1.0
 30
0.0
  9
$PUCSORTHOREF
  2

  9
$PUCSORTHOVIEW
 70
     0
  9
$PUCSORGTOP
 10
0.0
 20
0.0
 30
0.0
  9
$PUCSORGBOTTOM
 10
0.0
 20
0.0
 30
0.0
  9
$PUCSORGLEFT
 10
0.0
 20
0.0
 30
0.0
  9
$PUCSORGRIGHT
 10
0.0
 20
0.0
 30
0.0
  9
$PUCSORGFRONT
 10
0.0
 20
0.0
 30
0.0
  9
$PUCSORGBACK
 10
0.0
 20
0.0
 30
0.0
  9
$USERI1
 70
     0
  9
$USERI2
 70
     0
  9
$USERI3
 70
     0
  9
$USERI4
 70
     0
  9
$USERI5
 70
     0
  9
$USERR1
 40
0.0
  9
$USERR2
 40
0.0
  9
$USERR3
 40
0.0
  9
$USERR4
 40
0.0
  9
$USERR5
 40
0.0
  9
$WORLDVIEW
 70
     1
  9
$SHADEDGE
 70
     3
  9
$SHADEDIF
 70
    70
  9
$TILEMODE
 70
     1
  9
$MAXACTVP
 70
    64
  9
$PINSBASE
 10
0.0
 20
0.0
 30
0.0
  9
$PLIMCHECK
 70
     0
  9
$PEXTMIN
 10
0.0
 20
0.0
 30
0.0
  9
$PEXTMAX
 10
297.0
 20
210.0
 30
0.0
  9
$PLIMMIN
 10
0.0
 20
0.0
  9
$PLIMMAX
 10
297.0
 20
210.0
  9
$UNITMODE
 70
     0
  9
$VISRETAIN
 70
     1
  9
$PLINEGEN
 70
     0
  9
$PSLTSCALE
 70
     1
  9
$TREEDEPTH
 70
  3020
  9
$CMLSTYLE
  2
Standard
  9
$CMLJUST
 70
     0
  9
$CMLSCALE
 40
1.0
  9
$PROXYGRAPHICS
 70
     1
  9
$MEASUREMENT
 70
     1
  9
$CELWEIGHT
370
    -1
  9
$ENDCAPS
280
     0
  9
$JOINSTYLE
280
     0
  9
$LWDISPLAY
290
     0
  9
$INSUNITS
 70
     4
  9
$HYPERLINKBASE
  1

  9
$STYLESHEET
  1

  9
$XEDIT
290
     1
  9
$CEPSNTYPE
380
     0
  9
$PSTYLEMODE
290
     1
  9
$FINGERPRINTGUID
  2
{3E5746B1-0449-4B85-8AAE-C6D719EFA53B}
  9
$VERSIONGUID
  2
{8D6E2A20-9E52-4D25-AE39-5EB217B9C2F9}
  9
$EXTNAMES
290
     1
  9
$PSVPSCALE
 40
0.0
  9
$OLESTARTUP
290
     0
  9
$SORTENTS
280
   127
  9
$INDEXCTL
280
     0
  9
$HIDETEXT
280
     1
  9
$XCLIPFRAME
280
     2
  9
$HALOGAP
280
     0
  9
$OBSCOLOR
 70
   257
  9
$OBSLTYPE
280
     0
  9
$INTERSECTIONDISPLAY
280
     0
  9
$INTERSECTIONCOLOR
 70
   257
  9
$DIMASSOC
280
     1
  9
$PROJECTNAME
  1

  9
$CAMERADISPLAY
290
     0
  9
$LENSLENGTH
 40
50.0
  9
$CAMERAHEIGHT
 40
0.0
  9
$STEPSPERSEC
 40
2.0
  9
$STEPSIZE
 40
6.0
  9
$3DDWFPREC
 40
2.0
  9
$PSOLWIDTH
 40
0.25
  9
$PSOLHEIGHT
 40
4.0
  9
$LOFTANG1
 40
1.570796326794896
  9
$LOFTANG2
 40
1.570796326794896
  9
$LOFTMAG1
 40
0.0
  9
$LOFTMAG2
 40
0.0
  9
$LOFTPARAM
 70
     7
  9
$LOFTNORMALS
280
     1
  9
$LATITUDE
 40
37.795
  9
$LONGITUDE
 40
-122.394
  9
$NORTHDIRECTION
 40
0.0
  9
$TIMEZONE
 70
 -8000
  9
$LIGHTGLYPHDISPLAY
280
     1
  9
$TILEMODELIGHTSYNCH
280
     1
  9
$CMATERIAL
347
11
  9
$SOLIDHIST
280
     1
  9
$SHOWHIST
280
     1
  9
$DWFFRAME
280
     2
  9
$DGNFRAME
280
     0
  9
$REALWORLDSCALE
290
     1
  9
$INTERFERECOLOR
 62
     1
  9
$INTERFEREOBJVS
345
33
  9
$INTERFEREVPVS
346
30
  9
$CSHADOW
280
     0
  9
$SHADOWPLANELOCATION
 40
0.0
  0
ENDSEC
  0
SECTION
  2
CLASSES
  0
CLASS
  1
ACDBDICTIONARYWDFLT
  2
AcDbDictionaryWithDefault
  3
ObjectDBX Classes
 90
        0
 91
        1
280
     0
281
     0
  0
CLASS
  1
MATERIAL
  2
AcDbMaterial
  3
ObjectDBX Classes
 90
     1153
 91
        3
280
     0
281
     0
  0
CLASS
  1
VISUALSTYLE
  2
AcDbVisualStyle
  3
ObjectDBX Classes
 90
     4095
 91
       24
280
     0
281
     0
  0
CLASS
  1
SCALE
  2
AcDbScale
  3
ObjectDBX Classes
 90
     1153
 91
       17
280
     0
281
     0
  0
CLASS
  1
TABLESTYLE
  2
AcDbTableStyle
  3
ObjectDBX Classes
 90
     4095
 91
        1
280
     0
281
     0
  0
CLASS
  1
MLEADERSTYLE
  2
AcDbMLeaderStyle
  3
ACDB_MLEADERSTYLE_CLASS
 90
     4095
 91
        1
280
     0
281
     0
  0
CLASS
  1
DICTIONARYVAR
  2
AcDbDictionaryVar
  3
ObjectDBX Classes
 90
        0
 91
        3
280
     0
281
     0
  0
CLASS
  1
CELLSTYLEMAP
  2
AcDbCellStyleMap
  3
ObjectDBX Classes
 90
     1152
 91
        1
280
     0
281
     0
  0
ENDSEC
  0
SECTION
  2
TABLES
  0
TABLE
  2
VPORT
  5
8
330
0
100
AcDbSymbolTable
 70
     1
  0
VPORT
  5
57
330
8
100
AcDbSymbolTableRecord
100
AcDbViewportTableRecord
  2
*Active
 70
     0
 10
0.0
 20
0.0
 11
1.0
 21
1.0
 12
148.5
 22
105.0
 13
0.0
 23
0.0
 14
1.0
 24
1.0
 15
0.0
 25
0.0
 16
0.0
 26
0.0
 36
1.0
 17
0.0
 27
0.0
 37
0.0
 40
210.0
 41
1.414285714285714
 42
50.0
 43
0.0
 44
0.0
 50
0.0
 51
0.0
 71
     0
 72
   100
 73
     1
 74
     1
 75
     0
 76
     0
 77
     0
 78
     0
281
     0
 65
     1
110
0.0
120
0.0
130
0.0
111
1.0
121
0.0
131
0.0
112
0.0
122
1.0
132
0.0
 79
     0
146
0.0
 60
     3
 61
     5
292
     1
282
     1
141
0.0
142
0.0
 63
   250
421
  3355443
  0
ENDTAB
  0
TABLE
  2
LTYPE
  5
5
330
0
100
AcDbSymbolTable
 70
    58
  0
LTYPE
  5
5B
330
5
100
AcDbSymbolTableRecord
100
AcDbLinetypeTableRecord
  2
ByBlock
 70
     0
  3

 72
    65
 73
     0
 40
0.0
  0
LTYPE
  5
5C
330
5
100
AcDbSymbolTableRecord
100
AcDbLinetypeTableRecord
  2
ByLayer
 70
     0
  3

 72
    65
 73
     0
 40
0.0
  0
LTYPE
  5
5D
330
5
100
AcDbSymbolTableRecord
100
AcDbLinetypeTableRecord
  2
Continuous
 70
     0
  3
Solid line
 72
    65
 73
     0
 40
0.0
  0
LTYPE
  5
74
330
5
100
AcDbSymbolTableRecord
100
AcDbLinetypeTableRecord
  2
CHAIN
 70
     0
  3
Chain ____ _ ____ _ ____ _ ____ _ ____ _ ____
 72
    65
 73
     4
 40
0.3543
 49
0.2362
 74
     0
 49
-0.0295
 74
     0
 49
0.0591
 74
     0
 49
-0.0295
 74
     0
  0
LTYPE
  5
75
330
5
100
AcDbSymbolTableRecord
100
AcDbLinetypeTableRecord
  2
DASH_DOT
 70
     0
  3
Dash dot __ . __ . __ . __ . __ . __ . __ . __
 72
    65
 73
     4
 40
0.37
 49
0.24
 74
     0
 49
-0.06
 74
     0
 49
0.01
 74
     0
 49
-0.06
 74
     0
  0
LTYPE
  5
76
330
5
100
AcDbSymbolTableRecord
100
AcDbLinetypeTableRecord
  2
DASH_DOUBLE_DOT
 70
     0
  3
Dash Double-Dot __ . . __ . . __ . . __ . .
 72
    65
 73
     6
 40
0.4398
 49
0.24
 74
     0
 49
-0.06
 74
     0
 49
0.0098
 74
     0
 49
-0.06
 74
     0
 49
0.01
 74
     0
 49
-0.06
 74
     0
  0
LTYPE
  5
77
330
5
100
AcDbSymbolTableRecord
100
AcDbLinetypeTableRecord
  2
DASH_TRIPLE_DOT
 70
     0
  3
Dash Triple-Dot _ . . . _ . . . _ . . . _
 72
    65
 73
     8
 40
0.51
 49
0.24
 74
     0
 49
-0.06
 74
     0
 49
0.01
 74
     0
 49
-0.06
 74
     0
 49
0.01
 74
     0
 49
-0.06
 74
     0
 49
0.01
 74
     0
 49
-0.06
 74
     0
  0
LTYPE
  5
78
330
5
100
AcDbSymbolTableRecord
100
AcDbLinetypeTableRecord
  2
DASHED
 70
     0
  3
Dashed __ __ __ __ __ __ __ __ __ __ __ __ __ _
 72
    65
 73
     2
 40
0.2067
 49
0.1654
 74
     0
 49
-0.0413
 74
     0
  0
LTYPE
  5
79
330
5
100
AcDbSymbolTableRecord
100
AcDbLinetypeTableRecord
  2
DASHED_SPACE
 70
     0
  3
Dashed Space __ __ __ __ __ __ __ __ __ __ __ _
 72
    65
 73
     2
 40
0.0826
 49
0.0413
 74
     0
 49
-0.0413
 74
     0
  0
LTYPE
  5
7A
330
5
100
AcDbSymbolTableRecord
100
AcDbLinetypeTableRecord
  2
DOTTED
 70
     0
  3
Dotted . . . . . . . . . . . . . . . . . . . . 
 72
    65
 73
     2
 40
0.0482
 49
0.0069
 74
     0
 49
-0.0413
 74
     0
  0
LTYPE
  5
7B
330
5
100
AcDbSymbolTableRecord
100
AcDbLinetypeTableRecord
  2
DOUBLE_DASH_CHAIN
 70
     0
  3
Double Dash Chain ___ _ _ ___ _ _ ___ _ _ ___ _
 72
    65
 73
     6
 40
1.240299999999999
 49
0.6614
 74
     0
 49
-0.0827
 74
     0
 49
0.1654
 74
     0
 49
-0.0827
 74
     0
 49
0.1654
 74
     0
 49
-0.0827
 74
     0
  0
LTYPE
  5
7C
330
5
100
AcDbSymbolTableRecord
100
AcDbLinetypeTableRecord
  2
DOUBLE_DASH_DOT
 70
     0
  3
Double Dash Dot __ __ . __ __ . __ __ . __ _
 72
    65
 73
     6
 40
0.67
 49
0.24
 74
     0
 49
-0.06
 74
     0
 49
0.24
 74
     0
 49
-0.06
 74
     0
 49
0.01
 74
     0
 49
-0.06
 74
     0
  0
LTYPE
  5
7D
330
5
100
AcDbSymbolTableRecord
100
AcDbLinetypeTableRecord
  2
DOUBLE_DASH_DOUBLE_DOT
 70
     0
  3
Double-dash double-dot _ _ . . _ _ . . _
 72
    65
 73
     8
 40
0.7400000000000001
 49
0.24
 74
     0
 49
-0.06
 74
     0
 49
0.24
 74
     0
 49
-0.06
 74
     0
 49
0.01
 74
     0
 49
-0.06
 74
     0
 49
0.01
 74
     0
 49
-0.06
 74
     0
  0
LTYPE
  5
7E
330
5
100
AcDbSymbolTableRecord
100
AcDbLinetypeTableRecord
  2
DOUBLE_DASH_TRIPLE_DOT
 70
     0
  3
Double Dash Triple Dot __ __ . . . __ __ . . .
 72
    65
 73
    10
 40
0.8100000000000001
 49
0.24
 74
     0
 49
-0.06
 74
     0
 49
0.24
 74
     0
 49
-0.06
 74
     0
 49
0.01
 74
     0
 49
-0.06
 74
     0
 49
0.01
 74
     0
 49
-0.06
 74
     0
 49
0.01
 74
     0
 49
-0.06
 74
     0
  0
LTYPE
  5
7F
330
5
100
AcDbSymbolTableRecord
100
AcDbLinetypeTableRecord
  2
LONG_DASH_DOTTED
 70
     0
  3
Long Dash Dotted ____ . ____ . ____ . ____ . _
 72
    65
 73
     4
 40
0.61
 49
0.48
 74
     0
 49
-0.06
 74
     0
 49
0.01
 74
     0
 49
-0.06
 74
     0
  0
LTYPE
  5
80
330
5
100
AcDbSymbolTableRecord
100
AcDbLinetypeTableRecord
  2
LONG_DASH_DOUBLE_DOT
 70
     0
  3
Long Dash Double Dot ____ . . ____ . . ____ . .
 72
    65
 73
     6
 40
0.3345
 49
0.2362
 74
     0
 49
-0.0295
 74
     0
 49
0.0049
 74
     0
 49
-0.0295
 74
     0
 49
0.0049
 74
     0
 49
-0.0295
 74
     0
  0
LTYPE
  5
81
330
5
100
AcDbSymbolTableRecord
100
AcDbLinetypeTableRecord
  2
LONG_DASH_TRIPLE_DOT
 70
     0
  3
Long Dash Triple Dot ____ ... ____ ... ____
 72
    65
 73
     8
 40
0.75
 49
0.48
 74
     0
 49
-0.06
 74
     0
 49
0.01
 74
     0
 49
-0.06
 74
     0
 49
0.01
 74
     0
 49
-0.06
 74
     0
 49
0.01
 74
     0
 49
-0.06
 74
     0
  0
LTYPE
  5
82
330
5
100
AcDbSymbolTableRecord
100
AcDbLinetypeTableRecord
  2
BORDER
 70
     0
  3
Border __ __ . __ __ . __ __ . __ __ . __ __ .
 72
    65
 73
     6
 40
44.45
 49
12.7
 74
     0
 49
-6.349999999999999
 74
     0
 49
12.7
 74
     0
 49
-6.349999999999999
 74
     0
 49
0.0
 74
     0
 49
-6.349999999999999
 74
     0
  0
LTYPE
  5
83
330
5
100
AcDbSymbolTableRecord
100
AcDbLinetypeTableRecord
  2
BORDER2
 70
     0
  3
Border (.5x) __.__.__.__.__.__.__.__.__.__.__.
 72
    65
 73
     6
 40
22.225
 49
6.349999999999999
 74
     0
 49
-3.174999999999999
 74
     0
 49
6.349999999999999
 74
     0
 49
-3.174999999999999
 74
     0
 49
0.0
 74
     0
 49
-3.174999999999999
 74
     0
  0
LTYPE
  5
84
330
5
100
AcDbSymbolTableRecord
100
AcDbLinetypeTableRecord
  2
BORDERX2
 70
     0
  3
Border (2x) ____  ____  .  ____  ____  .  ___
 72
    65
 73
     6
 40
88.9
 49
25.4
 74
     0
 49
-12.7
 74
     0
 49
25.4
 74
     0
 49
-12.7
 74
     0
 49
0.0
 74
     0
 49
-12.7
 74
     0
  0
LTYPE
  5
85
330
5
100
AcDbSymbolTableRecord
100
AcDbLinetypeTableRecord
  2
CENTER
 70
     0
  3
Center ____ _ ____ _ ____ _ ____ _ ____ _ ____
 72
    65
 73
     4
 40
50.8
 49
31.75
 74
     0
 49
-6.349999999999999
 74
     0
 49
6.349999999999999
 74
     0
 49
-6.349999999999999
 74
     0
  0
LTYPE
  5
86
330
5
100
AcDbSymbolTableRecord
100
AcDbLinetypeTableRecord
  2
CENTER2
 70
     0
  3
Center (.5x) ___ _ ___ _ ___ _ ___ _ ___ _ ___
 72
    65
 73
     4
 40
28.575
 49
19.05
 74
     0
 49
-3.174999999999999
 74
     0
 49
3.174999999999999
 74
     0
 49
-3.174999999999999
 74
     0
  0
LTYPE
  5
87
330
5
100
AcDbSymbolTableRecord
100
AcDbLinetypeTableRecord
  2
CENTERX2
 70
     0
  3
Center (2x) ________  __  ________  __  _____
 72
    65
 73
     4
 40
101.6
 49
63.5
 74
     0
 49
-12.7
 74
     0
 49
12.7
 74
     0
 49
-12.7
 74
     0
  0
LTYPE
  5
88
330
5
100
AcDbSymbolTableRecord
100
AcDbLinetypeTableRecord
  2
DASHDOT
 70
     0
  3
Dash dot __ . __ . __ . __ . __ . __ . __ . __
 72
    65
 73
     4
 40
25.4
 49
12.7
 74
     0
 49
-6.349999999999999
 74
     0
 49
0.0
 74
     0
 49
-6.349999999999999
 74
     0
  0
LTYPE
  5
89
330
5
100
AcDbSymbolTableRecord
100
AcDbLinetypeTableRecord
  2
DASHDOT2
 70
     0
  3
Dash dot (.5x) _._._._._._._._._._._._._._._.
 72
    65
 73
     4
 40
12.7
 49
6.349999999999999
 74
     0
 49
-3.174999999999999
 74
     0
 49
0.0
 74
     0
 49
-3.174999999999999
 74
     0
  0
LTYPE
  5
8A
330
5
100
AcDbSymbolTableRecord
100
AcDbLinetypeTableRecord
  2
DASHDOTX2
 70
     0
  3
Dash dot (2x) ____  .  ____  .  ____  .  ___
 72
    65
 73
     4
 40
50.8
 49
25.4
 74
     0
 49
-12.7
 74
     0
 49
0.0
 74
     0
 49
-12.7
 74
     0
  0
LTYPE
  5
8B
330
5
100
AcDbSymbolTableRecord
100
AcDbLinetypeTableRecord
  2
DASHED2
 70
     0
  3
Dashed (.5x) _ _ _ _ _ _ _ _ _ _ _ _ _ _ _ _ _
 72
    65
 73
     2
 40
9.524999999999998
 49
6.349999999999999
 74
     0
 49
-3.174999999999999
 74
     0
  0
LTYPE
  5
8C
330
5
100
AcDbSymbolTableRecord
100
AcDbLinetypeTableRecord
  2
DASHEDX2
 70
     0
  3
Dashed (2x) ____  ____  ____  ____  ____  ___
 72
    65
 73
     2
 40
38.1
 49
25.4
 74
     0
 49
-12.7
 74
     0
  0
LTYPE
  5
8D
330
5
100
AcDbSymbolTableRecord
100
AcDbLinetypeTableRecord
  2
DIVIDE
 70
     0
  3
Divide ____ . . ____ . . ____ . . ____ . . ____
 72
    65
 73
     6
 40
31.75
 49
12.7
 74
     0
 49
-6.349999999999999
 74
     0
 49
0.0
 74
     0
 49
-6.349999999999999
 74
     0
 49
0.0
 74
     0
 49
-6.349999999999999
 74
     0
  0
LTYPE
  5
8E
330
5
100
AcDbSymbolTableRecord
100
AcDbLinetypeTableRecord
  2
DIVIDE2
 70
     0
  3
Divide (.5x) __..__..__..__..__..__..__..__.._
 72
    65
 73
     6
 40
15.875
 49
6.349999999999999
 74
     0
 49
-3.174999999999999
 74
     0
 49
0.0
 74
     0
 49
-3.174999999999999
 74
     0
 49
0.0
 74
     0
 49
-3.174999999999999
 74
     0
  0
LTYPE
  5
8F
330
5
100
AcDbSymbolTableRecord
100
AcDbLinetypeTableRecord
  2
DIVIDEX2
 70
     0
  3
Divide (2x) ________  .  .  ________  .  .  _
 72
    65
 73
     6
 40
63.49999999999999
 49
25.4
 74
     0
 49
-12.7
 74
     0
 49
0.0
 74
     0
 49
-12.7
 74
     0
 49
0.0
 74
     0
 49
-12.7
 74
     0
  0
LTYPE
  5
90
330
5
100
AcDbSymbolTableRecord
100
AcDbLinetypeTableRecord
  2
DOT2
 70
     0
  3
Dot (.5x) .....................................
 72
    65
 73
     2
 40
3.174999999999999
 49
0.0
 74
     0
 49
-3.174999999999999
 74
     0
  0
LTYPE
  5
91
330
5
100
AcDbSymbolTableRecord
100
AcDbLinetypeTableRecord
  2
DOTX2
 70
     0
  3
Dot (2x) .  .  .  .  .  .  .  .  .  .  .  .  . 
 72
    65
 73
     2
 40
12.7
 49
0.0
 74
     0
 49
-12.7
 74
     0
  0
LTYPE
  5
92
330
5
100
AcDbSymbolTableRecord
100
AcDbLinetypeTableRecord
  2
HIDDEN
 70
     0
  3
Hidden __ __ __ __ __ __ __ __ __ __ __ __ __ _
 72
    65
 73
     2
 40
9.524999999999998
 49
6.349999999999999
 74
     0
 49
-3.174999999999999
 74
     0
  0
LTYPE
  5
93
330
5
100
AcDbSymbolTableRecord
100
AcDbLinetypeTableRecord
  2
HIDDEN2
 70
     0
  3
Hidden (.5x) _ _ _ _ _ _ _ _ _ _ _ _ _ _ _ _ _
 72
    65
 73
     2
 40
4.762499999999999
 49
3.174999999999999
 74
     0
 49
-1.587499999999999
 74
     0
  0
LTYPE
  5
94
330
5
100
AcDbSymbolTableRecord
100
AcDbLinetypeTableRecord
  2
HIDDENX2
 70
     0
  3
Hidden (2x) ____ ____ ____ ____ ____ ____ ____
 72
    65
 73
     2
 40
19.05
 49
12.7
 74
     0
 49
-6.349999999999999
 74
     0
  0
LTYPE
  5
95
330
5
100
AcDbSymbolTableRecord
100
AcDbLinetypeTableRecord
  2
PHANTOM
 70
     0
  3
Phantom ______  __  __  ______  __  __  ______
 72
    65
 73
     6
 40
63.5
 49
31.75
 74
     0
 49
-6.349999999999999
 74
     0
 49
6.349999999999999
 74
     0
 49
-6.349999999999999
 74
     0
 49
6.349999999999999
 74
     0
 49
-6.349999999999999
 74
     0
  0
LTYPE
  5
96
330
5
100
AcDbSymbolTableRecord
100
AcDbLinetypeTableRecord
  2
PHANTOM2
 70
     0
  3
Phantom (.5x) ___ _ _ ___ _ _ ___ _ _ ___ _ _
 72
    65
 73
     6
 40
31.75
 49
15.875
 74
     0
 49
-3.174999999999999
 74
     0
 49
3.174999999999999
 74
     0
 49
-3.174999999999999
 74
     0
 49
3.174999999999999
 74
     0
 49
-3.174999999999999
 74
     0
  0
LTYPE
  5
97
330
5
100
AcDbSymbolTableRecord
100
AcDbLinetypeTableRecord
  2
PHANTOMX2
 70
     0
  3
Phantom (2x) ____________    ____    ____   _
 72
    65
 73
     6
 40
127.0
 49
63.5
 74
     0
 49
-12.7
 74
     0
 49
12.7
 74
     0
 49
-12.7
 74
     0
 49
12.7
 74
     0
 49
-12.7
 74
     0
  0
LTYPE
  5
98
330
5
100
AcDbSymbolTableRecord
100
AcDbLinetypeTableRecord
  2
ACAD_ISO02W100
 70
     0
  3
ISO dash __ __ __ __ __ __ __ __ __ __ __ __ __
 72
    65
 73
     2
 40
15.0
 49
12.0
 74
     0
 49
-3.0
 74
     0
  0
LTYPE
  5
99
330
5
100
AcDbSymbolTableRecord
100
AcDbLinetypeTableRecord
  2
ACAD_ISO03W100
 70
     0
  3
ISO dash space __    __    __    __    __    __
 72
    65
 73
     2
 40
30.0
 49
12.0
 74
     0
 49
-18.0
 74
     0
  0
LTYPE
  5
9A
330
5
100
AcDbSymbolTableRecord
100
AcDbLinetypeTableRecord
  2
ACAD_ISO04W100
 70
     0
  3
ISO long-dash dot ____ . ____ . ____ . ____ . _
 72
    65
 73
     4
 40
30.0
 49
24.0
 74
     0
 49
-3.0
 74
     0
 49
0.0
 74
     0
 49
-3.0
 74
     0
  0
LTYPE
  5
9B
330
5
100
AcDbSymbolTableRecord
100
AcDbLinetypeTableRecord
  2
ACAD_ISO05W100
 70
     0
  3
ISO long-dash double-dot ____ .. ____ .. ____ .
 72
    65
 73
     6
 40
33.0
 49
24.0
 74
     0
 49
-3.0
 74
     0
 49
0.0
 74
     0
 49
-3.0
 74
     0
 49
0.0
 74
     0
 49
-3.0
 74
     0
  0
LTYPE
  5
9C
330
5
100
AcDbSymbolTableRecord
100
AcDbLinetypeTableRecord
  2
ACAD_ISO06W100
 70
     0
  3
ISO long-dash triple-dot ____ ... ____ ... ____
 72
    65
 73
     8
 40
36.0
 49
24.0
 74
     0
 49
-3.0
 74
     0
 49
0.0
 74
     0
 49
-3.0
 74
     0
 49
0.0
 74
     0
 49
-3.0
 74
     0
 49
0.0
 74
     0
 49
-3.0
 74
     0
  0
LTYPE
  5
9D
330
5
100
AcDbSymbolTableRecord
100
AcDbLinetypeTableRecord
  2
ACAD_ISO07W100
 70
     0
  3
ISO dot . . . . . . . . . . . . . . . . . . . .
 72
    65
 73
     2
 40
3.0
 49
0.0
 74
     0
 49
-3.0
 74
     0
  0
LTYPE
  5
9E
330
5
100
AcDbSymbolTableRecord
100
AcDbLinetypeTableRecord
  2
ACAD_ISO08W100
 70
     0
  3
ISO long-dash short-dash ____ __ ____ __ ____ _
 72
    65
 73
     4
 40
36.0
 49
24.0
 74
     0
 49
-3.0
 74
     0
 49
6.0
 74
     0
 49
-3.0
 74
     0
  0
LTYPE
  5
9F
330
5
100
AcDbSymbolTableRecord
100
AcDbLinetypeTableRecord
  2
ACAD_ISO09W100
 70
     0
  3
ISO long-dash double-short-dash ____ __ __ ____
 72
    65
 73
     6
 40
45.0
 49
24.0
 74
     0
 49
-3.0
 74
     0
 49
6.0
 74
     0
 49
-3.0
 74
     0
 49
6.0
 74
     0
 49
-3.0
 74
     0
  0
LTYPE
  5
A0
330
5
100
AcDbSymbolTableRecord
100
AcDbLinetypeTableRecord
  2
ACAD_ISO10W100
 70
     0
  3
ISO dash dot __ . __ . __ . __ . __ . __ . __ .
 72
    65
 73
     4
 40
18.0
 49
12.0
 74
     0
 49
-3.0
 74
     0
 49
0.0
 74
     0
 49
-3.0
 74
     0
  0
LTYPE
  5
A1
330
5
100
AcDbSymbolTableRecord
100
AcDbLinetypeTableRecord
  2
ACAD_ISO11W100
 70
     0
  3
ISO double-dash dot __ __ . __ __ . __ __ . __ 
 72
    65
 73
     6
 40
33.0
 49
12.0
 74
     0
 49
-3.0
 74
     0
 49
12.0
 74
     0
 49
-3.0
 74
     0
 49
0.0
 74
     0
 49
-3.0
 74
     0
  0
LTYPE
  5
A2
330
5
100
AcDbSymbolTableRecord
100
AcDbLinetypeTableRecord
  2
ACAD_ISO12W100
 70
     0
  3
ISO dash double-dot __ . . __ . . __ . . __ . .
 72
    65
 73
     6
 40
21.0
 49
12.0
 74
     0
 49
-3.0
 74
     0
 49
0.0
 74
     0
 49
-3.0
 74
     0
 49
0.0
 74
     0
 49
-3.0
 74
     0
  0
LTYPE
  5
A3
330
5
100
AcDbSymbolTableRecord
100
AcDbLinetypeTableRecord
  2
ACAD_ISO13W100
 70
     0
  3
ISO double-dash double-dot __ __ . . __ __ . . 
 72
    65
 73
     8
 40
36.0
 49
12.0
 74
     0
 49
-3.0
 74
     0
 49
12.0
 74
     0
 49
-3.0
 74
     0
 49
0.0
 74
     0
 49
-3.0
 74
     0
 49
0.0
 74
     0
 49
-3.0
 74
     0
  0
LTYPE
  5
A4
330
5
100
AcDbSymbolTableRecord
100
AcDbLinetypeTableRecord
  2
ACAD_ISO14W100
 70
     0
  3
ISO dash triple-dot __ . . . __ . . . __ . . . 
 72
    65
 73
     8
 40
24.0
 49
12.0
 74
     0
 49
-3.0
 74
     0
 49
0.0
 74
     0
 49
-3.0
 74
     0
 49
0.0
 74
     0
 49
-3.0
 74
     0
 49
0.0
 74
     0
 49
-3.0
 74
     0
  0
LTYPE
  5
A5
330
5
100
AcDbSymbolTableRecord
100
AcDbLinetypeTableRecord
  2
ACAD_ISO15W100
 70
     0
  3
ISO double-dash triple-dot __ __ . . . __ __ . 
 72
    65
 73
    10
 40
39.0
 49
12.0
 74
     0
 49
-3.0
 74
     0
 49
12.0
 74
     0
 49
-3.0
 74
     0
 49
0.0
 74
     0
 49
-3.0
 74
     0
 49
0.0
 74
     0
 49
-3.0
 74
     0
 49
0.0
 74
     0
 49
-3.0
 74
     0
  0
LTYPE
  5
A8
330
5
100
AcDbSymbolTableRecord
100
AcDbLinetypeTableRecord
  2
FENCELINE1
 70
     0
  3
Fenceline circle ----0-----0----0-----0----0---
 72
    65
 73
     4
 40
36.83
 49
6.349999999999999
 74
     0
 49
-2.54
 74
     4
 75
   133
340
A7
 46
2.54
 50
0.0
 44
-2.54
 45
0.0
 49
-2.54
 74
     0
 49
25.4
 74
     0
  0
LTYPE
  5
A9
330
5
100
AcDbSymbolTableRecord
100
AcDbLinetypeTableRecord
  2
FENCELINE2
 70
     0
  3
Fenceline square ----[]-----[]----[]-----[]----
 72
    65
 73
     4
 40
36.83
 49
6.349999999999999
 74
     0
 49
-2.54
 74
     4
 75
   132
340
A7
 46
2.54
 50
0.0
 44
-2.54
 45
0.0
 49
-2.54
 74
     0
 49
25.4
 74
     0
  0
LTYPE
  5
AA
330
5
100
AcDbSymbolTableRecord
100
AcDbLinetypeTableRecord
  2
TRACKS
 70
     0
  3
Tracks -|-|-|-|-|-|-|-|-|-|-|-|-|-|-|-|-|-|-|-|
 72
    65
 73
     2
 40
7.62
 49
3.81
 74
     4
 75
   130
340
A7
 46
6.349999999999999
 50
0.0
 44
0.0
 45
0.0
 49
3.81
 74
     0
  0
LTYPE
  5
AB
330
5
100
AcDbSymbolTableRecord
100
AcDbLinetypeTableRecord
  2
BATTING
 70
     0
  3
Batting SSSSSSSSSSSSSSSSSSSSSSSSSSSSSSSSSSSSSSS
 72
    65
 73
     4
 40
10.16254
 49
0.00254
 74
     0
 49
-2.54
 74
     4
 75
   134
340
A7
 46
2.54
 50
0.0
 44
-2.54
 45
0.0
 49
-5.08
 74
     4
 75
   134
340
A7
 46
2.54
 50
180.0
 44
2.54
 45
0.0
 49
-2.54
 74
     0
  0
LTYPE
  5
AC
330
5
100
AcDbSymbolTableRecord
100
AcDbLinetypeTableRecord
  2
HOT_WATER_SUPPLY
 70
     0
  3
Hot water supply ---- HW ---- HW ---- HW ----
 72
    65
 73
     3
 40
22.86
 49
12.7
 74
     0
 49
-5.08
 74
     2
 75
     0
340
55
 46
2.54
 50
0.0
 44
-2.54
 45
-1.27
  9
HW
 49
-5.08
 74
     0
  0
LTYPE
  5
AD
330
5
100
AcDbSymbolTableRecord
100
AcDbLinetypeTableRecord
  2
GAS_LINE
 70
     0
  3
Gas line ----GAS----GAS----GAS----GAS----GAS---
 72
    65
 73
     3
 40
24.13
 49
12.7
 74
     0
 49
-5.08
 74
     2
 75
     0
340
55
 46
2.54
 50
0.0
 44
-2.54
 45
-1.27
  9
GAS
 49
-6.349999999999999
 74
     0
  0
LTYPE
  5
AE
330
5
100
AcDbSymbolTableRecord
100
AcDbLinetypeTableRecord
  2
ZIGZAG
 70
     0
  3
Zig zag /\/\/\/\/\/\/\/\/\/\/\/\/\/\/\/\/\/\/\/
 72
    65
 73
     4
 40
20.32254
 49
0.00254
 74
     0
 49
-5.08
 74
     4
 75
   131
340
A7
 46
5.08
 50
0.0
 44
-5.08
 45
0.0
 49
-10.16
 74
     4
 75
   131
340
A7
 46
5.08
 50
180.0
 44
5.08
 45
0.0
 49
-5.08
 74
     0
  0
ENDTAB
  0
TABLE
  2
LAYER
  5
2
330
0
100
AcDbSymbolTable
 70
    30
  0
LAYER
  5
54
330
2
100
AcDbSymbolTableRecord
100
AcDbLayerTableRecord
  2
0
 70
     0
 62
     7
  6
Continuous
370
    25
390
F
347
21
  0
LAYER
  5
AF
330
2
100
AcDbSymbolTableRecord
100
AcDbLayerTableRecord
  2
1
 70
     0
 62
     9
420
 12566463
  6
Continuous
370
    25
390
F
347
21
  0
LAYER
  5
B1
330
2
100
AcDbSymbolTableRecord
100
AcDbLayerTableRecord
  2
6
 70
     0
 62
     2
420
 16776960
  6
Continuous
370
    25
390
F
347
21
  0
LAYER
  5
B2
330
2
100
AcDbSymbolTableRecord
100
AcDbLayerTableRecord
  2
AM_6
 70
     0
 62
     2
420
 16776960
  6
Continuous
370
    35
390
F
347
21
  0
LAYER
  5
C2
330
2
100
AcDbSymbolTableRecord
100
AcDbLayerTableRecord
  2
Sketch Geometry (ISO)
 70
     0
 62
     7
  6
Continuous
370
    25
390
F
347
21
  0
LAYER
  5
C3
330
2
100
AcDbSymbolTableRecord
100
AcDbLayerTableRecord
  2
Symbol (ISO)
 70
     0
 62
     7
  6
Continuous
370
    25
390
F
347
21
  0
LAYER
  5
C6
330
2
100
AcDbSymbolTableRecord
100
AcDbLayerTableRecord
  2
Visible (ISO)
 70
     0
 62
     7
  6
Continuous
370
    35
390
F
347
21
  0
LAYER
  5
C7
330
2
100
AcDbSymbolTableRecord
100
AcDbLayerTableRecord
  2
Visible Narrow (ISO)
 70
     0
 62
     7
  6
Continuous
370
    35
390
F
347
21
  0
ENDTAB
  0
TABLE
  2
STYLE
  5
3
330
0
100
AcDbSymbolTable
 70
    17
  0
STYLE
  5
55
330
3
100
AcDbSymbolTableRecord
100
AcDbTextStyleTableRecord
  2
Standard
 70
     0
 40
0.0
 41
1.0
 50
0.0
 71
     0
 42
0.2
  3
tahoma.ttf
  4

1001
ACAD
1000
Tahoma
1071
      256
  0
STYLE
  5
5A
330
3
100
AcDbSymbolTableRecord
100
AcDbTextStyleTableRecord
  2
Annotative
 70
     0
 40
0.0
 41
1.0
 50
0.0
 71
     0
 42
0.2
  3
txt
  4

1001
AcadAnnotative
1000
AnnotativeData
1002
{
1070
     1
1070
     1
1002
}
  0
STYLE
  5
A7
330
3
100
AcDbSymbolTableRecord
100
AcDbTextStyleTableRecord
  2

 70
     1
 40
0.0
 41
1.0
 50
0.0
 71
     0
 42
0.2
  3
ltypeshp.shx
  4

  0
STYLE
  5
CC
330
3
100
AcDbSymbolTableRecord
100
AcDbTextStyleTableRecord
  2
Label Text (JIS)
 70
     0
 40
0.0
 41
1.0
 50
0.0
 71
     0
 42
0.2
  3

  4

1001
ACAD
1000
MS PGothic
1071
      256
  0
STYLE
  5
CD
330
3
100
AcDbSymbolTableRecord
100
AcDbTextStyleTableRecord
  2
Note Text (JIS)
 70
     0
 40
0.0
 41
1.0
 50
0.0
 71
     0
 42
0.2
  3

  4

1001
ACAD
1000
MS PGothic
1071
      256
  0
STYLE
  5
CE
330
3
100
AcDbSymbolTableRecord
100
AcDbTextStyleTableRecord
  2
ｽﾀｲﾙ1_35
 70
     0
 40
0.0
 41
1.0
 50
0.0
 71
     0
 42
0.2
  3

  4

1001
ACAD
1000
HGPSoeiKakugothicUB
1071
      256
  0
STYLE
  5
117
330
3
100
AcDbSymbolTableRecord
100
AcDbTextStyleTableRecord
  2
文字スタイル218
 70
     0
 40
0.0
 41
1.0
 50
0.0
 71
     0
 42
0.2
  3
ISOCP.shx
  4

  0
STYLE
  5
137
330
3
100
AcDbSymbolTableRecord
100
AcDbTextStyleTableRecord
  2
文字スタイル213
 70
     0
 40
0.0
 41
0.5
 50
0.0
 71
     0
 42
0.2
  3
ISOCP.shx
  4

  0
STYLE
  5
13C
330
3
100
AcDbSymbolTableRecord
100
AcDbTextStyleTableRecord
  2
文字スタイル215
 70
     0
 40
0.0
 41
0.8000000119209289
 50
0.0
 71
     0
 42
0.2
  3
ISOCP.shx
  4

  0
STYLE
  5
13E
330
3
100
AcDbSymbolTableRecord
100
AcDbTextStyleTableRecord
  2
文字スタイル211
 70
     0
 40
0.0
 41
1.0
 50
0.0
 71
     0
 42
0.2
  3
ISOCP.shx
  4

  0
STYLE
  5
14A
330
3
100
AcDbSymbolTableRecord
100
AcDbTextStyleTableRecord
  2
文字スタイル201
 70
     0
 40
0.0
 41
1.0
 50
0.0
 71
     0
 42
0.2
  3
tahoma.ttf
  4

1001
ACAD
1000
Tahoma
1071
      256
  0
STYLE
  5
155
330
3
100
AcDbSymbolTableRecord
100
AcDbTextStyleTableRecord
  2
文字スタイル207
 70
     0
 40
0.0
 41
0.7031300067901612
 50
0.0
 71
     0
 42
0.2
  3
tahoma.ttf
  4

1001
ACAD
1000
Tahoma
1071
      256
  0
STYLE
  5
168
330
3
100
AcDbSymbolTableRecord
100
AcDbTextStyleTableRecord
  2
文字スタイル203
 70
     0
 40
0.0
 41
1.036877036094665
 50
0.0
 71
     0
 42
0.2
  3
tahoma.ttf
  4

1001
ACAD
1000
Tahoma
1071
      256
  0
STYLE
  5
16A
330
3
100
AcDbSymbolTableRecord
100
AcDbTextStyleTableRecord
  2
文字スタイル209
 70
     0
 40
0.0
 41
0.9907101988792419
 50
0.0
 71
     0
 42
0.2
  3
tahoma.ttf
  4

1001
ACAD
1000
Tahoma
1071
      256
  0
STYLE
  5
17A
330
3
100
AcDbSymbolTableRecord
100
AcDbTextStyleTableRecord
  2
文字スタイル124
 70
     0
 40
0.0
 41
1.0
 50
0.0
 71
     0
 42
0.2
  3

  4

1001
ACAD
1000
MS PGothic
1071
      256
  0
STYLE
  5
18C
330
3
100
AcDbSymbolTableRecord
100
AcDbTextStyleTableRecord
  2
文字スタイル126
 70
     0
 40
0.0
 41
1.0
 50
0.0
 71
     0
 42
0.2
  3

  4

1001
ACAD
1000
MS PGothic
1071
      256
  0
STYLE
  5
1AD
330
3
100
AcDbSymbolTableRecord
100
AcDbTextStyleTableRecord
  2
文字スタイル133
 70
     0
 40
0.0
 41
1.0
 50
0.0
 71
     0
 42
0.2
  3
ISOCP.shx
  4

  0
ENDTAB
  0
TABLE
  2
VIEW
  5
6
330
0
100
AcDbSymbolTable
 70
     0
  0
ENDTAB
  0
TABLE
  2
UCS
  5
7
330
0
100
AcDbSymbolTable
 70
     0
  0
ENDTAB
  0
TABLE
  2
APPID
  5
9
330
0
100
AcDbSymbolTable
 70
     2
  0
APPID
  5
56
330
9
100
AcDbSymbolTableRecord
100
AcDbRegAppTableRecord
  2
ACAD
 70
     0
  0
APPID
  5
5E
330
9
100
AcDbSymbolTableRecord
100
AcDbRegAppTableRecord
  2
AcadAnnotative
 70
     0
  0
ENDTAB
  0
TABLE
  2
DIMSTYLE
  5
A
330
0
100
AcDbSymbolTable
 70
    11
100
AcDbDimStyleTable
 71
     0
  0
DIMSTYLE
105
58
330
A
100
AcDbSymbolTableRecord
100
AcDbDimStyleTableRecord
  2
Standard
 70
     0
340
55
  0
DIMSTYLE
105
59
330
A
100
AcDbSymbolTableRecord
100
AcDbDimStyleTableRecord
  2
Annotative
 70
     0
340
55
1001
AcadAnnotative
1000
AnnotativeData
1002
{
1070
     1
1070
     1
1002
}
  0
DIMSTYLE
105
CF
330
A
100
AcDbSymbolTableRecord
100
AcDbDimStyleTableRecord
  2
Default - Method 1b (JIS)
 70
     0
 41
2.5
 42
0.0
 43
5.999999999999999
 44
3.174999999999999
 45
0.00000001
 46
10.0
 73
     0
 77
     1
 78
     8
 79
     2
140
2.5
143
0.03937
146
1.799999952316284
147
0.8
171
     3
172
     1
176
   256
177
   256
178
   256
271
     2
272
     2
274
     3
284
     8
286
     8
340
CD
341
D0
342
D0
371
    -1
372
    -1
  0
DIMSTYLE
105
D6
330
A
100
AcDbSymbolTableRecord
100
AcDbDimStyleTableRecord
  2
Default - Method 1b (JIS)$7
 70
     0
 41
2.5
 42
0.0
 43
5.999999999999999
 44
3.174999999999999
 45
0.00000001
 46
10.0
 73
     0
 77
     1
 78
     8
 79
     2
140
2.5
143
0.03937
146
1.799999952316284
147
0.8
171
     3
172
     1
176
   256
177
   256
178
   256
271
     2
272
     2
274
     3
284
     8
286
     8
340
CD
341
D0
342
D0
371
    -1
372
    -1
  0
DIMSTYLE
105
D7
330
A
100
AcDbSymbolTableRecord
100
AcDbDimStyleTableRecord
  2
Default - Method 2 (JIS)
 70
     0
 41
2.5
 42
0.0
 43
5.999999999999999
 44
3.174999999999999
 45
0.00000001
 46
10.0
 77
     1
 78
     8
 79
     2
140
2.5
143
0.03937
146
1.799999952316284
147
0.8
171
     3
172
     1
176
   256
177
   256
178
   256
271
     2
272
     2
274
     3
284
     8
286
     8
340
CD
341
D0
342
D0
371
    -1
372
    -1
  0
DIMSTYLE
105
D8
330
A
100
AcDbSymbolTableRecord
100
AcDbDimStyleTableRecord
  2
Default - Method 2 (JIS)$7
 70
     0
 41
2.5
 42
0.0
 43
5.999999999999999
 44
3.174999999999999
 45
0.00000001
 46
10.0
 77
     1
 78
     8
 79
     2
140
2.5
143
0.03937
146
1.799999952316284
147
0.8
171
     3
172
     1
176
   256
177
   256
178
   256
271
     2
272
     2
274
     3
284
     8
286
     8
340
CD
341
D0
342
D0
371
    -1
372
    -1
  0
DIMSTYLE
105
D9
330
A
100
AcDbSymbolTableRecord
100
AcDbDimStyleTableRecord
  2
Default (JIS)
 70
     0
 41
2.5
 42
0.0
 43
5.999999999999999
 44
1.0
 45
0.00000001
 46
10.0
 73
     0
 74
     0
 77
     1
 78
     8
 79
     2
140
2.5
143
0.03937
147
0.8
171
     3
172
     1
176
   256
177
   256
178
   256
271
     2
272
     2
274
     3
340
CD
341
D0
342
D0
371
    -1
372
    -1
  0
DIMSTYLE
105
DA
330
A
100
AcDbSymbolTableRecord
100
AcDbDimStyleTableRecord
  2
Default (JIS)$7
 70
     0
 41
2.5
 42
0.0
 43
5.999999999999999
 44
1.0
 45
0.00000001
 46
10.0
 73
     0
 74
     0
 77
     1
 78
     8
 79
     2
140
2.5
143
0.03937
147
0.8
171
     3
172
     1
176
   256
177
   256
178
   256
271
     2
272
     2
274
     3
340
CD
341
D0
342
D0
371
    -1
372
    -1
  0
DIMSTYLE
105
DB
330
A
100
AcDbSymbolTableRecord
100
AcDbDimStyleTableRecord
  2
Alternate (ISO)
 70
     0
 41
2.5
340
55
342
DC
  0
DIMSTYLE
105
ED
330
A
100
AcDbSymbolTableRecord
100
AcDbDimStyleTableRecord
  2
Datum (ISO)
 70
     0
 41
2.5
340
55
342
DC
  0
DIMSTYLE
105
FC
330
A
100
AcDbSymbolTableRecord
100
AcDbDimStyleTableRecord
  2
Large (ISO)
 70
     0
 41
5.0
340
55
342
DC
  0
ENDTAB
  0
TABLE
  2
BLOCK_RECORD
  5
1
330
0
100
AcDbSymbolTable
 70
    25
  0
BLOCK_RECORD
  5
6C
330
1
100
AcDbSymbolTableRecord
100
AcDbBlockTableRecord
  2
*Model_Space
340
6F
 70
     0
280
     1
281
     0
  0
BLOCK_RECORD
  5
68
330
1
100
AcDbSymbolTableRecord
100
AcDbBlockTableRecord
  2
*Paper_Space
340
6B
 70
     0
280
     1
281
     0
  0
BLOCK_RECORD
  5
70
330
1
100
AcDbSymbolTableRecord
100
AcDbBlockTableRecord
  2
*Paper_Space0
340
73
 70
     0
280
     1
281
     0
  0
BLOCK_RECORD
  5
D0
330
1
100
AcDbSymbolTableRecord
100
AcDbBlockTableRecord
  2
_Open
340
0
 70
     0
280
     1
281
     0
  0
BLOCK_RECORD
  5
DC
330
1
100
AcDbSymbolTableRecord
100
AcDbBlockTableRecord
  2
_Closed
340
0
 70
     0
280
     1
281
     0
  0
BLOCK_RECORD
  5
E3
330
1
100
AcDbSymbolTableRecord
100
AcDbBlockTableRecord
  2
DatumFilled45
340
0
 70
     0
280
     1
281
     0
  0
BLOCK_RECORD
  5
EE
330
1
100
AcDbSymbolTableRecord
100
AcDbBlockTableRecord
  2
Filled-1
340
0
 70
     0
280
     1
281
     0
  0
BLOCK_RECORD
  5
FD
330
1
100
AcDbSymbolTableRecord
100
AcDbBlockTableRecord
  2
許容差
340
0
 70
     0
280
     1
281
     0
  0
BLOCK_RECORD
  5
16C
330
1
100
AcDbSymbolTableRecord
100
AcDbBlockTableRecord
  2
バルブ仕様表
340
0
 70
     0
280
     1
281
     0
  0
BLOCK_RECORD
  5
184
330
1
100
AcDbSymbolTableRecord
100
AcDbBlockTableRecord
  2
バルブ開閉R1
340
0
 70
     0
280
     1
281
     0
  0
BLOCK_RECORD
  5
18F
330
1
100
AcDbSymbolTableRecord
100
AcDbBlockTableRecord
  2
バルブ開閉R2
340
0
 70
     0
280
     1
281
     0
  0
BLOCK_RECORD
  5
199
330
1
100
AcDbSymbolTableRecord
100
AcDbBlockTableRecord
  2
ｴｰｽﾎﾞｰﾙｿｹｯﾄ・本体注釈①
340
0
 70
     0
280
     1
281
     0
  0
BLOCK_RECORD
  5
19D
330
1
100
AcDbSymbolTableRecord
100
AcDbBlockTableRecord
  2
バルブ仕様書①
340
0
 70
     0
280
     1
281
     0
  0
BLOCK_RECORD
  5
1AF
330
1
100
AcDbSymbolTableRecord
100
AcDbBlockTableRecord
  2
ストッパー加工注釈
340
0
 70
     0
280
     1
281
     0
  0
BLOCK_RECORD
  5
1B3
330
1
100
AcDbSymbolTableRecord
100
AcDbBlockTableRecord
  2
三方弁説明A
340
0
 70
     0
280
     1
281
     0
  0
BLOCK_RECORD
  5
1B7
330
1
100
AcDbSymbolTableRecord
100
AcDbBlockTableRecord
  2
三方弁説明B
340
0
 70
     0
280
     1
281
     0
  0
BLOCK_RECORD
  5
1BB
330
1
100
AcDbSymbolTableRecord
100
AcDbBlockTableRecord
  2
三方弁説明C
340
0
 70
     0
280
     1
281
     0
  0
BLOCK_RECORD
  5
1BF
330
1
100
AcDbSymbolTableRecord
100
AcDbBlockTableRecord
  2
三方弁流れ方向
340
0
 70
     0
280
     1
281
     0
  0
BLOCK_RECORD
  5
1CA
330
1
100
AcDbSymbolTableRecord
100
AcDbBlockTableRecord
  2
四面シート流れ方向
340
0
 70
     0
280
     1
281
     0
  0
BLOCK_RECORD
  5
1D5
330
1
100
AcDbSymbolTableRecord
100
AcDbBlockTableRecord
  2
継手使用条件
340
0
 70
     0
280
     1
281
     0
  0
BLOCK_RECORD
  5
1E6
330
1
100
AcDbSymbolTableRecord
100
AcDbBlockTableRecord
  2
四方弁流れ方向A
340
0
 70
     0
280
     1
281
     0
  0
BLOCK_RECORD
  5
1ED
330
1
100
AcDbSymbolTableRecord
100
AcDbBlockTableRecord
  2
四方弁流れ方向B
340
0
 70
     0
280
     1
281
     0
  0
BLOCK_RECORD
  5
1F7
330
1
100
AcDbSymbolTableRecord
100
AcDbBlockTableRecord
  2
バルブ仕様表Ver1.00
340
0
 70
     0
280
     1
281
     0
  0
BLOCK_RECORD
  5
20D
330
1
100
AcDbSymbolTableRecord
100
AcDbBlockTableRecord
  2
バルブ仕様表Ver1.01
340
0
 70
     0
280
     1
281
     0
  0
BLOCK_RECORD
  5
226
330
1
100
AcDbSymbolTableRecord
100
AcDbBlockTableRecord
  2
3方弁T説明A
340
0
 70
     0
280
     1
281
     0
  0
BLOCK_RECORD
  5
22A
330
1
100
AcDbSymbolTableRecord
100
AcDbBlockTableRecord
  2
3方弁T説明B
340
0
 70
     0
280
     1
281
     0
  0
BLOCK_RECORD
  5
22E
330
1
100
AcDbSymbolTableRecord
100
AcDbBlockTableRecord
  2
バルブ仕様表Ver1.02
340
0
 70
     0
280
     1
281
     0
  0
ENDTAB
  0
ENDSEC
  0
SECTION
  2
BLOCKS
  0
BLOCK
  5
6D
330
6C
100
AcDbEntity
  8
0
100
AcDbBlockBegin
  2
*Model_Space
 70
     0
 10
0.0
 20
0.0
 30
0.0
  3
*Model_Space
  1

  0
ENDBLK
  5
6E
330
6C
100
AcDbEntity
  8
0
100
AcDbBlockEnd
  0
BLOCK
  5
69
330
68
100
AcDbEntity
 67
     1
  8
0
100
AcDbBlockBegin
  2
*Paper_Space
 70
     0
 10
0.0
 20
0.0
 30
0.0
  3
*Paper_Space
  1

  0
ENDBLK
  5
6A
330
68
100
AcDbEntity
 67
     1
  8
0
100
AcDbBlockEnd
  0
BLOCK
  5
71
330
70
100
AcDbEntity
 67
     1
  8
0
100
AcDbBlockBegin
  2
*Paper_Space0
 70
     0
 10
0.0
 20
0.0
 30
0.0
  3
*Paper_Space0
  1

  0
ENDBLK
  5
72
330
70
100
AcDbEntity
 67
     1
  8
0
100
AcDbBlockEnd
  0
BLOCK
  5
D4
330
D0
100
AcDbEntity
  8
0
100
AcDbBlockBegin
  2
_Open
 70
     0
 10
0.0
 20
0.0
 30
0.0
  3
_Open
  1

  0
LINE
  5
D1
330
D0
100
AcDbEntity
  8
0
  6
ByBlock
 62
     0
370
    -2
100
AcDbLine
 10
-1.0
 20
0.1666666666666666
 30
0.0
 11
0.0
 21
0.0
 31
0.0
  0
LINE
  5
D2
330
D0
100
AcDbEntity
  8
0
  6
ByBlock
 62
     0
370
    -2
100
AcDbLine
 10
-1.0
 20
-0.1666666666666666
 30
0.0
 11
0.0
 21
0.0
 31
0.0
  0
LINE
  5
D3
330
D0
100
AcDbEntity
  8
0
  6
ByBlock
 62
     0
370
    -2
100
AcDbLine
 10
0.0
 20
0.0
 30
0.0
 11
-1.0
 21
0.0
 31
0.0
  0
ENDBLK
  5
D5
330
D0
100
AcDbEntity
  8
0
100
AcDbBlockEnd
  0
BLOCK
  5
E1
330
DC
100
AcDbEntity
  8
0
100
AcDbBlockBegin
  2
_Closed
 70
     0
 10
0.0
 20
0.0
 30
0.0
  3
_Closed
  1

  0
LINE
  5
DD
330
DC
100
AcDbEntity
  8
0
  6
ByBlock
 62
     0
370
    -2
100
AcDbLine
 10
-1.0
 20
0.1666666666666666
 30
0.0
 11
0.0
 21
0.0
 31
0.0
  0
LINE
  5
DE
330
DC
100
AcDbEntity
  8
0
  6
ByBlock
 62
     0
370
    -2
100
AcDbLine
 10
0.0
 20
0.0
 30
0.0
 11
-1.0
 21
-0.1666666666666666
 31
0.0
  0
LINE
  5
DF
330
DC
100
AcDbEntity
  8
0
  6
ByBlock
 62
     0
370
    -2
100
AcDbLine
 10
-1.0
 20
0.1666666666666666
 30
0.0
 11
-1.0
 21
-0.1666666666666666
 31
0.0
  0
LINE
  5
E0
330
DC
100
AcDbEntity
  8
0
  6
ByBlock
 62
     0
370
    -2
100
AcDbLine
 10
0.0
 20
0.0
 30
0.0
 11
-1.0
 21
0.0
 31
0.0
  0
ENDBLK
  5
E2
330
DC
100
AcDbEntity
  8
0
100
AcDbBlockEnd
  0
BLOCK
  5
E4
330
E3
100
AcDbEntity
  8
0
100
AcDbBlockBegin
  2
DatumFilled45
 70
     0
 10
0.0
 20
0.0
 30
0.0
  3
DatumFilled45
  1

  0
POLYLINE
  5
E6
330
E3
100
AcDbEntity
  8
0
 62
     0
100
AcDb2dPolyline
 66
     1
 10
0.0
 20
0.0
 30
0.0
 70
   128
  0
VERTEX
  5
E7
330
E6
100
AcDbEntity
  8
0
 62
     0
100
AcDbVertex
100
AcDb2dVertex
 10
0.0
 20
1.0
 30
0.0
  0
VERTEX
  5
E8
330
E6
100
AcDbEntity
  8
0
 62
     0
100
AcDbVertex
100
AcDb2dVertex
 10
0.0
 20
-1.0
 30
0.0
  0
VERTEX
  5
EA
330
E6
100
AcDbEntity
  8
0
 62
     0
100
AcDbVertex
100
AcDb2dVertex
 10
-1.0
 20
0.0
 30
0.0
  0
VERTEX
  5
EB
330
E6
100
AcDbEntity
  8
0
 62
     0
100
AcDbVertex
100
AcDb2dVertex
 10
0.0
 20
1.0
 30
0.0
  0
SEQEND
  5
E9
330
E6
100
AcDbEntity
  8
0
 62
     0
  0
SOLID
  5
EC
330
E3
100
AcDbEntity
  8
0
 62
     0
100
AcDbTrace
 10
0.0
 20
1.0
 30
0.0
 11
0.0
 21
-1.0
 31
0.0
 12
-1.0
 22
0.0
 32
0.0
 13
0.0
 23
1.0
 33
0.0
  0
ENDBLK
  5
E5
330
E3
100
AcDbEntity
  8
0
100
AcDbBlockEnd
  0
BLOCK
  5
EF
330
EE
100
AcDbEntity
  8
0
100
AcDbBlockBegin
  2
Filled-1
 70
     0
 10
0.0
 20
0.0
 30
0.0
  3
Filled-1
  1

  0
LINE
  5
F1
330
EE
100
AcDbEntity
  8
0
 62
     0
100
AcDbLine
 10
-1.0
 20
0.0
 30
0.0
 11
0.0
 21
0.0
 31
0.0
  0
POLYLINE
  5
F2
330
EE
100
AcDbEntity
  8
0
 62
     0
100
AcDb2dPolyline
 66
     1
 10
0.0
 20
0.0
 30
0.0
 70
   128
  0
VERTEX
  5
F3
330
F2
100
AcDbEntity
  8
0
 62
     0
100
AcDbVertex
100
AcDb2dVertex
 10
-1.0
 20
-0.1
 30
0.0
  0
VERTEX
  5
F4
330
F2
100
AcDbEntity
  8
0
 62
     0
100
AcDbVertex
100
AcDb2dVertex
 10
0.0
 20
0.0
 30
0.0
  0
VERTEX
  5
F6
330
F2
100
AcDbEntity
  8
0
 62
     0
100
AcDbVertex
100
AcDb2dVertex
 10
-1.0
 20
0.1
 30
0.0
  0
VERTEX
  5
F7
330
F2
100
AcDbEntity
  8
0
 62
     0
100
AcDbVertex
100
AcDb2dVertex
 10
-1.0
 20
-0.1
 30
0.0
  0
SEQEND
  5
F5
330
F2
100
AcDbEntity
  8
0
 62
     0
  0
SOLID
  5
F8
330
EE
100
AcDbEntity
  8
0
 62
     0
100
AcDbTrace
 10
-1.0
 20
-0.1
 30
0.0
 11
0.0
 21
0.0
 31
0.0
 12
-1.0
 22
0.1
 32
0.0
 13
-1.0
 23
-0.1
 33
0.0
  0
LINE
  5
F9
330
EE
100
AcDbEntity
  8
0
 62
     0
100
AcDbLine
 10
-1.0
 20
-0.1
 30
0.0
 11
0.0
 21
0.0
 31
0.0
  0
LINE
  5
FA
330
EE
100
AcDbEntity
  8
0
 62
     0
100
AcDbLine
 10
0.0
 20
0.0
 30
0.0
 11
-1.0
 21
0.1
 31
0.0
  0
LINE
  5
FB
330
EE
100
AcDbEntity
  8
0
 62
     0
100
AcDbLine
 10
-1.0
 20
0.1
 30
0.0
 11
-1.0
 21
-0.1
 31
0.0
  0
ENDBLK
  5
F0
330
EE
100
AcDbEntity
  8
0
100
AcDbBlockEnd
  0
BLOCK
  5
FE
330
FD
100
AcDbEntity
  8
0
100
AcDbBlockBegin
  2
許容差
 70
     0
 10
0.0
 20
0.0
 30
0.0
  3
許容差
  1

  0
LINE
  5
100
330
FD
100
AcDbEntity
  8
1
  6
Continuous
370
    25
100
AcDbLine
 10
-58.12552623383041
 20
-26.84908410868154
 30
0.0
 11
0.0
 21
-26.84908410868154
 31
0.0
  0
LINE
  5
101
330
FD
100
AcDbEntity
  8
1
  6
Continuous
 62
     7
370
    25
100
AcDbLine
 10
0.0
 20
-26.84908410868154
 30
0.0
 11
0.0
 21
0.0
 31
0.0
  0
LINE
  5
102
330
FD
100
AcDbEntity
  8
1
  6
Continuous
 62
     7
370
    25
100
AcDbLine
 10
0.0
 20
0.0
 30
0.0
 11
-58.12552623383041
 21
0.0
 31
0.0
  0
LINE
  5
103
330
FD
100
AcDbEntity
  8
1
  6
Continuous
 62
     7
370
    25
100
AcDbLine
 10
-58.12552623383041
 20
0.0
 30
0.0
 11
-58.12552623383041
 21
-26.84908410868154
 31
0.0
  0
LINE
  5
104
330
FD
100
AcDbEntity
  8
6
  6
Continuous
 62
     7
370
    25
100
AcDbLine
 10
0.0
 20
-22.91158410868071
 30
0.0
 11
-58.12552623383197
 21
-22.91158410868114
 31
0.0
  0
LINE
  5
105
330
FD
100
AcDbEntity
  8
6
  6
Continuous
 62
     7
370
    25
100
AcDbLine
 10
0.0
 20
-18.97408410867747
 30
0.0
 11
-58.12552623383041
 21
-18.97408410867747
 31
0.0
  0
LINE
  5
106
330
FD
100
AcDbEntity
  8
6
  6
Continuous
 62
     7
370
    25
100
AcDbLine
 10
0.0
 20
-15.03658410868887
 30
0.0
 11
-58.12552623383197
 21
-15.03658410869025
 31
0.0
  0
LINE
  5
107
330
FD
100
AcDbEntity
  8
6
  6
Continuous
 62
     7
370
    25
100
AcDbLine
 10
0.0
 20
-11.0990841086889
 30
0.0
 11
-58.12552623383041
 21
-11.0990841086889
 31
0.0
  0
LINE
  5
108
330
FD
100
AcDbEntity
  8
6
  6
Continuous
 62
     7
370
    25
100
AcDbLine
 10
-5.19325619819245
 20
-26.84908410868154
 30
0.0
 11
-5.193256198191988
 21
-6.147343132596461
 31
0.0
  0
LINE
  5
109
330
FD
100
AcDbEntity
  8
6
  6
Continuous
 62
     7
370
    25
100
AcDbLine
 10
-15.57976859457444
 20
-26.84908410868211
 30
0.0
 11
-15.57976859457385
 21
-6.147343132596922
 31
0.0
  0
LINE
  5
10A
330
FD
100
AcDbEntity
  8
6
  6
Continuous
 62
     7
370
    25
100
AcDbLine
 10
-10.38651239638348
 20
-26.84908410868211
 30
0.0
 11
-10.38651239638289
 21
-6.147343132596922
 31
0.0
  0
LINE
  5
10B
330
FD
100
AcDbEntity
  8
6
  6
Continuous
 62
     7
370
    25
100
AcDbLine
 10
-20.77302479276586
 20
-26.84908410868068
 30
0.0
 11
-20.77302479276543
 21
-6.147343132595537
 31
0.0
  0
LINE
  5
10C
330
FD
100
AcDbEntity
  8
6
  6
Continuous
 62
     7
370
    25
100
AcDbLine
 10
-25.96628099095634
 20
-26.84908410868211
 30
0.0
 11
-25.96628099095586
 21
-6.147343132596922
 31
0.0
  0
LINE
  5
10D
330
FD
100
AcDbEntity
  8
6
  6
Continuous
 62
     7
370
    25
100
AcDbLine
 10
-31.15953718914724
 20
-26.84908410868211
 30
0.0
 11
-31.15953718914675
 21
-6.147343132596922
 31
0.0
  0
LINE
  5
10E
330
FD
100
AcDbEntity
  8
6
  6
Continuous
 62
     7
370
    25
100
AcDbLine
 10
-36.35279338733774
 20
-26.84908410868068
 30
0.0
 11
-36.35279338733731
 21
-6.147343132596461
 31
0.0
  0
LINE
  5
10F
330
FD
100
AcDbEntity
  8
1
  6
Continuous
 62
     7
370
    25
100
AcDbLine
 10
-41.54604958552862
 20
-26.84908410868068
 30
0.0
 11
-41.54604958552813
 21
-3.508337060098298
 31
0.0
  0
LINE
  5
110
330
FD
100
AcDbEntity
  8
1
  6
Continuous
 62
     7
370
    25
100
AcDbLine
 10
0.0
 20
-6.147343132596461
 30
0.0
 11
-58.12552623383041
 21
-6.147343132596461
 31
0.0
  0
LINE
  5
111
330
FD
100
AcDbEntity
  8
6
  6
Continuous
 62
     7
370
    25
100
AcDbLine
 10
-51.25219698241295
 20
-26.84908410868068
 30
0.0
 11
-51.25219698241249
 21
-6.147343132596461
 31
0.0
  0
LINE
  5
112
330
FD
100
AcDbEntity
  8
1
  6
Continuous
 62
     7
370
    25
100
AcDbLine
 10
-58.12552623383041
 20
-3.508337060098298
 30
0.0
 11
0.0
 21
-3.508337060098298
 31
0.0
  0
MTEXT
  5
113
330
FD
100
AcDbEntity
  8
6
 62
     7
100
AcDbMText
 10
-41.4119317166131
 20
-14.16507525545171
 30
0.0
 40
1.40625
 41
0.0
 46
0.0
 71
     7
 72
     1
  1
\fAIGDT|b0|i0;\W0.80;\H1.4063;`\fISOCP|b0|i0;\W0.80;\H1.4063;0.05
 73
     2
 44
1.0
  0
MTEXT
  5
115
330
FD
100
AcDbEntity
  8
6
 62
     7
100
AcDbMText
 10
-40.99524931453711
 20
-18.08916643551061
 30
0.0
 40
1.40625
 41
0.0
 46
0.0
 71
     7
 72
     1
  1
\fAIGDT|b0|i0;\H1.4063;`\fISOCP|b0|i0;\H1.4063;0.1
 73
     2
 44
1.0
  0
MTEXT
  5
116
330
FD
100
AcDbEntity
  8
6
 62
     7
100
AcDbMText
 10
-40.99524931453711
 20
-22.0266664355106
 30
0.0
 40
1.40625
 41
0.0
 46
0.0
 71
     7
 72
     1
  1
\fAIGDT|b0|i0;\H1.4063;`\fISOCP|b0|i0;\H1.4063;0.2
 73
     2
 44
1.0
  0
TEXT
  5
118
330
FD
100
AcDbEntity
  8
6
 62
     7
100
AcDbText
 10
-41.17781898089635
 20
-27.09432786832366
 30
0.0
 40
5.625
  1
-
  7
文字スタイル218
100
AcDbText
  0
MTEXT
  5
11B
330
FD
100
AcDbEntity
  8
6
 62
     7
100
AcDbMText
 10
-35.80199311634612
 20
-25.96416643551059
 30
0.0
 40
1.40625
 41
0.0
 46
0.0
 71
     7
 72
     1
  1
\fAIGDT|b0|i0;\H1.4063;`\fISOCP|b0|i0;\H1.4063;0.5
 73
     2
 44
1.0
  0
MTEXT
  5
11C
330
FD
100
AcDbEntity
  8
6
 62
     7
100
AcDbMText
 10
-35.80199311634612
 20
-22.0266664355106
 30
0.0
 40
1.40625
 41
0.0
 46
0.0
 71
     7
 72
     1
  1
\fAIGDT|b0|i0;\H1.4063;`\fISOCP|b0|i0;\H1.4063;0.3
 73
     2
 44
1.0
  0
MTEXT
  5
11D
330
FD
100
AcDbEntity
  8
6
 62
     7
100
AcDbMText
 10
-35.80199311634612
 20
-18.08916643551061
 30
0.0
 40
1.40625
 41
0.0
 46
0.0
 71
     7
 72
     1
  1
\fAIGDT|b0|i0;\H1.4063;`\fISOCP|b0|i0;\H1.4063;0.1
 73
     2
 44
1.0
  0
MTEXT
  5
11E
330
FD
100
AcDbEntity
  8
6
 62
     7
100
AcDbMText
 10
-35.80199311634612
 20
-14.15166643551064
 30
0.0
 40
1.40625
 41
0.0
 46
0.0
 71
     7
 72
     1
  1
\fAIGDT|b0|i0;\W0.80;\H1.4063;`\fISOCP|b0|i0;\W0.80;\H1.4063;0.05
 73
     2
 44
1.0
  0
MTEXT
  5
11F
330
FD
100
AcDbEntity
  8
6
 62
     7
100
AcDbMText
 10
-30.60873691815516
 20
-14.15166643551064
 30
0.0
 40
1.40625
 41
0.0
 46
0.0
 71
     7
 72
     1
  1
\fAIGDT|b0|i0;\H1.4063;`\fISOCP|b0|i0;\H1.4063;0.1
 73
     2
 44
1.0
  0
MTEXT
  5
120
330
FD
100
AcDbEntity
  8
6
 62
     7
100
AcDbMText
 10
-30.60873691815516
 20
-18.08916643551061
 30
0.0
 40
1.40625
 41
0.0
 46
0.0
 71
     7
 72
     1
  1
\fAIGDT|b0|i0;\H1.4063;`\fISOCP|b0|i0;\H1.4063;0.2
 73
     2
 44
1.0
  0
MTEXT
  5
121
330
FD
100
AcDbEntity
  8
6
 62
     7
100
AcDbMText
 10
-30.60873691815516
 20
-22.0266664355106
 30
0.0
 40
1.40625
 41
0.0
 46
0.0
 71
     7
 72
     1
  1
\fAIGDT|b0|i0;\H1.4063;`\fISOCP|b0|i0;\H1.4063;0.5
 73
     2
 44
1.0
  0
MTEXT
  5
122
330
FD
100
AcDbEntity
  8
6
 62
     7
100
AcDbMText
 10
-29.70245116428806
 20
-25.97757525588825
 30
0.0
 40
1.40625
 41
0.0
 46
0.0
 71
     7
 72
     1
  1
\fAIGDT|b0|i0;\H1.4063;`\fISOCP|b0|i0;\H1.4063;1
 73
     2
 44
1.0
  0
MTEXT
  5
123
330
FD
100
AcDbEntity
  8
6
 62
     7
100
AcDbMText
 10
-25.41548071996427
 20
-14.15166643551064
 30
0.0
 40
1.40625
 41
0.0
 46
0.0
 71
     7
 72
     1
  1
\fAIGDT|b0|i0;\W0.80;\H1.4063;`\fISOCP|b0|i0;\W0.80;\H1.4063;0.15
 73
     2
 44
1.0
  0
MTEXT
  5
124
330
FD
100
AcDbEntity
  8
6
 62
     7
100
AcDbMText
 10
-25.41548071996427
 20
-18.08916643551061
 30
0.0
 40
1.40625
 41
0.0
 46
0.0
 71
     7
 72
     1
  1
\fAIGDT|b0|i0;\H1.4063;`\fISOCP|b0|i0;\H1.4063;0.3
 73
     2
 44
1.0
  0
MTEXT
  5
125
330
FD
100
AcDbEntity
  8
6
 62
     7
100
AcDbMText
 10
-25.41548071996427
 20
-22.0266664355106
 30
0.0
 40
1.40625
 41
0.0
 46
0.0
 71
     7
 72
     1
  1
\fAIGDT|b0|i0;\H1.4063;`\fISOCP|b0|i0;\H1.4063;0.8
 73
     2
 44
1.0
  0
MTEXT
  5
126
330
FD
100
AcDbEntity
  8
6
 62
     7
100
AcDbMText
 10
-25.41548071996427
 20
-25.96416643551059
 30
0.0
 40
1.40625
 41
0.0
 46
0.0
 71
     7
 72
     1
  1
\fAIGDT|b0|i0;\H1.4063;`\fISOCP|b0|i0;\H1.4063;1.5
 73
     2
 44
1.0
  0
MTEXT
  5
127
330
FD
100
AcDbEntity
  8
6
 62
     7
100
AcDbMText
 10
-20.22222452177331
 20
-14.15166643551064
 30
0.0
 40
1.40625
 41
0.0
 46
0.0
 71
     7
 72
     1
  1
\fAIGDT|b0|i0;\H1.4063;`\fISOCP|b0|i0;\H1.4063;0.2
 73
     2
 44
1.0
  0
MTEXT
  5
128
330
FD
100
AcDbEntity
  8
6
 62
     7
100
AcDbMText
 10
-20.22222452177331
 20
-18.08916643551061
 30
0.0
 40
1.40625
 41
0.0
 46
0.0
 71
     7
 72
     1
  1
\fAIGDT|b0|i0;\H1.4063;`\fISOCP|b0|i0;\H1.4063;0.5
 73
     2
 44
1.0
  0
MTEXT
  5
129
330
FD
100
AcDbEntity
  8
6
 62
     7
100
AcDbMText
 10
-20.22222452177331
 20
-22.0266664355106
 30
0.0
 40
1.40625
 41
0.0
 46
0.0
 71
     7
 72
     1
  1
\fAIGDT|b0|i0;\H1.4063;`\fISOCP|b0|i0;\H1.4063;1.2
 73
     2
 44
1.0
  0
MTEXT
  5
12A
330
FD
100
AcDbEntity
  8
6
 62
     7
100
AcDbMText
 10
-20.22222452177331
 20
-25.96416643551059
 30
0.0
 40
1.40625
 41
0.0
 46
0.0
 71
     7
 72
     1
  1
\fAIGDT|b0|i0;\H1.4063;`\fISOCP|b0|i0;\H1.4063;2.5
 73
     2
 44
1.0
  0
MTEXT
  5
12B
330
FD
100
AcDbEntity
  8
6
 62
     7
100
AcDbMText
 10
-15.02896832358239
 20
-14.15166643551064
 30
0.0
 40
1.40625
 41
0.0
 46
0.0
 71
     7
 72
     1
  1
\fAIGDT|b0|i0;\H1.4063;`\fISOCP|b0|i0;\H1.4063;0.3
 73
     2
 44
1.0
  0
MTEXT
  5
12C
330
FD
100
AcDbEntity
  8
6
 62
     7
100
AcDbMText
 10
-15.02896832358239
 20
-18.08916643551061
 30
0.0
 40
1.40625
 41
0.0
 46
0.0
 71
     7
 72
     1
  1
\fAIGDT|b0|i0;\H1.4063;`\fISOCP|b0|i0;\H1.4063;0.8
 73
     2
 44
1.0
  0
MTEXT
  5
12D
330
FD
100
AcDbEntity
  8
6
 62
     7
100
AcDbMText
 10
-14.13561650853973
 20
-22.0266664355106
 30
0.0
 40
1.40625
 41
0.0
 46
0.0
 71
     7
 72
     1
  1
\fAIGDT|b0|i0;\H1.4063;`\fISOCP|b0|i0;\H1.4063;2
 73
     2
 44
1.0
  0
MTEXT
  5
12E
330
FD
100
AcDbEntity
  8
6
 62
     7
100
AcDbMText
 10
-14.13561650853973
 20
-25.97757525588825
 30
0.0
 40
1.40625
 41
0.0
 46
0.0
 71
     7
 72
     1
  1
\fAIGDT|b0|i0;\H1.4063;`\fISOCP|b0|i0;\H1.4063;4
 73
     2
 44
1.0
  0
MTEXT
  5
12F
330
FD
100
AcDbEntity
  8
6
 62
     7
100
AcDbMText
 10
-9.83571212539136
 20
-14.15166643551064
 30
0.0
 40
1.40625
 41
0.0
 46
0.0
 71
     7
 72
     1
  1
\fAIGDT|b0|i0;\H1.4063;`\fISOCP|b0|i0;\H1.4063;0.5
 73
     2
 44
1.0
  0
MTEXT
  5
130
330
FD
100
AcDbEntity
  8
6
 62
     7
100
AcDbMText
 10
-9.83571212539136
 20
-18.08916643551061
 30
0.0
 40
1.40625
 41
0.0
 46
0.0
 71
     7
 72
     1
  1
\fAIGDT|b0|i0;\H1.4063;`\fISOCP|b0|i0;\H1.4063;1.2
 73
     2
 44
1.0
  0
MTEXT
  5
131
330
FD
100
AcDbEntity
  8
6
 62
     7
100
AcDbMText
 10
-8.942360310348789
 20
-22.0266664355106
 30
0.0
 40
1.40625
 41
0.0
 46
0.0
 71
     7
 72
     1
  1
\fAIGDT|b0|i0;\H1.4063;`\fISOCP|b0|i0;\H1.4063;3
 73
     2
 44
1.0
  0
MTEXT
  5
132
330
FD
100
AcDbEntity
  8
6
 62
     7
100
AcDbMText
 10
-8.942360310348789
 20
-25.96416643551059
 30
0.0
 40
1.40625
 41
0.0
 46
0.0
 71
     7
 72
     1
  1
\fAIGDT|b0|i0;\H1.4063;`\fISOCP|b0|i0;\H1.4063;6
 73
     2
 44
1.0
  0
TEXT
  5
133
330
FD
100
AcDbEntity
  8
6
 62
     7
100
AcDbText
 10
-4.916011932265647
 20
-15.3230556634622
 30
0.0
 40
5.625
  1
-
 41
1.415104625200984
  7
文字スタイル218
 72
     5
 11
-0.5380319980501014
 21
-15.3230556634622
 31
0.0
100
AcDbText
  0
MTEXT
  5
134
330
FD
100
AcDbEntity
  8
6
 62
     7
100
AcDbMText
 10
-2.901896494518325
 20
-18.08916643551061
 30
0.0
 40
1.40625
 41
0.0
 46
0.0
 71
     8
 72
     1
  1
\fAIGDT|b0|i0;\H1.4063;`\fISOCP|b0|i0;\H1.4063;2
 73
     2
 44
1.0
  0
MTEXT
  5
135
330
FD
100
AcDbEntity
  8
6
 62
     7
100
AcDbMText
 10
-3.973918934760547
 20
-22.04007525588826
 30
0.0
 40
1.40625
 41
0.0
 46
0.0
 71
     7
 72
     1
  1
\fAIGDT|b0|i0;\H1.4063;`\fISOCP|b0|i0;\H1.4063;4
 73
     2
 44
1.0
  0
MTEXT
  5
136
330
FD
100
AcDbEntity
  8
6
 62
     7
100
AcDbMText
 10
-3.973918716268016
 20
-25.96416643551059
 30
0.0
 40
1.40625
 41
0.0
 46
0.0
 71
     7
 72
     1
  1
\fAIGDT|b0|i0;\H1.4063;`\fISOCP|b0|i0;\H1.4063;8
 73
     2
 44
1.0
  0
TEXT
  5
138
330
FD
100
AcDbEntity
  8
6
 62
     7
100
AcDbText
 10
-2.396749672143627
 20
-9.925376005354351
 30
0.0
 40
1.40625
  1
4000
 41
0.5
  7
文字スタイル213
100
AcDbText
  0
TEXT
  5
139
330
FD
100
AcDbEntity
  8
6
 62
     7
100
AcDbText
 10
-7.631086138318607
 20
-9.925376005354351
 30
0.0
 40
1.40625
  1
2000
 41
0.5
  7
文字スタイル213
100
AcDbText
  0
TEXT
  5
13A
330
FD
100
AcDbEntity
  8
6
 62
     7
100
AcDbText
 10
-12.86542260449369
 20
-9.925376005354351
 30
0.0
 40
1.40625
  1
1000
 41
0.5
  7
文字スタイル213
100
AcDbText
  0
TEXT
  5
13B
330
FD
100
AcDbEntity
  8
6
 62
     7
100
AcDbText
 10
-17.69082645004726
 20
-9.925376005354351
 30
0.0
 40
1.40625
  1
400
 41
0.5
  7
文字スタイル213
100
AcDbText
  0
TEXT
  5
13D
330
FD
100
AcDbEntity
  8
6
 62
     7
100
AcDbText
 10
-23.08873604737711
 20
-9.925376005354351
 30
0.0
 40
1.40625
  1
120
 41
0.7999999523162842
  7
文字スタイル215
100
AcDbText
  0
TEXT
  5
13F
330
FD
100
AcDbEntity
  8
6
 62
     7
100
AcDbText
 10
-28.07771281681987
 20
-9.925376005354351
 30
0.0
 40
1.40625
  1
30
 41
1.244508128048961
  7
文字スタイル211
 72
     5
 11
-25.8887228497121
 21
-9.925376005354351
 31
0.0
100
AcDbText
  0
TEXT
  5
140
330
FD
100
AcDbEntity
  8
6
 62
     7
100
AcDbText
 10
-32.4941842490173
 20
-9.925376005354351
 30
0.0
 40
1.40625
  1
6
 41
1.298030966123293
  7
文字スタイル211
 72
     5
 11
-31.39968926546341
 21
-9.925376005354351
 31
0.0
100
AcDbText
  0
TEXT
  5
141
330
FD
100
AcDbEntity
  8
6
 62
     7
100
AcDbText
 10
-37.69504256418351
 20
-9.925376005354351
 30
0.0
 40
1.40625
  1
3
 41
1.315994993505515
  7
文字スタイル211
 72
     5
 11
-36.60054758062962
 21
-9.925376005354351
 31
0.0
100
AcDbText
  0
TEXT
  5
142
330
FD
100
AcDbEntity
  8
6
 62
     7
100
AcDbText
 10
-32.57597081459473
 20
-7.970561294050799
 30
0.0
 40
1.40625
  1
3
 41
1.315994993505515
  7
文字スタイル211
 72
     5
 11
-31.48147583104084
 21
-7.970561294050799
 31
0.0
100
AcDbText
  0
TEXT
  5
143
330
FD
100
AcDbEntity
  8
6
 62
     7
100
AcDbText
 10
-27.50520727230896
 20
-7.970561294050799
 30
0.0
 40
1.40625
  1
6
 41
1.298030966123293
  7
文字スタイル211
 72
     5
 11
-26.41071228875507
 21
-7.970561294050799
 31
0.0
100
AcDbText
  0
TEXT
  5
144
330
FD
100
AcDbEntity
  8
6
 62
     7
100
AcDbText
 10
-22.67980342675553
 20
-7.970561294050799
 30
0.0
 40
1.40625
  1
30
 41
0.7999999523162842
  7
文字スタイル215
100
AcDbText
  0
TEXT
  5
145
330
FD
100
AcDbEntity
  8
6
 62
     7
100
AcDbText
 10
-17.69082645004726
 20
-7.970561294050799
 30
0.0
 40
1.40625
  1
120
 41
0.5
  7
文字スタイル213
100
AcDbText
  0
TEXT
  5
146
330
FD
100
AcDbEntity
  8
6
 62
     7
100
AcDbText
 10
-12.70184968060441
 20
-7.970561294050799
 30
0.0
 40
1.40625
  1
400
 41
0.5
  7
文字スタイル213
100
AcDbText
  0
TEXT
  5
147
330
FD
100
AcDbEntity
  8
6
 62
     7
100
AcDbText
 10
-7.631086138318607
 20
-7.970561294050799
 30
0.0
 40
1.40625
  1
1000
 41
0.5
  7
文字スタイル213
100
AcDbText
  0
TEXT
  5
148
330
FD
100
AcDbEntity
  8
6
 62
     7
100
AcDbText
 10
-2.478536237721087
 20
-7.970561294050799
 30
0.0
 40
1.40625
  1
2000
 41
0.5
  7
文字スタイル213
100
AcDbText
  0
TEXT
  5
149
330
FD
100
AcDbEntity
  8
6
 62
     7
100
AcDbText
 10
-38.05566677023645
 20
-7.970561294049751
 30
0.0
 40
1.40625
  1
0.5
 41
0.5
  7
文字スタイル213
100
AcDbText
  0
TEXT
  5
14B
330
FD
100
AcDbEntity
  8
6
 62
     7
100
AcDbText
 10
-56.62304561174281
 20
-9.925376005354351
 30
0.0
 40
1.40625
  1
指示
  7
文字スタイル201
 72
     1
 11
-54.68886160812147
 21
-9.925376005354351
 31
0.0
100
AcDbText
  0
TEXT
  5
14C
330
FD
100
AcDbEntity
  8
6
 62
     7
100
AcDbText
 10
-48.1123038301564
 20
-13.70137919645824
 30
0.0
 40
1.40625
  1
精級
  7
文字スタイル201
 72
     1
 11
-46.17811982653506
 21
-13.86287600535436
 31
0.0
100
AcDbText
 73
     1
  0
TEXT
  5
14D
330
FD
100
AcDbEntity
  8
6
 62
     7
100
AcDbText
 10
-48.1123038301564
 20
-17.63887919645821
 30
0.0
 40
1.40625
  1
中級
  7
文字スタイル201
 72
     1
 11
-46.17811982653506
 21
-17.80037600535433
 31
0.0
100
AcDbText
 73
     1
  0
TEXT
  5
14E
330
FD
100
AcDbEntity
  8
6
 62
     7
100
AcDbText
 10
-48.1123038301564
 20
-21.57637919645831
 30
0.0
 40
1.40625
  1
粗級
  7
文字スタイル201
 72
     1
 11
-46.17811982653506
 21
-21.73787600535443
 31
0.0
100
AcDbText
 73
     1
  0
TEXT
  5
14F
330
FD
100
AcDbEntity
  8
6
 62
     7
100
AcDbText
 10
-54.98198899892119
 20
-25.25350100535436
 30
0.0
 40
1.40625
  1
v
  7
文字スタイル211
 72
     1
 11
-54.48980149892118
 21
-25.67537600535436
 31
0.0
100
AcDbText
 73
     1
  0
TEXT
  5
150
330
FD
100
AcDbEntity
  8
6
 62
     7
100
AcDbText
 10
-49.07939583196707
 20
-25.84123575368132
 30
0.0
 40
1.40625
  1
極粗級
  7
文字スタイル201
 72
     1
 11
-46.17811982653506
 21
-26.00273256257743
 31
0.0
100
AcDbText
 73
     1
  0
TEXT
  5
151
330
FD
100
AcDbEntity
  8
6
 62
     7
100
AcDbText
 10
-54.88619265670488
 20
-21.31600100535443
 30
0.0
 40
1.40625
  1
c
  7
文字スタイル211
 72
     1
 11
-54.48980149892118
 21
-21.73787600535443
 31
0.0
100
AcDbText
 73
     1
  0
TEXT
  5
152
330
FD
100
AcDbEntity
  8
6
 62
     7
100
AcDbText
 10
-55.1480978411375
 20
-17.37850100535433
 30
0.0
 40
1.40625
  1
m
  7
文字スタイル211
 72
     1
 11
-54.48980149892118
 21
-17.80037600535433
 31
0.0
100
AcDbText
 73
     1
  0
TEXT
  5
153
330
FD
100
AcDbEntity
  8
6
 62
     7
100
AcDbText
 10
-54.91167649892119
 20
-13.44100100535436
 30
0.0
 40
1.40625
  1
f
  7
文字スタイル211
 72
     1
 11
-54.48980149892118
 21
-13.86287600535436
 31
0.0
100
AcDbText
 73
     1
  0
TEXT
  5
154
330
FD
100
AcDbEntity
  8
6
 62
     7
100
AcDbText
 10
-48.33330728759166
 20
-9.925376005354351
 30
0.0
 40
1.40625
  1
説明
  7
文字スタイル201
 72
     1
 11
-46.39912328397032
 21
-9.925376005354351
 31
0.0
100
AcDbText
  0
TEXT
  5
156
330
FD
100
AcDbEntity
  8
6
 62
     7
100
AcDbText
 10
-41.41740258384064
 20
-7.970561294050799
 30
0.0
 40
1.40625
  1
以上
 41
0.7031300067901612
  7
文字スタイル207
100
AcDbText
  0
TEXT
  5
157
330
FD
100
AcDbEntity
  8
6
 62
     7
100
AcDbText
 10
-41.41740258384064
 20
-9.925376005354351
 30
0.0
 40
1.40625
  1
以下
 41
0.7031300067901612
  7
文字スタイル207
100
AcDbText
  0
TEXT
  5
158
330
FD
100
AcDbEntity
  8
6
 62
     7
100
AcDbText
 10
-36.22414638564972
 20
-7.970561294050799
 30
0.0
 40
1.40625
  1
以上
 41
0.7031300067901612
  7
文字スタイル207
100
AcDbText
  0
TEXT
  5
159
330
FD
100
AcDbEntity
  8
6
 62
     7
100
AcDbText
 10
-36.22414638564972
 20
-9.925376005354351
 30
0.0
 40
1.40625
  1
以下
 41
0.7031300067901612
  7
文字スタイル207
100
AcDbText
  0
TEXT
  5
15A
330
FD
100
AcDbEntity
  8
6
 62
     7
100
AcDbText
 10
-31.03089018745923
 20
-7.970561294050799
 30
0.0
 40
1.40625
  1
以上
 41
0.7031300067901612
  7
文字スタイル207
100
AcDbText
  0
TEXT
  5
15B
330
FD
100
AcDbEntity
  8
6
 62
     7
100
AcDbText
 10
-31.03089018745923
 20
-9.925376005354351
 30
0.0
 40
1.40625
  1
以下
 41
0.7031300067901612
  7
文字スタイル207
100
AcDbText
  0
TEXT
  5
15C
330
FD
100
AcDbEntity
  8
6
 62
     7
100
AcDbText
 10
-25.83763398926834
 20
-7.970561294050799
 30
0.0
 40
1.40625
  1
以上
 41
0.7031300067901612
  7
文字スタイル207
100
AcDbText
  0
TEXT
  5
15D
330
FD
100
AcDbEntity
  8
6
 62
     7
100
AcDbText
 10
-25.83763398926834
 20
-9.925376005354351
 30
0.0
 40
1.40625
  1
以下
 41
0.7031300067901612
  7
文字スタイル207
100
AcDbText
  0
TEXT
  5
15E
330
FD
100
AcDbEntity
  8
6
 62
     7
100
AcDbText
 10
-20.64437779107781
 20
-7.970561294050799
 30
0.0
 40
1.40625
  1
以上
 41
0.7031300067901612
  7
文字スタイル207
100
AcDbText
  0
TEXT
  5
15F
330
FD
100
AcDbEntity
  8
6
 62
     7
100
AcDbText
 10
-20.64437779107781
 20
-9.925376005354351
 30
0.0
 40
1.40625
  1
以下
 41
0.7031300067901612
  7
文字スタイル207
100
AcDbText
  0
TEXT
  5
160
330
FD
100
AcDbEntity
  8
6
 62
     7
100
AcDbText
 10
-15.45112159288635
 20
-7.970561294050799
 30
0.0
 40
1.40625
  1
以上
 41
0.7031300067901612
  7
文字スタイル207
100
AcDbText
  0
TEXT
  5
161
330
FD
100
AcDbEntity
  8
6
 62
     7
100
AcDbText
 10
-15.45112159288635
 20
-9.925376005354351
 30
0.0
 40
1.40625
  1
以下
 41
0.7031300067901612
  7
文字スタイル207
100
AcDbText
  0
TEXT
  5
162
330
FD
100
AcDbEntity
  8
6
 62
     7
100
AcDbText
 10
-10.25786539469537
 20
-7.970561294050799
 30
0.0
 40
1.40625
  1
以上
 41
0.7031300067901612
  7
文字スタイル207
100
AcDbText
  0
TEXT
  5
163
330
FD
100
AcDbEntity
  8
6
 62
     7
100
AcDbText
 10
-10.25786539469537
 20
-9.925376005354351
 30
0.0
 40
1.40625
  1
以下
 41
0.7031300067901612
  7
文字スタイル207
100
AcDbText
  0
TEXT
  5
164
330
FD
100
AcDbEntity
  8
6
 62
     7
100
AcDbText
 10
-5.064609196504434
 20
-7.970561294050799
 30
0.0
 40
1.40625
  1
以上
 41
0.7031300067901612
  7
文字スタイル207
100
AcDbText
  0
TEXT
  5
165
330
FD
100
AcDbEntity
  8
6
 62
     7
100
AcDbText
 10
-5.064609196504434
 20
-9.925376005354351
 30
0.0
 40
1.40625
  1
以下
 41
0.7031300067901612
  7
文字スタイル207
100
AcDbText
  0
MTEXT
  5
166
330
FD
100
AcDbEntity
  8
Symbol (ISO)
100
AcDbMText
 10
-51.15318916749558
 20
-0.7880094213216538
 30
0.0
 40
1.713197976350784
 41
0.0
 46
0.0
 71
     1
 72
     1
  1
\fTahoma|b0|i0;\H1.7132;面取り部分を除く長さ寸法に対する許容差
  7
Note Text (JIS)
 73
     1
 44
1.5
  0
TEXT
  5
169
330
FD
100
AcDbEntity
  8
Symbol (ISO)
 62
     7
100
AcDbText
 10
-53.96378538105654
 20
-5.484860611934845
 30
0.0
 40
1.713197976350784
  1
公差等級
 41
0.9209142133608093
  7
文字スタイル203
 72
     5
 11
-45.2837404806646
 21
-5.484860611934845
 31
0.0
100
AcDbText
  0
TEXT
  5
16B
330
FD
100
AcDbEntity
  8
Symbol (ISO)
 62
     7
100
AcDbText
 10
-32.58600261746523
 20
-5.470186423439376
 30
0.0
 40
1.713197976350784
  1
基準寸法の区分
 41
0.880115814958977
  7
文字スタイル209
 72
     5
 11
-18.44962637658959
 21
-5.470186423439376
 31
0.0
100
AcDbText
  0
ENDBLK
  5
FF
330
FD
100
AcDbEntity
  8
0
100
AcDbBlockEnd
  0
BLOCK
  5
16D
330
16C
100
AcDbEntity
  8
0
100
AcDbBlockBegin
  2
バルブ仕様表
 70
     0
 10
0.0
 20
0.0
 30
0.0
  3
バルブ仕様表
  1

  0
LINE
  5
16F
330
16C
100
AcDbEntity
  8
AM_6
 62
     7
100
AcDbLine
 10
-109.9999999999999
 20
27.99999999999997
 30
0.0
 11
0.0
 21
27.99999999999997
 31
0.0
  0
LINE
  5
170
330
16C
100
AcDbEntity
  8
AM_6
 62
     7
100
AcDbLine
 10
-109.9999999999999
 20
13.99999999999998
 30
0.0
 11
0.0
 21
13.99999999999998
 31
0.0
  0
LINE
  5
171
330
16C
100
AcDbEntity
  8
AM_6
 62
     7
100
AcDbLine
 10
-109.9999999999999
 20
20.99999999999994
 30
0.0
 11
0.0
 21
20.99999999999994
 31
0.0
  0
LINE
  5
172
330
16C
100
AcDbEntity
  8
AM_6
 62
     7
100
AcDbLine
 10
-109.9999999999999
 20
0.0
 30
0.0
 11
0.0
 21
0.0
 31
0.0
  0
LINE
  5
173
330
16C
100
AcDbEntity
  8
AM_6
 62
     7
100
AcDbLine
 10
-109.9999999999999
 20
6.999999999999957
 30
0.0
 11
0.0
 21
6.999999999999957
 31
0.0
  0
LINE
  5
174
330
16C
100
AcDbEntity
  8
AM_6
100
AcDbLine
 10
-109.9999999999999
 20
13.99999999999998
 30
0.0
 11
0.0
 21
13.99999999999998
 31
0.0
  0
LINE
  5
175
330
16C
100
AcDbEntity
  8
AM_6
 62
     7
100
AcDbLine
 10
-79.99999999999997
 20
0.0
 30
0.0
 11
-79.99999999999997
 21
13.99999999999998
 31
0.0
  0
LINE
  5
176
330
16C
100
AcDbEntity
  8
AM_6
 62
     7
100
AcDbLine
 10
-79.99999999999983
 20
27.99999999999997
 30
0.0
 11
-79.99999999999997
 21
13.99999999999998
 31
0.0
  0
LINE
  5
177
330
16C
100
AcDbEntity
  8
AM_6
 62
     7
100
AcDbLine
 10
-109.9999999999999
 20
0.0
 30
0.0
 11
-109.9999999999999
 21
13.99999999999998
 31
0.0
  0
LINE
  5
178
330
16C
100
AcDbEntity
  8
AM_6
 62
     7
100
AcDbLine
 10
-109.9999999999999
 20
27.99999999999997
 30
0.0
 11
-109.9999999999999
 21
13.99999999999998
 31
0.0
  0
LINE
  5
179
330
16C
100
AcDbEntity
  8
AM_6
 62
     7
100
AcDbLine
 10
0.0
 20
27.99999999999997
 30
0.0
 11
0.0
 21
0.0
 31
0.0
  0
TEXT
  5
17B
330
16C
100
AcDbEntity
  8
AM_6
 62
     7
100
AcDbText
 10
-102.9390916948839
 20
1.453793852345341
 30
0.0
 40
3.000000119209289
  1
気密試験
  7
文字スタイル124
100
AcDbText
  0
TEXT
  5
17D
330
16C
100
AcDbEntity
  8
AM_6
 62
     7
100
AcDbText
 10
-102.9390916948839
 20
8.45379385234537
 30
0.0
 40
3.000000119209289
  1
耐圧試験
  7
文字スタイル124
100
AcDbText
  0
TEXT
  5
17E
330
16C
100
AcDbEntity
  8
AM_6
 62
     7
100
AcDbText
 10
-102.9390916948839
 20
15.45379385234532
 30
0.0
 40
3.000000119209289
  1
使用温度
  7
文字スタイル124
100
AcDbText
  0
TEXT
  5
17F
330
16C
100
AcDbEntity
  8
AM_6
 62
     7
100
AcDbText
 10
-102.9390916948839
 20
22.45379385234536
 30
0.0
 40
3.000000119209289
  1
使用圧力
  7
文字スタイル124
100
AcDbText
  0
TEXT
  5
180
330
16C
100
AcDbEntity
  8
AM_6
 62
     7
100
AcDbText
 10
-65.4524935694148
 20
8.45379385234537
 30
0.0
 40
3.000000119209289
  1
1.96MPa
  7
文字スタイル124
100
AcDbText
  0
TEXT
  5
181
330
16C
100
AcDbEntity
  8
AM_6
 62
     7
100
AcDbText
 10
-65.4524935694148
 20
1.453793852345341
 30
0.0
 40
3.000000119209289
  1
0.6MPa
  7
文字スタイル124
100
AcDbText
  0
TEXT
  5
182
330
16C
100
AcDbEntity
  8
AM_6
 62
     7
100
AcDbText
 10
-65.4524935694148
 20
22.45379385234536
 30
0.0
 40
3.000000119209289
  1
MAX　0.98MPa
  7
文字スタイル124
100
AcDbText
  0
TEXT
  5
183
330
16C
100
AcDbEntity
  8
AM_6
 62
     7
100
AcDbText
 10
-65.4524935694148
 20
15.45379385234532
 30
0.0
 40
3.000000119209289
  1
-10℃～+80℃（凍結無き事）
  7
文字スタイル124
100
AcDbText
  0
ENDBLK
  5
16E
330
16C
100
AcDbEntity
  8
0
100
AcDbBlockEnd
  0
BLOCK
  5
185
330
184
100
AcDbEntity
  8
0
100
AcDbBlockBegin
  2
バルブ開閉R1
 70
     0
 10
0.0
 20
0.0
 30
0.0
  3
バルブ開閉R1
  1

  0
ARC
  5
187
330
184
100
AcDbEntity
  8
AM_6
 62
     7
100
AcDbCircle
 10
0.0
 20
0.0
 30
0.0
 40
31.60554310523806
100
AcDbArc
 50
202.1518571539441
 51
242.8481428460548
  0
LINE
  5
188
330
184
100
AcDbEntity
  8
AM_6
 62
     7
100
AcDbLine
 10
-14.42320326968719
 20
-28.12261656422398
 30
0.0
 11
-17.42320326968716
 21
-28.12261656422381
 31
0.0
  0
LINE
  5
189
330
184
100
AcDbEntity
  8
AM_6
 62
     7
100
AcDbLine
 10
-14.42320326968719
 20
-28.12261656422398
 30
0.0
 11
-16.54452361324683
 21
-26.00129622066435
 31
0.0
  0
LINE
  5
18A
330
184
100
AcDbEntity
  8
AM_6
 62
     7
100
AcDbLine
 10
-29.27266651151672
 20
-11.9172710920999
 30
0.0
 11
-29.27266651151651
 21
-14.91727109209995
 31
0.0
  0
LINE
  5
18B
330
184
100
AcDbEntity
  8
AM_6
 62
     7
100
AcDbLine
 10
-29.27266651151672
 20
-11.9172710920999
 30
0.0
 11
-27.15134616795709
 21
-14.03859143565954
 31
0.0
  0
TEXT
  5
18D
330
184
100
AcDbEntity
  8
AM_6
 62
     7
100
AcDbText
 10
-17.58938102507702
 20
-32.173637407816
 30
0.0
 40
2.000000029802322
  1
閉
  7
文字スタイル126
100
AcDbText
  0
TEXT
  5
18E
330
184
100
AcDbEntity
  8
AM_6
 62
     7
100
AcDbText
 10
-34.07208754498853
 20
-14.71927959924537
 30
0.0
 40
2.000000029802322
  1
開
  7
文字スタイル126
100
AcDbText
  0
ENDBLK
  5
186
330
184
100
AcDbEntity
  8
0
100
AcDbBlockEnd
  0
BLOCK
  5
190
330
18F
100
AcDbEntity
  8
0
100
AcDbBlockBegin
  2
バルブ開閉R2
 70
     0
 10
0.0
 20
0.0
 30
0.0
  3
バルブ開閉R2
  1

  0
ARC
  5
192
330
18F
100
AcDbEntity
  8
AM_6
 62
     7
100
AcDbCircle
 10
0.0
 20
0.0
 30
0.0
 40
31.60554310523806
100
AcDbArc
 50
112.1518571539441
 51
152.8481428460544
  0
LINE
  5
193
330
18F
100
AcDbEntity
  8
AM_6
 62
     7
100
AcDbLine
 10
-28.12261656422434
 20
14.42320326968785
 30
0.0
 11
-28.12261656422432
 21
17.42320326968792
 31
0.0
  0
LINE
  5
194
330
18F
100
AcDbEntity
  8
AM_6
 62
     7
100
AcDbLine
 10
-28.12261656422434
 20
14.42320326968785
 30
0.0
 11
-26.00129622066479
 21
16.54452361324784
 31
0.0
  0
LINE
  5
195
330
18F
100
AcDbEntity
  8
AM_6
 62
     7
100
AcDbLine
 10
-11.91727109210028
 20
29.27266651151738
 30
0.0
 11
-14.91727109210039
 21
29.27266651151745
 31
0.0
  0
LINE
  5
196
330
18F
100
AcDbEntity
  8
AM_6
 62
     7
100
AcDbLine
 10
-11.91727109210028
 20
29.27266651151738
 30
0.0
 11
-14.03859143566027
 21
27.1513461679576
 31
0.0
  0
TEXT
  5
197
330
18F
100
AcDbEntity
  8
AM_6
 62
     7
100
AcDbText
 10
-15.08194606405059
 20
31.4147512872629
 30
0.0
 40
2.000000029802322
  1
閉
  7
文字スタイル126
100
AcDbText
  0
TEXT
  5
198
330
18F
100
AcDbEntity
  8
AM_6
 62
     7
100
AcDbText
 10
-34.27398386649212
 20
14.82775972083301
 30
0.0
 40
2.000000029802322
  1
開
  7
文字スタイル126
100
AcDbText
  0
ENDBLK
  5
191
330
18F
100
AcDbEntity
  8
0
100
AcDbBlockEnd
  0
BLOCK
  5
19A
330
199
100
AcDbEntity
  8
0
100
AcDbBlockBegin
  2
ｴｰｽﾎﾞｰﾙｿｹｯﾄ・本体注釈①
 70
     0
 10
0.0
 20
0.0
 30
0.0
  3
ｴｰｽﾎﾞｰﾙｿｹｯﾄ・本体注釈①
  1

  0
MTEXT
  5
19C
330
199
100
AcDbEntity
  8
Symbol (ISO)
100
AcDbMText
 10
-27.82894849777225
 20
3.352206237614154
 30
0.0
 40
2.5
 41
0.0
 46
0.0
 71
     1
 72
     1
  1
※本体仮組時に　本体（φ6ｽﾄﾚｰﾄ）\P・ｿｹｯﾄの隙間を0.5㎜とする事。
  7
Note Text (JIS)
 73
     2
 44
1.058181881904602
  0
ENDBLK
  5
19B
330
199
100
AcDbEntity
  8
0
100
AcDbBlockEnd
  0
BLOCK
  5
19E
330
19D
100
AcDbEntity
  8
0
100
AcDbBlockBegin
  2
バルブ仕様書①
 70
     0
 10
0.0
 20
0.0
 30
0.0
  3
バルブ仕様書①
  1

  0
LINE
  5
1A0
330
19D
100
AcDbEntity
  8
AM_6
 62
     7
100
AcDbLine
 10
-109.9999999999998
 20
27.99999999999997
 30
0.0
 11
0.0
 21
27.99999999999997
 31
0.0
  0
LINE
  5
1A1
330
19D
100
AcDbEntity
  8
AM_6
 62
     7
100
AcDbLine
 10
-109.9999999999998
 20
13.99999999999998
 30
0.0
 11
0.0
 21
13.99999999999998
 31
0.0
  0
LINE
  5
1A2
330
19D
100
AcDbEntity
  8
AM_6
 62
     7
100
AcDbLine
 10
-109.9999999999998
 20
20.99999999999994
 30
0.0
 11
0.0
 21
20.99999999999994
 31
0.0
  0
LINE
  5
1A3
330
19D
100
AcDbEntity
  8
AM_6
 62
     7
100
AcDbLine
 10
-109.9999999999998
 20
0.0
 30
0.0
 11
0.0
 21
0.0
 31
0.0
  0
LINE
  5
1A4
330
19D
100
AcDbEntity
  8
AM_6
 62
     7
100
AcDbLine
 10
-109.9999999999998
 20
6.999999999999957
 30
0.0
 11
0.0
 21
6.999999999999957
 31
0.0
  0
LINE
  5
1A5
330
19D
100
AcDbEntity
  8
AM_6
 62
     7
100
AcDbLine
 10
-109.9999999999998
 20
13.99999999999998
 30
0.0
 11
0.0
 21
13.99999999999998
 31
0.0
  0
LINE
  5
1A6
330
19D
100
AcDbEntity
  8
AM_6
 62
     7
100
AcDbLine
 10
-79.99999999999987
 20
0.0
 30
0.0
 11
-79.99999999999987
 21
13.99999999999998
 31
0.0
  0
LINE
  5
1A7
330
19D
100
AcDbEntity
  8
AM_6
 62
     7
100
AcDbLine
 10
-79.99999999999973
 20
27.99999999999997
 30
0.0
 11
-79.99999999999987
 21
13.99999999999998
 31
0.0
  0
LINE
  5
1A8
330
19D
100
AcDbEntity
  8
AM_6
 62
     7
100
AcDbLine
 10
-109.9999999999998
 20
0.0
 30
0.0
 11
-109.9999999999998
 21
13.99999999999998
 31
0.0
  0
LINE
  5
1A9
330
19D
100
AcDbEntity
  8
AM_6
 62
     7
100
AcDbLine
 10
-109.9999999999998
 20
27.99999999999997
 30
0.0
 11
-109.9999999999998
 21
13.99999999999998
 31
0.0
  0
LINE
  5
1AA
330
19D
100
AcDbEntity
  8
AM_6
 62
     7
100
AcDbLine
 10
0.0
 20
27.99999999999997
 30
0.0
 11
0.0
 21
0.0
 31
0.0
  0
TEXT
  5
1AB
330
19D
100
AcDbEntity
  8
AM_6
 62
     7
100
AcDbText
 10
-109.5569312552745
 20
1.35119169264982
 30
0.0
 40
3.000000119209289
  1
気密・耐圧試験
  7
文字スタイル124
100
AcDbText
  0
TEXT
  5
1AC
330
19D
100
AcDbEntity
  8
AM_6
 62
     7
100
AcDbText
 10
-65.4524935694147
 20
1.453793852345341
 30
0.0
 40
3.000000119209289
  1
空圧 0.59Mpa 全数
  7
文字スタイル124
100
AcDbText
  0
TEXT
  5
1AE
330
19D
100
AcDbEntity
  8
AM_6
100
AcDbText
 10
-32.65625957956304
 20
3.592593427809589
 30
0.0
 40
1.000000014901161
  1
2
  7
文字スタイル133
100
AcDbText
  0
ENDBLK
  5
19F
330
19D
100
AcDbEntity
  8
0
100
AcDbBlockEnd
  0
BLOCK
  5
1B0
330
1AF
100
AcDbEntity
  8
0
100
AcDbBlockBegin
  2
ストッパー加工注釈
 70
     0
 10
0.0
 20
0.0
 30
0.0
  3
ストッパー加工注釈
  1

  0
MTEXT
  5
1B2
330
1AF
100
AcDbEntity
  8
Symbol (ISO)
100
AcDbMText
 10
-19.48830366134647
 20
3.352206274867057
 30
0.0
 40
2.5
 41
0.0
 46
0.0
 71
     1
 72
     1
  1
※ハンドル開閉治具にて\P角度を確認する事。
  7
Note Text (JIS)
 73
     2
 44
1.058181881904602
  0
ENDBLK
  5
1B1
330
1AF
100
AcDbEntity
  8
0
100
AcDbBlockEnd
  0
BLOCK
  5
1B4
330
1B3
100
AcDbEntity
  8
0
100
AcDbBlockBegin
  2
三方弁説明A
 70
     0
 10
0.0
 20
0.0
 30
0.0
  3
三方弁説明A
  1

  0
MTEXT
  5
1B6
330
1B3
100
AcDbEntity
  8
Symbol (ISO)
100
AcDbMText
 10
-26.24561548233032
 20
4.643620708957314
 30
0.0
 40
1.500000059604644
 41
0.0
 46
0.0
 71
     1
 72
     1
  1
\fＭＳ Ｐゴシック|b0|i0;\H1.5000;※ハンドル位置Aの時、ポートEの圧力がポートF及び\P　ポートGより高い場合、ポートEからポートF及びポートG\P　に漏れが発生する場合が御座います。\P※流路切り替え途中は、流体が混流致します。
  7
Note Text (JIS)
 73
     2
 44
1.058181881904602
  0
ENDBLK
  5
1B5
330
1B3
100
AcDbEntity
  8
0
100
AcDbBlockEnd
  0
BLOCK
  5
1B8
330
1B7
100
AcDbEntity
  8
0
100
AcDbBlockBegin
  2
三方弁説明B
 70
     0
 10
0.0
 20
0.0
 30
0.0
  3
三方弁説明B
  1

  0
MTEXT
  5
1BA
330
1B7
100
AcDbEntity
  8
Symbol (ISO)
100
AcDbMText
 10
-26.10087871551514
 20
4.643620708957314
 30
0.0
 40
1.500000059604644
 41
0.0
 46
0.0
 71
     1
 72
     1
  1
\fＭＳ Ｐゴシック|b0|i0;\H1.5000;※ハンドル位置Bの時、ポートGの圧力がポートE及び\P　ポートFより高い場合、ポートGからポートE及びポートF\P　に漏れが発生する場合が御座います。\P※流路切り替え途中は、流体が混流致します。
  7
Note Text (JIS)
 73
     2
 44
1.058181881904602
  0
ENDBLK
  5
1B9
330
1B7
100
AcDbEntity
  8
0
100
AcDbBlockEnd
  0
BLOCK
  5
1BC
330
1BB
100
AcDbEntity
  8
0
100
AcDbBlockBegin
  2
三方弁説明C
 70
     0
 10
0.0
 20
0.0
 30
0.0
  3
三方弁説明C
  1

  0
MTEXT
  5
1BE
330
1BB
100
AcDbEntity
  8
Symbol (ISO)
100
AcDbMText
 10
-26.24561548233032
 20
8.611802766099572
 30
0.0
 40
1.500000059604644
 41
0.0
 46
0.0
 71
     1
 72
     1
  1
\fＭＳ Ｐゴシック|b0|i0;\H1.5000;※流路F→Gの時、ポートEの圧力がポートF及び\P　ポートGより高い場合、ポートEからポートF及びポートG\P　に漏れが発生する場合が御座います。\P　また、流路F→Eの時、ポートGの圧力がポートF及び\P　ポートEより高い場合、ポートGからポートF及びポートE\P　に漏れが発生する場合が御座います。 \P※流路切り替え途中は、流体が混流致します。
  7
Note Text (JIS)
 73
     2
 44
1.058181881904602
  0
ENDBLK
  5
1BD
330
1BB
100
AcDbEntity
  8
0
100
AcDbBlockEnd
  0
BLOCK
  5
1C0
330
1BF
100
AcDbEntity
  8
0
100
AcDbBlockBegin
  2
三方弁流れ方向
 70
     0
 10
0.0
 20
0.0
 30
0.0
  3
三方弁流れ方向
  1

  0
LINE
  5
1C2
330
1BF
100
AcDbEntity
  8
Sketch Geometry (ISO)
100
AcDbLine
 10
22.49999999999995
 20
8.625000000000042
 30
0.0
 11
22.49999999999995
 21
-6.37500000000001
 31
0.0
  0
LINE
  5
1C3
330
1BF
100
AcDbEntity
  8
Sketch Geometry (ISO)
100
AcDbLine
 10
22.49999999999995
 20
-6.37500000000001
 30
0.0
 11
37.50000000000016
 21
-6.37500000000001
 31
0.0
  0
LINE
  5
1C4
330
1BF
100
AcDbEntity
  8
Sketch Geometry (ISO)
100
AcDbLine
 10
37.50000000000016
 20
-6.37500000000001
 30
0.0
 11
33.60288568297005
 21
-8.625000000000042
 31
0.0
  0
LINE
  5
1C5
330
1BF
100
AcDbEntity
  8
Sketch Geometry (ISO)
100
AcDbLine
 10
37.50000000000016
 20
-6.37500000000001
 30
0.0
 11
33.60288568297017
 21
-4.124999999999996
 31
0.0
  0
LINE
  5
1C6
330
1BF
100
AcDbEntity
  8
Sketch Geometry (ISO)
100
AcDbLine
 10
-22.50000000000011
 20
8.625000000000042
 30
0.0
 11
-22.50000000000005
 21
-6.374999999999957
 31
0.0
  0
LINE
  5
1C7
330
1BF
100
AcDbEntity
  8
Sketch Geometry (ISO)
100
AcDbLine
 10
-22.50000000000005
 20
-6.374999999999957
 30
0.0
 11
-37.50000000000015
 21
-6.37500000000001
 31
0.0
  0
LINE
  5
1C8
330
1BF
100
AcDbEntity
  8
Sketch Geometry (ISO)
100
AcDbLine
 10
-37.50000000000015
 20
-6.37500000000001
 30
0.0
 11
-33.60288568297016
 21
-8.625000000000007
 31
0.0
  0
LINE
  5
1C9
330
1BF
100
AcDbEntity
  8
Sketch Geometry (ISO)
100
AcDbLine
 10
-37.50000000000015
 20
-6.37500000000001
 30
0.0
 11
-33.60288568297016
 21
-4.124999999999996
 31
0.0
  0
ENDBLK
  5
1C1
330
1BF
100
AcDbEntity
  8
0
100
AcDbBlockEnd
  0
BLOCK
  5
1CB
330
1CA
100
AcDbEntity
  8
0
100
AcDbBlockBegin
  2
四面シート流れ方向
 70
     0
 10
0.0
 20
0.0
 30
0.0
  3
四面シート流れ方向
  1

  0
LINE
  5
1CD
330
1CA
100
AcDbEntity
  8
Sketch Geometry (ISO)
100
AcDbLine
 10
15.0
 20
5.75000000000001
 30
0.0
 11
15.0
 21
-4.249999999999989
 31
0.0
  0
LINE
  5
1CE
330
1CA
100
AcDbEntity
  8
Sketch Geometry (ISO)
100
AcDbLine
 10
15.0
 20
-4.249999999999989
 30
0.0
 11
25.0
 21
-4.249999999999989
 31
0.0
  0
LINE
  5
1CF
330
1CA
100
AcDbEntity
  8
Sketch Geometry (ISO)
100
AcDbLine
 10
25.0
 20
-4.249999999999989
 30
0.0
 11
22.40192378864668
 21
-5.75000000000001
 31
0.0
  0
LINE
  5
1D0
330
1CA
100
AcDbEntity
  8
Sketch Geometry (ISO)
100
AcDbLine
 10
25.0
 20
-4.249999999999989
 30
0.0
 11
22.4019237886467
 21
-2.749999999999985
 31
0.0
  0
LINE
  5
1D1
330
1CA
100
AcDbEntity
  8
Sketch Geometry (ISO)
100
AcDbLine
 10
-15.0
 20
5.75000000000001
 30
0.0
 11
-15.0
 21
-4.249999999999989
 31
0.0
  0
LINE
  5
1D2
330
1CA
100
AcDbEntity
  8
Sketch Geometry (ISO)
100
AcDbLine
 10
-15.0
 20
-4.249999999999989
 30
0.0
 11
-25.0
 21
-4.249999999999989
 31
0.0
  0
LINE
  5
1D3
330
1CA
100
AcDbEntity
  8
Sketch Geometry (ISO)
100
AcDbLine
 10
-25.0
 20
-4.249999999999989
 30
0.0
 11
-22.40192378864668
 21
-5.749999999999992
 31
0.0
  0
LINE
  5
1D4
330
1CA
100
AcDbEntity
  8
Sketch Geometry (ISO)
100
AcDbLine
 10
-25.0
 20
-4.249999999999989
 30
0.0
 11
-22.40192378864668
 21
-2.749999999999985
 31
0.0
  0
ENDBLK
  5
1CC
330
1CA
100
AcDbEntity
  8
0
100
AcDbBlockEnd
  0
BLOCK
  5
1D6
330
1D5
100
AcDbEntity
  8
0
100
AcDbBlockBegin
  2
継手使用条件
 70
     0
 10
0.0
 20
0.0
 30
0.0
  3
継手使用条件
  1

  0
LINE
  5
1D8
330
1D5
100
AcDbEntity
  8
AM_6
 62
     7
100
AcDbLine
 10
-109.9999999999998
 20
13.99999999999995
 30
0.0
 11
0.0
 21
13.99999999999995
 31
0.0
  0
LINE
  5
1D9
330
1D5
100
AcDbEntity
  8
AM_6
 62
     7
100
AcDbLine
 10
-109.9999999999998
 20
20.99999999999989
 30
0.0
 11
0.0
 21
20.99999999999989
 31
0.0
  0
LINE
  5
1DA
330
1D5
100
AcDbEntity
  8
AM_6
 62
     7
100
AcDbLine
 10
-109.9999999999998
 20
0.0
 30
0.0
 11
0.0
 21
0.0
 31
0.0
  0
LINE
  5
1DB
330
1D5
100
AcDbEntity
  8
AM_6
 62
     7
100
AcDbLine
 10
-109.9999999999998
 20
6.999999999999921
 30
0.0
 11
0.0
 21
6.999999999999921
 31
0.0
  0
LINE
  5
1DC
330
1D5
100
AcDbEntity
  8
AM_6
100
AcDbLine
 10
-109.9999999999998
 20
13.99999999999995
 30
0.0
 11
0.0
 21
13.99999999999995
 31
0.0
  0
LINE
  5
1DD
330
1D5
100
AcDbEntity
  8
AM_6
 62
     7
100
AcDbLine
 10
-79.99999999999985
 20
0.0
 30
0.0
 11
-79.99999999999985
 21
13.99999999999995
 31
0.0
  0
LINE
  5
1DE
330
1D5
100
AcDbEntity
  8
AM_6
 62
     7
100
AcDbLine
 10
-109.9999999999998
 20
0.0
 30
0.0
 11
-109.9999999999998
 21
13.99999999999995
 31
0.0
  0
LINE
  5
1DF
330
1D5
100
AcDbEntity
  8
AM_6
 62
     7
100
AcDbLine
 10
-109.9999999999998
 20
20.99999999999989
 30
0.0
 11
-109.9999999999998
 21
13.99999999999995
 31
0.0
  0
LINE
  5
1E0
330
1D5
100
AcDbEntity
  8
AM_6
 62
     7
100
AcDbLine
 10
0.0
 20
20.99999999999989
 30
0.0
 11
0.0
 21
0.0
 31
0.0
  0
TEXT
  5
1E1
330
1D5
100
AcDbEntity
  8
AM_6
 62
     7
100
AcDbText
 10
-99.10699134973953
 20
1.859174919306223
 30
0.0
 40
3.000000119209289
  1
温度
  7
文字スタイル124
100
AcDbText
  0
TEXT
  5
1E2
330
1D5
100
AcDbEntity
  8
AM_6
 62
     7
100
AcDbText
 10
-74.08820779690536
 20
1.889208046622279
 30
0.0
 40
3.000000119209289
  1
-50℃から+150℃（凍結箇所は除く）
  7
文字スタイル124
100
AcDbText
  0
TEXT
  5
1E3
330
1D5
100
AcDbEntity
  8
AM_6
 62
     7
100
AcDbText
 10
-98.91833575398269
 20
9.087025220515805
 30
0.0
 40
3.000000119209289
  1
圧力
  7
文字スタイル124
100
AcDbText
  0
TEXT
  5
1E4
330
1D5
100
AcDbEntity
  8
AM_6
 62
     7
100
AcDbText
 10
-73.95759548546608
 20
9.2041538485811
 30
0.0
 40
3.000000119209289
  1
6.90㎫（70kｇｆ/㎠）以下
  7
文字スタイル124
100
AcDbText
  0
TEXT
  5
1E5
330
1D5
100
AcDbEntity
  8
AM_6
 62
     7
100
AcDbText
 10
-67.51047275306056
 20
16.18426392533615
 30
0.0
 40
3.000000119209289
  1
使　用　条　件
  7
文字スタイル124
100
AcDbText
  0
ENDBLK
  5
1D7
330
1D5
100
AcDbEntity
  8
0
100
AcDbBlockEnd
  0
BLOCK
  5
1E7
330
1E6
100
AcDbEntity
  8
0
100
AcDbBlockBegin
  2
四方弁流れ方向A
 70
     0
 10
0.0
 20
0.0
 30
0.0
  3
四方弁流れ方向A
  1

  0
LINE
  5
1E9
330
1E6
100
AcDbEntity
  8
Sketch Geometry (ISO)
100
AcDbLine
 10
-7.500000000000106
 20
8.625000000000042
 30
0.0
 11
-7.500000000000106
 21
-6.37500000000001
 31
0.0
  0
LINE
  5
1EA
330
1E6
100
AcDbEntity
  8
Sketch Geometry (ISO)
100
AcDbLine
 10
-7.500000000000106
 20
-6.37500000000001
 30
0.0
 11
7.500000000000106
 21
-6.37500000000001
 31
0.0
  0
LINE
  5
1EB
330
1E6
100
AcDbEntity
  8
Sketch Geometry (ISO)
100
AcDbLine
 10
7.500000000000106
 20
-6.37500000000001
 30
0.0
 11
3.602885682969994
 21
-8.625000000000042
 31
0.0
  0
LINE
  5
1EC
330
1E6
100
AcDbEntity
  8
Sketch Geometry (ISO)
100
AcDbLine
 10
7.500000000000106
 20
-6.37500000000001
 30
0.0
 11
3.602885682970118
 21
-4.124999999999996
 31
0.0
  0
ENDBLK
  5
1E8
330
1E6
100
AcDbEntity
  8
0
100
AcDbBlockEnd
  0
BLOCK
  5
1EE
330
1ED
100
AcDbEntity
  8
0
100
AcDbBlockBegin
  2
四方弁流れ方向B
 70
     0
 10
0.0
 20
0.0
 30
0.0
  3
四方弁流れ方向B
  1

  0
LINE
  5
1F0
330
1ED
100
AcDbEntity
  8
Sketch Geometry (ISO)
100
AcDbLine
 10
0.0
 20
8.625000000000024
 30
0.0
 11
0.0
 21
-6.374999999999975
 31
0.0
  0
LINE
  5
1F1
330
1ED
100
AcDbEntity
  8
Sketch Geometry (ISO)
100
AcDbLine
 10
0.0
 20
-6.374999999999975
 30
0.0
 11
-15.00000000000004
 21
-6.375000000000028
 31
0.0
  0
LINE
  5
1F2
330
1ED
100
AcDbEntity
  8
Sketch Geometry (ISO)
100
AcDbLine
 10
-15.00000000000004
 20
-6.375000000000028
 30
0.0
 11
-11.10288568297005
 21
-8.625000000000024
 31
0.0
  0
LINE
  5
1F3
330
1ED
100
AcDbEntity
  8
Sketch Geometry (ISO)
100
AcDbLine
 10
-15.00000000000004
 20
-6.375000000000028
 30
0.0
 11
-11.10288568297005
 21
-4.125000000000014
 31
0.0
  0
LINE
  5
1F4
330
1ED
100
AcDbEntity
  8
Sketch Geometry (ISO)
100
AcDbLine
 10
15.00000000000005
 20
-6.375000000000028
 30
0.0
 11
11.10288568297006
 21
-4.125000000000014
 31
0.0
  0
LINE
  5
1F5
330
1ED
100
AcDbEntity
  8
Sketch Geometry (ISO)
100
AcDbLine
 10
15.00000000000005
 20
-6.375000000000028
 30
0.0
 11
11.10288568297006
 21
-8.625000000000024
 31
0.0
  0
LINE
  5
1F6
330
1ED
100
AcDbEntity
  8
Sketch Geometry (ISO)
100
AcDbLine
 10
0.0
 20
-6.374999999999975
 30
0.0
 11
15.00000000000005
 21
-6.375000000000028
 31
0.0
  0
ENDBLK
  5
1EF
330
1ED
100
AcDbEntity
  8
0
100
AcDbBlockEnd
  0
BLOCK
  5
1F8
330
1F7
100
AcDbEntity
  8
0
100
AcDbBlockBegin
  2
バルブ仕様表Ver1.00
 70
     0
 10
0.0
 20
0.0
 30
0.0
  3
バルブ仕様表Ver1.00
  1

  0
LINE
  5
1FA
330
1F7
100
AcDbEntity
  8
AM_6
 62
     7
100
AcDbLine
 10
-109.9999999999999
 20
27.99999999999997
 30
0.0
 11
0.0
 21
27.99999999999997
 31
0.0
  0
LINE
  5
1FB
330
1F7
100
AcDbEntity
  8
AM_6
 62
     7
100
AcDbLine
 10
-109.9999999999999
 20
13.99999999999998
 30
0.0
 11
0.0
 21
13.99999999999998
 31
0.0
  0
LINE
  5
1FC
330
1F7
100
AcDbEntity
  8
AM_6
 62
     7
100
AcDbLine
 10
-109.9999999999999
 20
20.99999999999994
 30
0.0
 11
0.0
 21
20.99999999999994
 31
0.0
  0
LINE
  5
1FD
330
1F7
100
AcDbEntity
  8
AM_6
 62
     7
100
AcDbLine
 10
-109.9999999999999
 20
0.0
 30
0.0
 11
0.0
 21
0.0
 31
0.0
  0
LINE
  5
1FE
330
1F7
100
AcDbEntity
  8
AM_6
 62
     7
100
AcDbLine
 10
-109.9999999999999
 20
6.999999999999957
 30
0.0
 11
0.0
 21
6.999999999999957
 31
0.0
  0
LINE
  5
1FF
330
1F7
100
AcDbEntity
  8
AM_6
100
AcDbLine
 10
-109.9999999999999
 20
13.99999999999998
 30
0.0
 11
0.0
 21
13.99999999999998
 31
0.0
  0
LINE
  5
200
330
1F7
100
AcDbEntity
  8
AM_6
 62
     7
100
AcDbLine
 10
-79.99999999999997
 20
0.0
 30
0.0
 11
-79.99999999999997
 21
13.99999999999998
 31
0.0
  0
LINE
  5
201
330
1F7
100
AcDbEntity
  8
AM_6
 62
     7
100
AcDbLine
 10
-79.99999999999983
 20
27.99999999999997
 30
0.0
 11
-79.99999999999997
 21
13.99999999999998
 31
0.0
  0
LINE
  5
202
330
1F7
100
AcDbEntity
  8
AM_6
 62
     7
100
AcDbLine
 10
-109.9999999999999
 20
0.0
 30
0.0
 11
-109.9999999999999
 21
13.99999999999998
 31
0.0
  0
LINE
  5
203
330
1F7
100
AcDbEntity
  8
AM_6
 62
     7
100
AcDbLine
 10
-109.9999999999999
 20
27.99999999999997
 30
0.0
 11
-109.9999999999999
 21
13.99999999999998
 31
0.0
  0
LINE
  5
204
330
1F7
100
AcDbEntity
  8
AM_6
 62
     7
100
AcDbLine
 10
0.0
 20
27.99999999999997
 30
0.0
 11
0.0
 21
0.0
 31
0.0
  0
TEXT
  5
205
330
1F7
100
AcDbEntity
  8
AM_6
 62
     7
100
AcDbText
 10
-102.9390916948839
 20
1.453793852345341
 30
0.0
 40
3.000000119209289
  1
気密試験
  7
文字スタイル124
100
AcDbText
  0
TEXT
  5
206
330
1F7
100
AcDbEntity
  8
AM_6
 62
     7
100
AcDbText
 10
-102.9390916948839
 20
8.45379385234537
 30
0.0
 40
3.000000119209289
  1
耐圧試験
  7
文字スタイル124
100
AcDbText
  0
TEXT
  5
207
330
1F7
100
AcDbEntity
  8
AM_6
 62
     7
100
AcDbText
 10
-102.9390916948839
 20
15.45379385234532
 30
0.0
 40
3.000000119209289
  1
使用温度
  7
文字スタイル124
100
AcDbText
  0
TEXT
  5
208
330
1F7
100
AcDbEntity
  8
AM_6
 62
     7
100
AcDbText
 10
-102.9390916948839
 20
22.45379385234536
 30
0.0
 40
3.000000119209289
  1
使用圧力
  7
文字スタイル124
100
AcDbText
  0
TEXT
  5
209
330
1F7
100
AcDbEntity
  8
AM_6
 62
     7
100
AcDbText
 10
-65.4524935694148
 20
8.45379385234537
 30
0.0
 40
3.000000119209289
  1
1.96MPa
  7
文字スタイル124
100
AcDbText
  0
TEXT
  5
20A
330
1F7
100
AcDbEntity
  8
AM_6
 62
     7
100
AcDbText
 10
-65.4524935694148
 20
1.453793852345341
 30
0.0
 40
3.000000119209289
  1
0.6MPa
  7
文字スタイル124
100
AcDbText
  0
TEXT
  5
20B
330
1F7
100
AcDbEntity
  8
AM_6
 62
     7
100
AcDbText
 10
-65.4524935694148
 20
22.45379385234536
 30
0.0
 40
3.000000119209289
  1
MAX　0.98MPa
  7
文字スタイル124
100
AcDbText
  0
TEXT
  5
20C
330
1F7
100
AcDbEntity
  8
AM_6
 62
     7
100
AcDbText
 10
-65.4524935694148
 20
15.45379385234532
 30
0.0
 40
3.000000119209289
  1
-10℃～+80℃（凍結無き事）
  7
文字スタイル124
100
AcDbText
  0
ENDBLK
  5
1F9
330
1F7
100
AcDbEntity
  8
0
100
AcDbBlockEnd
  0
BLOCK
  5
20E
330
20D
100
AcDbEntity
  8
0
100
AcDbBlockBegin
  2
バルブ仕様表Ver1.01
 70
     0
 10
0.0
 20
0.0
 30
0.0
  3
バルブ仕様表Ver1.01
  1

  0
LINE
  5
210
330
20D
100
AcDbEntity
  8
AM_6
 62
     7
100
AcDbLine
 10
-109.9999999999999
 20
34.99999999999989
 30
0.0
 11
0.0
 21
34.99999999999989
 31
0.0
  0
LINE
  5
211
330
20D
100
AcDbEntity
  8
AM_6
 62
     7
100
AcDbLine
 10
-109.9999999999999
 20
20.99999999999991
 30
0.0
 11
0.0
 21
20.99999999999991
 31
0.0
  0
LINE
  5
212
330
20D
100
AcDbEntity
  8
AM_6
 62
     7
100
AcDbLine
 10
-109.9999999999999
 20
27.99999999999986
 30
0.0
 11
0.0
 21
27.99999999999986
 31
0.0
  0
LINE
  5
213
330
20D
100
AcDbEntity
  8
AM_6
 62
     7
100
AcDbLine
 10
-109.9999999999999
 20
6.999999999999921
 30
0.0
 11
0.0
 21
6.999999999999921
 31
0.0
  0
LINE
  5
214
330
20D
100
AcDbEntity
  8
AM_6
 62
     7
100
AcDbLine
 10
-109.9999999999999
 20
13.99999999999988
 30
0.0
 11
0.0
 21
13.99999999999988
 31
0.0
  0
LINE
  5
215
330
20D
100
AcDbEntity
  8
AM_6
100
AcDbLine
 10
-109.9999999999999
 20
20.99999999999991
 30
0.0
 11
0.0
 21
20.99999999999991
 31
0.0
  0
LINE
  5
216
330
20D
100
AcDbEntity
  8
AM_6
 62
     7
100
AcDbLine
 10
-79.99999999999997
 20
6.999999999999921
 30
0.0
 11
-79.99999999999997
 21
20.99999999999991
 31
0.0
  0
LINE
  5
217
330
20D
100
AcDbEntity
  8
AM_6
 62
     7
100
AcDbLine
 10
-79.99999999999983
 20
34.99999999999989
 30
0.0
 11
-79.99999999999997
 21
20.99999999999991
 31
0.0
  0
LINE
  5
218
330
20D
100
AcDbEntity
  8
AM_6
 62
     7
100
AcDbLine
 10
-110.0
 20
0.0
 30
0.0
 11
-109.9999999999999
 21
20.99999999999991
 31
0.0
  0
LINE
  5
219
330
20D
100
AcDbEntity
  8
AM_6
 62
     7
100
AcDbLine
 10
-109.9999999999999
 20
34.99999999999989
 30
0.0
 11
-109.9999999999999
 21
20.99999999999991
 31
0.0
  0
LINE
  5
21A
330
20D
100
AcDbEntity
  8
AM_6
 62
     7
100
AcDbLine
 10
0.0
 20
34.99999999999989
 30
0.0
 11
0.0
 21
0.0
 31
0.0
  0
LINE
  5
21B
330
20D
100
AcDbEntity
  8
AM_6
 62
     7
100
AcDbLine
 10
-110.0
 20
0.0
 30
0.0
 11
0.0
 21
0.0
 31
0.0
  0
TEXT
  5
21C
330
20D
100
AcDbEntity
  8
AM_6
 62
     7
100
AcDbText
 10
-108.8278821838788
 20
8.85644618371888
 30
0.0
 40
3.000000119209289
  1
弁座漏れ検査
  7
文字スタイル124
100
AcDbText
  0
TEXT
  5
21D
330
20D
100
AcDbEntity
  8
AM_6
 62
     7
100
AcDbText
 10
-108.7272190985969
 20
15.85644618371891
 30
0.0
 40
3.000000119209289
  1
弁箱耐圧検査
  7
文字スタイル124
100
AcDbText
  0
TEXT
  5
21E
330
20D
100
AcDbEntity
  8
AM_6
 62
     7
100
AcDbText
 10
-102.9390916948839
 20
22.45379385234525
 30
0.0
 40
3.000000119209289
  1
使用温度
  7
文字スタイル124
100
AcDbText
  0
TEXT
  5
21F
330
20D
100
AcDbEntity
  8
AM_6
 62
     7
100
AcDbText
 10
-102.9390916948839
 20
29.45379385234528
 30
0.0
 40
3.000000119209289
  1
使用圧力
  7
文字スタイル124
100
AcDbText
  0
MTEXT
  5
220
330
20D
100
AcDbEntity
  8
AM_6
 62
     7
100
AcDbMText
 10
-75.82079135345705
 20
15.08911641185708
 30
0.0
 40
3.000000119209289
 41
0.0
 46
0.0
 71
     7
 72
     1
  1
\fＭＳ Ｐゴシック|b0|i0;\H3.0000;水圧：1.5MPa\fＭＳ Ｐゴシック|b0|i0;\H1.5000;（代表試験）\fＭＳ Ｐゴシック|b0|i0;\H3.0000;/空圧：0.6MPa
 73
     2
 44
1.0
  0
TEXT
  5
221
330
20D
100
AcDbEntity
  8
AM_6
 62
     7
100
AcDbText
 10
-65.4524935694148
 20
8.453793852345263
 30
0.0
 40
3.000000119209289
  1
空圧：0.6MPa
  7
文字スタイル124
100
AcDbText
  0
TEXT
  5
222
330
20D
100
AcDbEntity
  8
AM_6
 62
     7
100
AcDbText
 10
-65.4524935694148
 20
29.45379385234528
 30
0.0
 40
3.000000119209289
  1
MAX　0.98MPa
  7
文字スタイル124
100
AcDbText
  0
TEXT
  5
223
330
20D
100
AcDbEntity
  8
AM_6
 62
     7
100
AcDbText
 10
-65.4524935694148
 20
22.45379385234525
 30
0.0
 40
3.000000119209289
  1
-10℃～+80℃（凍結無き事）
  7
文字スタイル124
100
AcDbText
  0
MTEXT
  5
224
330
20D
100
AcDbEntity
  8
Symbol (ISO)
100
AcDbMText
 10
-105.2372422780888
 20
2.865575525594454
 30
0.0
 40
1.500000059604644
 41
0.0
 46
0.0
 71
     1
 72
     1
  1
\fＭＳ Ｐゴシック|b0|i0;\H1.5000;※使用圧力や使用温度等は、諸条件に寄って変動が生じます。
  7
Note Text (JIS)
 73
     1
 44
1.5
  0
MTEXT
  5
225
330
20D
100
AcDbEntity
  8
Symbol (ISO)
100
AcDbMText
 10
-105.236758833615
 20
5.953692813091322
 30
0.0
 40
1.500000059604644
 41
0.0
 46
0.0
 71
     1
 72
     1
  1
\fＭＳ Ｐゴシック|b0|i0;\H1.5000;※バルブ構成材質に影響のない環境下で（流体を含む）ご使用下さい。
  7
Note Text (JIS)
 73
     1
 44
1.5
  0
ENDBLK
  5
20F
330
20D
100
AcDbEntity
  8
0
100
AcDbBlockEnd
  0
BLOCK
  5
227
330
226
100
AcDbEntity
  8
0
100
AcDbBlockBegin
  2
3方弁T説明A
 70
     0
 10
0.0
 20
0.0
 30
0.0
  3
3方弁T説明A
  1

  0
MTEXT
  5
229
330
226
100
AcDbEntity
  8
Symbol (ISO)
100
AcDbMText
 10
-26.64529323577881
 20
6.057205647230148
 30
0.0
 40
1.522842645645141
 41
0.0
 46
0.0
 71
     1
 72
     1
  1
\fＭＳ Ｐゴシック|b0|i0;\H1.5228;※ポートFとGが流路に成ります。\P※ハンドル位置Aの時、ポートEの圧力がポートF及び\P　ポートGより高い場合、ポートEからポートF及びポートG\P　に漏れが発生する場合が御座います。\P※流路切り替え途中は、流体が混流致します。
  7
Note Text (JIS)
 73
     2
 44
1.058181881904602
  0
ENDBLK
  5
228
330
226
100
AcDbEntity
  8
0
100
AcDbBlockEnd
  0
BLOCK
  5
22B
330
22A
100
AcDbEntity
  8
0
100
AcDbBlockBegin
  2
3方弁T説明B
 70
     0
 10
0.0
 20
0.0
 30
0.0
  3
3方弁T説明B
  1

  0
MTEXT
  5
22D
330
22A
100
AcDbEntity
  8
Symbol (ISO)
100
AcDbMText
 10
-23.96473407745361
 20
2.019689232110977
 30
0.0
 40
1.522842645645141
 41
0.0
 46
0.0
 71
     1
 72
     1
  1
\fＭＳ Ｐゴシック|b0|i0;\H1.5228;※ポートEとFとGそれぞれの方向に開いています。\P※流路切り替え途中は、流体が混流致します。
  7
Note Text (JIS)
 73
     2
 44
1.058181881904602
  0
ENDBLK
  5
22C
330
22A
100
AcDbEntity
  8
0
100
AcDbBlockEnd
  0
BLOCK
  5
22F
330
22E
100
AcDbEntity
  8
0
100
AcDbBlockBegin
  2
バルブ仕様表Ver1.02
 70
     0
 10
0.0
 20
0.0
 30
0.0
  3
バルブ仕様表Ver1.02
  1

  0
LINE
  5
231
330
22E
100
AcDbEntity
  8
AM_6
 62
     7
100
AcDbLine
 10
-109.9999999999999
 20
34.99999999999989
 30
0.0
 11
0.0
 21
34.99999999999989
 31
0.0
  0
LINE
  5
232
330
22E
100
AcDbEntity
  8
AM_6
 62
     7
100
AcDbLine
 10
-109.9999999999999
 20
20.99999999999991
 30
0.0
 11
0.0
 21
20.99999999999991
 31
0.0
  0
LINE
  5
233
330
22E
100
AcDbEntity
  8
AM_6
 62
     7
100
AcDbLine
 10
-109.9999999999999
 20
27.99999999999986
 30
0.0
 11
0.0
 21
27.99999999999986
 31
0.0
  0
LINE
  5
234
330
22E
100
AcDbEntity
  8
AM_6
 62
     7
100
AcDbLine
 10
-109.9999999999999
 20
6.999999999999921
 30
0.0
 11
0.0
 21
6.999999999999921
 31
0.0
  0
LINE
  5
235
330
22E
100
AcDbEntity
  8
AM_6
 62
     7
100
AcDbLine
 10
-109.9999999999999
 20
13.99999999999988
 30
0.0
 11
0.0
 21
13.99999999999988
 31
0.0
  0
LINE
  5
236
330
22E
100
AcDbEntity
  8
AM_6
 62
     7
100
AcDbLine
 10
-109.9999999999999
 20
20.99999999999991
 30
0.0
 11
0.0
 21
20.99999999999991
 31
0.0
  0
LINE
  5
237
330
22E
100
AcDbEntity
  8
AM_6
 62
     7
100
AcDbLine
 10
-79.99999999999997
 20
6.999999999999921
 30
0.0
 11
-79.99999999999997
 21
20.99999999999991
 31
0.0
  0
LINE
  5
238
330
22E
100
AcDbEntity
  8
AM_6
 62
     7
100
AcDbLine
 10
-79.99999999999983
 20
34.99999999999989
 30
0.0
 11
-79.99999999999997
 21
20.99999999999991
 31
0.0
  0
LINE
  5
239
330
22E
100
AcDbEntity
  8
AM_6
 62
     7
100
AcDbLine
 10
-110.0
 20
0.0
 30
0.0
 11
-109.9999999999999
 21
20.99999999999991
 31
0.0
  0
LINE
  5
23A
330
22E
100
AcDbEntity
  8
AM_6
 62
     7
100
AcDbLine
 10
-109.9999999999999
 20
34.99999999999989
 30
0.0
 11
-109.9999999999999
 21
20.99999999999991
 31
0.0
  0
LINE
  5
23B
330
22E
100
AcDbEntity
  8
AM_6
 62
     7
100
AcDbLine
 10
0.0
 20
34.99999999999989
 30
0.0
 11
0.0
 21
0.0
 31
0.0
  0
LINE
  5
23C
330
22E
100
AcDbEntity
  8
AM_6
 62
     7
100
AcDbLine
 10
-110.0
 20
0.0
 30
0.0
 11
0.0
 21
0.0
 31
0.0
  0
TEXT
  5
23D
330
22E
100
AcDbEntity
  8
AM_6
 62
     7
100
AcDbText
 10
-108.8278821838788
 20
8.85644618371888
 30
0.0
 40
3.000000119209289
  1
弁座漏れ検査
  7
文字スタイル124
100
AcDbText
  0
TEXT
  5
23E
330
22E
100
AcDbEntity
  8
AM_6
 62
     7
100
AcDbText
 10
-108.7272190985969
 20
15.85644618371891
 30
0.0
 40
3.000000119209289
  1
弁箱耐圧検査
  7
文字スタイル124
100
AcDbText
  0
TEXT
  5
23F
330
22E
100
AcDbEntity
  8
AM_6
 62
     7
100
AcDbText
 10
-102.9390916948839
 20
22.45379385234525
 30
0.0
 40
3.000000119209289
  1
使用温度
  7
文字スタイル124
100
AcDbText
  0
TEXT
  5
240
330
22E
100
AcDbEntity
  8
AM_6
 62
     7
100
AcDbText
 10
-102.9390916948839
 20
29.45379385234528
 30
0.0
 40
3.000000119209289
  1
使用圧力
  7
文字スタイル124
100
AcDbText
  0
MTEXT
  5
241
330
22E
100
AcDbEntity
  8
AM_6
 62
     7
100
AcDbMText
 10
-65.28809090537734
 20
14.98483224954363
 30
0.0
 40
3.000000119209289
 41
0.0
 46
0.0
 71
     7
 72
     1
  1
\fＭＳ Ｐゴシック|b0|i0;\H3.0000;水圧：1.5MPa\fＭＳ Ｐゴシック|b0|i0;\H1.5000;（代表試験）
 73
     2
 44
1.0
  0
TEXT
  5
242
330
22E
100
AcDbEntity
  8
AM_6
 62
     7
100
AcDbText
 10
-65.4524935694148
 20
8.453793852345263
 30
0.0
 40
3.000000119209289
  1
空圧：0.6MPa
  7
文字スタイル124
100
AcDbText
  0
TEXT
  5
243
330
22E
100
AcDbEntity
  8
AM_6
 62
     7
100
AcDbText
 10
-65.4524935694148
 20
29.45379385234528
 30
0.0
 40
3.000000119209289
  1
MAX　0.98MPa
  7
文字スタイル124
100
AcDbText
  0
TEXT
  5
244
330
22E
100
AcDbEntity
  8
AM_6
 62
     7
100
AcDbText
 10
-65.4524935694148
 20
22.45379385234525
 30
0.0
 40
3.000000119209289
  1
-10℃～+80℃（凍結無き事）
  7
文字スタイル124
100
AcDbText
  0
MTEXT
  5
245
330
22E
100
AcDbEntity
  8
Symbol (ISO)
100
AcDbMText
 10
-105.2372422780888
 20
2.865575525594454
 30
0.0
 40
1.500000059604644
 41
0.0
 46
0.0
 71
     1
 72
     1
  1
\fＭＳ Ｐゴシック|b0|i0;\H1.5000;※使用圧力や使用温度等は、諸条件に寄って変動が生じます。
  7
Note Text (JIS)
 73
     1
 44
1.5
  0
MTEXT
  5
246
330
22E
100
AcDbEntity
  8
Symbol (ISO)
100
AcDbMText
 10
-105.236758833615
 20
5.953692813091322
 30
0.0
 40
1.500000059604644
 41
0.0
 46
0.0
 71
     1
 72
     1
  1
\fＭＳ Ｐゴシック|b0|i0;\H1.5000;※バルブ構成材質に影響のない環境下で（流体を含む）ご使用下さい。
  7
Note Text (JIS)
 73
     1
 44
1.5
  0
ENDBLK
  5
230
330
22E
100
AcDbEntity
  8
0
100
AcDbBlockEnd
  0
ENDSEC
  0
SECTION
  2
ENTITIES
  0
LINE
  5
247
330
6C
100
AcDbEntity
  8
Visible (ISO)
100
AcDbLine
 10
60.79584754402398
 20
64.75855905374067
 30
0.0
 11
60.79584754402398
 21
65.78428841328939
 31
0.0
  0
LINE
  5
248
330
6C
100
AcDbEntity
  8
Visible (ISO)
100
AcDbLine
 10
60.79584754402398
 20
65.78428841328939
 30
0.0
 11
61.98717658330707
 21
64.75855905374067
 31
0.0
  0
LINE
  5
249
330
6C
100
AcDbEntity
  8
Visible (ISO)
100
AcDbLine
 10
61.98717658330707
 20
64.75855905374067
 30
0.0
 11
60.79584754402398
 21
64.75855905374067
 31
0.0
  0
LINE
  5
24A
330
6C
100
AcDbEntity
  8
Visible (ISO)
100
AcDbLine
 10
59.41914572891885
 20
64.36556876899792
 30
0.0
 11
60.46711982156621
 21
64.36556876899792
 31
0.0
  0
LINE
  5
24B
330
6C
100
AcDbEntity
  8
Visible (ISO)
100
AcDbLine
 10
60.46711982156621
 20
64.36556876899792
 30
0.0
 11
60.46711982156621
 21
64.00223812838667
 31
0.0
  0
LINE
  5
24C
330
6C
100
AcDbEntity
  8
Visible (ISO)
100
AcDbLine
 10
60.46711982156621
 20
64.00223812838667
 30
0.0
 11
60.79584754402398
 21
64.00223812838667
 31
0.0
  0
LINE
  5
24D
330
6C
100
AcDbEntity
  8
Visible (ISO)
100
AcDbLine
 10
60.79584754402398
 20
64.00223812838667
 30
0.0
 11
60.79584754402398
 21
64.36556876899792
 31
0.0
  0
LINE
  5
24E
330
6C
100
AcDbEntity
  8
Visible (ISO)
100
AcDbLine
 10
60.79584754402398
 20
64.36556876899792
 30
0.0
 11
62.46914580044442
 21
64.36556876899792
 31
0.0
  0
LINE
  5
24F
330
6C
100
AcDbEntity
  8
Visible (ISO)
100
AcDbLine
 10
62.46914580044442
 20
64.36556876899792
 30
0.0
 11
62.46914580044442
 21
64.74125759466395
 31
0.0
  0
LINE
  5
250
330
6C
100
AcDbEntity
  8
Visible (ISO)
100
AcDbLine
 10
62.46914580044442
 20
64.74125759466395
 30
0.0
 11
60.89718466147338
 21
66.10560122471428
 31
0.0
  0
LINE
  5
251
330
6C
100
AcDbEntity
  8
Visible (ISO)
100
AcDbLine
 10
60.89718466147338
 20
66.10560122471428
 30
0.0
 11
60.46711982156621
 21
66.10560122471428
 31
0.0
  0
LINE
  5
252
330
6C
100
AcDbEntity
  8
Visible (ISO)
100
AcDbLine
 10
60.46711982156621
 20
66.10560122471428
 30
0.0
 11
60.46711982156621
 21
64.75855905374067
 31
0.0
  0
LINE
  5
253
330
6C
100
AcDbEntity
  8
Visible (ISO)
100
AcDbLine
 10
60.46711982156621
 20
64.75855905374067
 30
0.0
 11
59.41914572891885
 21
64.75855905374067
 31
0.0
  0
LINE
  5
254
330
6C
100
AcDbEntity
  8
Visible (ISO)
100
AcDbLine
 10
59.41914572891885
 20
64.75855905374067
 30
0.0
 11
59.41914572891885
 21
64.36556876899792
 31
0.0
  0
LINE
  5
255
330
6C
100
AcDbEntity
  8
Visible (ISO)
100
AcDbLine
 10
62.10828679684414
 20
73.84182506902146
 30
0.0
 11
62.10828679684414
 21
72.8185673464837
 31
0.0
  0
LINE
  5
256
330
6C
100
AcDbEntity
  8
Visible (ISO)
100
AcDbLine
 10
62.10828679684414
 20
72.8185673464837
 30
0.0
 11
59.41914572891885
 21
72.8185673464837
 31
0.0
  0
LINE
  5
257
330
6C
100
AcDbEntity
  8
Visible (ISO)
100
AcDbLine
 10
59.41914572891885
 20
72.8185673464837
 30
0.0
 11
59.41914572891885
 21
72.41321887668613
 31
0.0
  0
LINE
  5
258
330
6C
100
AcDbEntity
  8
Visible (ISO)
100
AcDbLine
 10
59.41914572891885
 20
72.41321887668613
 30
0.0
 11
62.10828679684414
 21
72.41321887668613
 31
0.0
  0
LINE
  5
259
330
6C
100
AcDbEntity
  8
Visible (ISO)
100
AcDbLine
 10
62.10828679684414
 20
72.41321887668613
 30
0.0
 11
62.10828679684414
 21
71.38996115414838
 31
0.0
  0
LINE
  5
25A
330
6C
100
AcDbEntity
  8
Visible (ISO)
100
AcDbLine
 10
62.10828679684414
 20
71.38996115414838
 30
0.0
 11
62.46914580044442
 21
71.38996115414838
 31
0.0
  0
LINE
  5
25B
330
6C
100
AcDbEntity
  8
Visible (ISO)
100
AcDbLine
 10
62.46914580044442
 20
71.38996115414838
 30
0.0
 11
62.46914580044441
 21
73.84182506902146
 31
0.0
  0
LINE
  5
25C
330
6C
100
AcDbEntity
  8
Visible (ISO)
100
AcDbLine
 10
62.46914580044441
 20
73.84182506902146
 30
0.0
 11
62.10828679684414
 21
73.84182506902146
 31
0.0
  0
LINE
  5
25D
330
6C
100
AcDbEntity
  8
Visible (ISO)
100
AcDbLine
 10
59.10300939511571
 20
71.27209922208386
 30
0.0
 11
59.10300939511571
 21
72.02209922208385
 31
0.0
  0
LINE
  5
25E
330
6C
100
AcDbEntity
  8
Visible (ISO)
100
AcDbLine
 10
59.10300939511571
 20
72.02209922208385
 30
0.0
 11
56.85300939511572
 21
72.02209922208385
 31
0.0
  0
LINE
  5
25F
330
6C
100
AcDbEntity
  8
Visible (ISO)
100
AcDbLine
 10
56.85300939511572
 20
72.02209922208385
 30
0.0
 11
56.85300939511572
 21
72.39709922208385
 31
0.0
  0
LINE
  5
260
330
6C
100
AcDbEntity
  8
Visible (ISO)
100
AcDbLine
 10
56.85300939511572
 20
71.27209922208386
 30
0.0
 11
59.10300939511571
 21
71.27209922208386
 31
0.0
  0
LINE
  5
261
330
6C
100
AcDbEntity
  8
Visible (ISO)
100
AcDbLine
 10
56.85300939511572
 20
70.89709922208387
 30
0.0
 11
56.85300939511572
 21
71.27209922208386
 31
0.0
  0
LINE
  5
262
330
6C
100
AcDbEntity
  8
Visible (ISO)
100
AcDbLine
 10
56.10300939511573
 20
71.64709922208387
 30
0.0
 11
56.85300939511572
 21
70.89709922208387
 31
0.0
  0
LINE
  5
263
330
6C
100
AcDbEntity
  8
Visible (ISO)
100
AcDbLine
 10
56.85300939511572
 20
72.39709922208385
 30
0.0
 11
56.10300939511573
 21
71.64709922208387
 31
0.0
  0
SPLINE
  5
264
330
6C
100
AcDbEntity
  8
Visible (ISO)
100
AcDbSpline
210
0.0
220
0.0
230
1.0
 70
     8
 71
     3
 72
    10
 73
     6
 74
     0
 42
0.0000000001
 43
0.0000000001
 40
-0.1027685047768364
 40
-0.1027685047768364
 40
-0.1027685047768364
 40
-0.1027685047768364
 40
-0.0319204310843748
 40
-0.0319204310843748
 40
0.0
 40
0.0
 40
0.0
 40
0.0
 10
61.91302747297825
 20
69.77351054898005
 30
0.0
 10
61.94207349521369
 20
69.7317568920166
 30
0.0
 10
61.97059200682978
 20
69.68713283775868
 30
0.0
 10
62.00898963354024
 20
69.62420339398322
 30
0.0
 10
62.04195250055312
 20
69.56989536583441
 30
0.0
 10
62.08357042673455
 20
69.47197083364284
 30
0.0
  0
SPLINE
  5
265
330
6C
100
AcDbEntity
  8
Visible (ISO)
100
AcDbSpline
210
0.0
220
0.0
230
1.0
 70
     8
 71
     3
 72
    10
 73
     6
 74
     0
 42
0.0000000001
 43
0.0000000001
 40
-0.1009932039600319
 40
-0.1009932039600319
 40
-0.1009932039600319
 40
-0.1009932039600319
 40
-0.0319941103187642
 40
-0.0319941103187642
 40
0.0
 40
0.0
 40
0.0
 40
0.0
 10
62.08357042673455
 20
69.47197083364284
 30
0.0
 10
62.11146076110715
 20
69.40142469375917
 30
0.0
 10
62.13457244447278
 20
69.32934531575698
 30
0.0
 10
62.16121717072258
 20
69.22155528683733
 30
0.0
 10
62.17996427016202
 20
69.14113811709866
 30
0.0
 10
62.17996427016202
 20
69.03449108270279
 30
0.0
  0
SPLINE
  5
266
330
6C
100
AcDbEntity
  8
Visible (ISO)
100
AcDbSpline
210
0.0
220
0.0
230
1.0
 70
     8
 71
     3
 72
    10
 73
     6
 74
     0
 42
0.0000000001
 43
0.0000000001
 40
-0.0819785900944896
 40
-0.0819785900944896
 40
-0.0819785900944896
 40
-0.0819785900944896
 40
-0.0262527815935905
 40
-0.0262527815935905
 40
0.0
 40
0.0
 40
0.0
 40
0.0
 10
62.17996427016202
 20
69.03449108270279
 30
0.0
 10
62.17996427016202
 20
68.96719456679362
 30
0.0
 10
62.17364679200594
 20
68.89996784771023
 30
0.0
 10
62.15203412674409
 20
68.80334652065723
 30
0.0
 10
62.13512147661986
 20
68.73619609292081
 30
0.0
 10
62.08604206374551
 20
68.66374553105868
 30
0.0
  0
SPLINE
  5
267
330
6C
100
AcDbEntity
  8
Visible (ISO)
100
AcDbSpline
210
0.0
220
0.0
230
1.0
 70
     8
 71
     3
 72
    12
 73
     8
 74
     0
 42
0.0000000001
 43
0.0000000001
 40
-0.0477902258155063
 40
-0.0477902258155063
 40
-0.0477902258155063
 40
-0.0477902258155063
 40
-0.0302793588587662
 40
-0.0302793588587662
 40
-0.0168656797716451
 40
-0.0168656797716451
 40
0.0
 40
0.0
 40
0.0
 40
0.0
 10
62.08604206374551
 20
68.66374553105868
 30
0.0
 10
62.0661270115373
 20
68.63486870535678
 30
0.0
 10
62.04234330730212
 20
68.60958145576676
 30
0.0
 10
61.99393117320259
 20
68.57093024707322
 30
0.0
 10
61.96146155800247
 20
68.54839749917286
 30
0.0
 10
61.86768877118701
 20
68.51090393768624
 30
0.0
 10
61.81106163684891
 20
68.50308912534622
 30
0.0
 10
61.75484270427675
 20
68.50308912534622
 30
0.0
  0
SPLINE
  5
268
330
6C
100
AcDbEntity
  8
Visible (ISO)
100
AcDbSpline
210
0.0
220
0.0
230
1.0
 70
     8
 71
     3
 72
    16
 73
    12
 74
     0
 42
0.0000000001
 43
0.0000000001
 40
-0.100240747616673
 40
-0.100240747616673
 40
-0.100240747616673
 40
-0.100240747616673
 40
-0.0865411631915256
 40
-0.0865411631915256
 40
-0.0739750558586184
 40
-0.0739750558586184
 40
-0.0542534080095557
 40
-0.0542534080095557
 40
-0.0313872619274998
 40
-0.0313872619274998
 40
0.0
 40
0.0
 40
0.0
 40
0.0
 10
61.75484270427675
 20
68.50308912534622
 30
0.0
 10
61.71653587765188
 20
68.50308912534622
 30
0.0
 10
61.678117014469
 20
68.5061446389258
 30
0.0
 10
61.60596261436804
 20
68.51988933100148
 30
0.0
 10
61.57233242624613
 20
68.52988173593219
 30
0.0
 10
61.48962962134766
 20
68.56612385996941
 30
0.0
 10
61.44537736620647
 20
68.59720328816623
 30
0.0
 10
61.3631834079814
 20
68.68339502033541
 30
0.0
 10
61.32417004028777
 20
68.74490761252457
 30
0.0
 10
61.25750182319649
 20
68.91314160785862
 30
0.0
 10
61.24321384300788
 20
69.01884580867236
 30
0.0
 10
61.24321384300788
 20
69.12347001509736
 30
0.0
  0
LINE
  5
269
330
6C
100
AcDbEntity
  8
Visible (ISO)
100
AcDbLine
 10
61.24321384300788
 20
69.12347001509736
 30
0.0
 11
61.24321384300788
 21
69.25941005070021
 31
0.0
  0
LINE
  5
26A
330
6C
100
AcDbEntity
  8
Visible (ISO)
100
AcDbLine
 10
61.24321384300788
 20
69.25941005070021
 30
0.0
 11
60.90459957250626
 21
69.25941005070021
 31
0.0
  0
LINE
  5
26B
330
6C
100
AcDbEntity
  8
Visible (ISO)
100
AcDbLine
 10
60.90459957250626
 20
69.25941005070021
 30
0.0
 11
60.90459957250626
 21
69.08639545993295
 31
0.0
  0
SPLINE
  5
26C
330
6C
100
AcDbEntity
  8
Visible (ISO)
100
AcDbSpline
210
0.0
220
0.0
230
1.0
 70
     8
 71
     3
 72
    10
 73
     6
 74
     0
 42
0.0000000001
 43
0.0000000001
 40
-0.0383653177358449
 40
-0.0383653177358449
 40
-0.0383653177358449
 40
-0.0383653177358449
 40
-0.0187135811734873
 40
-0.0187135811734873
 40
0.0
 40
0.0
 40
0.0
 40
0.0
 10
60.90459957250626
 20
69.08639545993295
 30
0.0
 10
60.90459957250626
 20
68.95775830186114
 30
0.0
 10
60.88939256683744
 20
68.85774764790756
 30
0.0
 10
60.85695713842536
 20
68.73405369583976
 30
0.0
 10
60.83210437108831
 20
68.67743053378429
 30
0.0
 10
60.79584754402398
 20
68.62667097589426
 30
0.0
  0
SPLINE
  5
26D
330
6C
100
AcDbEntity
  8
Visible (ISO)
100
AcDbSpline
210
0.0
220
0.0
230
1.0
 70
     8
 71
     3
 72
    12
 73
     8
 74
     0
 42
0.0000000001
 43
0.0000000001
 40
-0.0439706013356525
 40
-0.0439706013356525
 40
-0.0439706013356525
 40
-0.0439706013356525
 40
-0.0368887247075253
 40
-0.0368887247075253
 40
-0.0276746346758312
 40
-0.0276746346758312
 40
0.0
 40
0.0
 40
0.0
 40
0.0
 10
60.79584754402398
 20
68.62667097589426
 30
0.0
 10
60.77378078448645
 20
68.5957775125417
 30
0.0
 10
60.74756657357685
 20
68.56886517888202
 30
0.0
 10
60.67832934867066
 20
68.51559146464841
 30
0.0
 10
60.63897469831823
 20
68.49677768607036
 30
0.0
 10
60.53642087950496
 20
68.4549415111576
 30
0.0
 10
60.44567330131478
 20
68.44376983708317
 30
0.0
 10
60.35342451906202
 20
68.44376983708317
 30
0.0
  0
SPLINE
  5
26E
330
6C
100
AcDbEntity
  8
Visible (ISO)
100
AcDbSpline
210
0.0
220
0.0
230
1.0
 70
     8
 71
     3
 72
    10
 73
     6
 74
     0
 42
0.0000000001
 43
0.0000000001
 40
-0.1183388733879724
 40
-0.1183388733879724
 40
-0.1183388733879724
 40
-0.1183388733879724
 40
-0.0353864288744994
 40
-0.0353864288744994
 40
0.0
 40
0.0
 40
0.0
 40
0.0
 10
60.35342451906202
 20
68.44376983708317
 30
0.0
 10
60.25619312649157
 20
68.44376983708317
 30
0.0
 10
60.15984155682424
 20
68.45489955171519
 30
0.0
 10
60.04461791923093
 20
68.5007271348489
 30
0.0
 10
59.96689931399483
 20
68.53332871236282
 30
0.0
 10
59.87887021295755
 20
68.61184115382849
 30
0.0
  0
SPLINE
  5
26F
330
6C
100
AcDbEntity
  8
Visible (ISO)
100
AcDbSpline
210
0.0
220
0.0
230
1.0
 70
     8
 71
     3
 72
    12
 73
     8
 74
     0
 42
0.0000000001
 43
0.0000000001
 40
-0.0506961534347831
 40
-0.0506961534347831
 40
-0.0506961534347831
 40
-0.0506961534347831
 40
-0.038297006615414
 40
-0.038297006615414
 40
-0.0255189788625483
 40
-0.0255189788625483
 40
0.0
 40
0.0
 40
0.0
 40
0.0
 10
59.87887021295755
 20
68.61184115382849
 30
0.0
 10
59.84843667352343
 20
68.63980710898416
 30
0.0
 10
59.82226430124377
 20
68.67130904520228
 30
0.0
 10
59.77785893642394
 20
68.74252519632841
 30
0.0
 10
59.76062337064323
 20
68.78128993209783
 30
0.0
 10
59.72241060792718
 20
68.90309311325523
 30
0.0
 10
59.70832725920125
 20
68.988974012003
 30
0.0
 10
59.70832725920125
 20
69.07403727487815
 30
0.0
  0
SPLINE
  5
270
330
6C
100
AcDbEntity
  8
Visible (ISO)
100
AcDbSpline
210
0.0
220
0.0
230
1.0
 70
     8
 71
     3
 72
    10
 73
     6
 74
     0
 42
0.0000000001
 43
0.0000000001
 40
-0.1477980712041376
 40
-0.1477980712041376
 40
-0.1477980712041376
 40
-0.1477980712041376
 40
-0.0461497289125368
 40
-0.0461497289125368
 40
0.0
 40
0.0
 40
0.0
 40
0.0
 10
59.70832725920125
 20
69.07403727487815
 30
0.0
 10
59.70832725920125
 20
69.22340617362791
 30
0.0
 10
59.73963542681332
 20
69.36778737339922
 30
0.0
 10
59.81989570880969
 20
69.56958465384722
 30
0.0
 10
59.88450037087819
 20
69.72839999526882
 30
0.0
 10
59.97526405638502
 20
69.85260293333078
 30
0.0
  0
LINE
  5
271
330
6C
100
AcDbEntity
  8
Visible (ISO)
100
AcDbLine
 10
59.97526405638502
 20
69.85260293333078
 30
0.0
 11
59.97526405638502
 21
69.88226257746233
 31
0.0
  0
LINE
  5
272
330
6C
100
AcDbEntity
  8
Visible (ISO)
100
AcDbLine
 10
59.97526405638502
 20
69.88226257746233
 30
0.0
 11
59.54272757946688
 21
69.88226257746231
 31
0.0
  0
SPLINE
  5
273
330
6C
100
AcDbEntity
  8
Visible (ISO)
100
AcDbSpline
210
0.0
220
0.0
230
1.0
 70
     8
 71
     3
 72
    10
 73
     6
 74
     0
 42
0.0000000001
 43
0.0000000001
 40
-0.1779412010183712
 40
-0.1779412010183712
 40
-0.1779412010183712
 40
-0.1779412010183712
 40
-0.0653506750529575
 40
-0.0653506750529575
 40
0.0
 40
0.0
 40
0.0
 40
0.0
 10
59.54272757946688
 20
69.88226257746233
 30
0.0
 10
59.48429377245838
 20
69.76539496344533
 30
0.0
 10
59.44178050695821
 20
69.63063461209973
 30
0.0
 10
59.3923360199988
 20
69.43065913150826
 30
0.0
 10
59.35488316663387
 20
69.2671564882784
 30
0.0
 10
59.35488316663387
 20
69.04932090476854
 30
0.0
  0
SPLINE
  5
274
330
6C
100
AcDbEntity
  8
Visible (ISO)
100
AcDbSpline
210
0.0
220
0.0
230
1.0
 70
     8
 71
     3
 72
    12
 73
     8
 74
     0
 42
0.0000000001
 43
0.0000000001
 40
-0.0828280112307893
 40
-0.0828280112307893
 40
-0.0828280112307893
 40
-0.0828280112307893
 40
-0.0573126566868127
 40
-0.0573126566868127
 40
-0.0338937913301096
 40
-0.0338937913301096
 40
0.0
 40
0.0
 40
0.0
 40
0.0
 10
59.35488316663387
 20
69.04932090476854
 30
0.0
 10
59.35488316663387
 20
68.96379885464651
 30
0.0
 10
59.36172365816038
 20
68.8779577830342
 30
0.0
 10
59.39271319882813
 20
68.71687527816703
 30
0.0
 10
59.41515488971024
 20
68.64257839637244
 30
0.0
 10
59.49258059038753
 20
68.46792979079802
 30
0.0
 10
59.55532227808619
 20
68.37636620738376
 30
0.0
 10
59.6366497858834
 20
68.29794325343647
 30
0.0
  0
SPLINE
  5
275
330
6C
100
AcDbEntity
  8
Visible (ISO)
100
AcDbSpline
210
0.0
220
0.0
230
1.0
 70
     8
 71
     3
 72
    10
 73
     6
 74
     0
 42
0.0000000001
 43
0.0000000001
 40
-0.1428248890002189
 40
-0.1428248890002189
 40
-0.1428248890002189
 40
-0.1428248890002189
 40
-0.0546051068489105
 40
-0.0546051068489105
 40
0.0
 40
0.0
 40
0.0
 40
0.0
 10
59.6366497858834
 20
68.29794325343647
 30
0.0
 10
59.72626165172737
 20
68.21165034558672
 30
0.0
 10
59.82903094407149
 20
68.14560233243401
 30
0.0
 10
60.01575875739053
 20
68.07011662066674
 30
0.0
 10
60.14174785210077
 20
68.02853481924175
 30
0.0
 10
60.32376487493049
 20
68.02853481924175
 30
0.0
  0
SPLINE
  5
276
330
6C
100
AcDbEntity
  8
Visible (ISO)
100
AcDbSpline
210
0.0
220
0.0
230
1.0
 70
     8
 71
     3
 72
    12
 73
     8
 74
     0
 42
0.0000000001
 43
0.0000000001
 40
-0.0885658603841451
 40
-0.0885658603841451
 40
-0.0885658603841451
 40
-0.0885658603841451
 40
-0.0462305825010247
 40
-0.0462305825010247
 40
-0.0218514524651877
 40
-0.0218514524651877
 40
0.0
 40
0.0
 40
0.0
 40
0.0
 10
60.32376487493049
 20
68.02853481924175
 30
0.0
 10
60.39603939449268
 20
68.02853481924175
 30
0.0
 10
60.46995516476404
 20
68.03433295265822
 30
0.0
 10
60.58132558187313
 20
68.0584593490035
 30
0.0
 10
60.6416223225025
 20
68.07490030847583
 30
0.0
 10
60.77865404128798
 20
68.14534085613174
 30
0.0
 10
60.83795201592529
 20
68.18751983917976
 30
0.0
 10
60.88729811342954
 20
68.24109560218437
 30
0.0
  0
SPLINE
  5
277
330
6C
100
AcDbEntity
  8
Visible (ISO)
100
AcDbSpline
210
0.0
220
0.0
230
1.0
 70
     8
 71
     3
 72
    10
 73
     6
 74
     0
 42
0.0000000001
 43
0.0000000001
 40
-0.0463602073637723
 40
-0.0463602073637723
 40
-0.0463602073637723
 40
-0.0463602073637723
 40
-0.0216155219807611
 40
-0.0216155219807611
 40
0.0
 40
0.0
 40
0.0
 40
0.0
 10
60.88729811342954
 20
68.24109560218437
 30
0.0
 10
60.94402153361858
 20
68.30097032349502
 30
0.0
 10
60.98983733326249
 20
68.3685418525457
 30
0.0
 10
61.04778444872025
 20
68.51179999909408
 30
0.0
 10
61.07055069912135
 20
68.58080526697676
 30
0.0
 10
61.0850290743064
 20
68.65138734600387
 30
0.0
  0
LINE
  5
278
330
6C
100
AcDbEntity
  8
Visible (ISO)
100
AcDbLine
 10
61.0850290743064
 20
68.65138734600387
 30
0.0
 11
61.11468871843793
 21
68.65138734600387
 31
0.0
  0
SPLINE
  5
279
330
6C
100
AcDbEntity
  8
Visible (ISO)
100
AcDbSpline
210
0.0
220
0.0
230
1.0
 70
     8
 71
     3
 72
    14
 73
    10
 74
     0
 42
0.0000000001
 43
0.0000000001
 40
-0.0724198555543176
 40
-0.0724198555543176
 40
-0.0724198555543176
 40
-0.0724198555543176
 40
-0.0593658234492677
 40
-0.0593658234492677
 40
-0.0460348359568663
 40
-0.0460348359568663
 40
-0.0267887211693375
 40
-0.0267887211693375
 40
0.0
 40
0.0
 40
0.0
 40
0.0
 10
61.11468871843792
 20
68.65138734600387
 30
0.0
 10
61.12982081752135
 20
68.58026648031179
 30
0.0
 10
61.15504287495068
 20
68.5129487233815
 30
0.0
 10
61.22790670939664
 20
68.38531399991933
 30
0.0
 10
61.27438662082796
 20
68.3280252636236
 30
0.0
 10
61.40634403953672
 20
68.20347453581158
 30
0.0
 10
61.47939390699805
 20
68.16247305614109
 30
0.0
 10
61.62103598131864
 20
68.10343572314234
 30
0.0
 10
61.70756479623197
 20
68.08785410750481
 30
0.0
 10
61.79686053346309
 20
68.08785410750481
 30
0.0
  0
SPLINE
  5
27A
330
6C
100
AcDbEntity
  8
Visible (ISO)
100
AcDbSpline
210
0.0
220
0.0
230
1.0
 70
     8
 71
     3
 72
    12
 73
     8
 74
     0
 42
0.0000000001
 43
0.0000000001
 40
-0.0809849561323424
 40
-0.0809849561323424
 40
-0.0809849561323424
 40
-0.0809849561323424
 40
-0.0487839678312112
 40
-0.0487839678312112
 40
-0.0261016532529983
 40
-0.0261016532529983
 40
0.0
 40
0.0
 40
0.0
 40
0.0
 10
61.79686053346309
 20
68.08785410750481
 30
0.0
 10
61.86585618182208
 20
68.08785410750481
 30
0.0
 10
61.93512233236988
 20
68.09485657046943
 30
0.0
 10
62.04905425985471
 20
68.12408134052571
 30
0.0
 10
62.1091560187741
 20
68.14474723346878
 30
0.0
 10
62.24776366028615
 20
68.2297894123821
 30
0.0
 10
62.30945286723098
 20
68.28920061831349
 30
0.0
 10
62.36039377196214
 20
68.35973417871049
 30
0.0
  0
SPLINE
  5
27B
330
6C
100
AcDbEntity
  8
Visible (ISO)
100
AcDbSpline
210
0.0
220
0.0
230
1.0
 70
     8
 71
     3
 72
    10
 73
     6
 74
     0
 42
0.0000000001
 43
0.0000000001
 40
-0.129052022994557
 40
-0.129052022994557
 40
-0.129052022994557
 40
-0.129052022994557
 40
-0.0531217252154028
 40
-0.0531217252154028
 40
0.0
 40
0.0
 40
0.0
 40
0.0
 10
62.36039377196214
 20
68.35973417871049
 30
0.0
 10
62.42080153120991
 20
68.44531183764485
 30
0.0
 10
62.46389745196221
 20
68.53918747364258
 30
0.0
 10
62.51062501526881
 20
68.71097998579916
 30
0.0
 10
62.5334083627294
 20
68.82528738417561
 30
0.0
 10
62.5334083627294
 20
69.00235980156029
 30
0.0
  0
SPLINE
  5
27C
330
6C
100
AcDbEntity
  8
Visible (ISO)
100
AcDbSpline
210
0.0
220
0.0
230
1.0
 70
     8
 71
     3
 72
    10
 73
     6
 74
     0
 42
0.0000000001
 43
0.0000000001
 40
-0.0941114371501296
 40
-0.0941114371501296
 40
-0.0941114371501296
 40
-0.0941114371501296
 40
-0.0392069370433986
 40
-0.0392069370433986
 40
0.0
 40
0.0
 40
0.0
 40
0.0
 10
62.5334083627294
 20
69.00235980156029
 30
0.0
 10
62.5334083627294
 20
69.14848926674517
 30
0.0
 10
62.51129791395744
 20
69.29453616331709
 30
0.0
 10
62.44963679880282
 20
69.53724480807469
 30
0.0
 10
62.4073967709228
 20
69.68308994200596
 30
0.0
 10
62.34556394989638
 20
69.79822691908966
 30
0.0
  0
LINE
  5
27D
330
6C
100
AcDbEntity
  8
Visible (ISO)
100
AcDbLine
 10
62.34556394989638
 20
69.79822691908966
 30
0.0
 11
61.91302747297825
 21
69.79822691908966
 31
0.0
  0
LINE
  5
27E
330
6C
100
AcDbEntity
  8
Visible (ISO)
100
AcDbLine
 10
61.91302747297825
 20
69.79822691908966
 30
0.0
 11
61.91302747297825
 21
69.77351054898005
 31
0.0
  0
LINE
  5
27F
330
6C
100
AcDbEntity
  8
Visible (ISO)
100
AcDbLine
 10
59.41914572891883
 20
76.91654151065664
 30
0.0
 11
59.41914572891883
 21
76.46176030063985
 31
0.0
  0
LINE
  5
280
330
6C
100
AcDbEntity
  8
Visible (ISO)
100
AcDbLine
 10
59.41914572891883
 20
76.46176030063985
 30
0.0
 11
62.46914580044441
 21
76.46176030063985
 31
0.0
  0
LINE
  5
281
330
6C
100
AcDbEntity
  8
Visible (ISO)
100
AcDbLine
 10
62.46914580044441
 20
76.46176030063985
 30
0.0
 11
62.46914580044441
 21
76.83992076331685
 31
0.0
  0
LINE
  5
282
330
6C
100
AcDbEntity
  8
Visible (ISO)
100
AcDbLine
 10
62.46914580044441
 20
76.83992076331685
 30
0.0
 11
60.05435644073575
 21
76.83992076331685
 31
0.0
  0
LINE
  5
283
330
6C
100
AcDbEntity
  8
Visible (ISO)
100
AcDbLine
 10
60.05435644073575
 20
76.83992076331685
 30
0.0
 11
62.46914580044441
 21
78.06832435776435
 31
0.0
  0
LINE
  5
284
330
6C
100
AcDbEntity
  8
Visible (ISO)
100
AcDbLine
 10
62.04896750858108
 20
78.26605531864121
 30
0.0
 11
59.41914572891883
 21
76.91654151065664
 31
0.0
  0
LINE
  5
285
330
6C
100
AcDbEntity
  8
Visible (ISO)
100
AcDbLine
 10
59.41914572891883
 20
78.26605531864121
 30
0.0
 11
62.04896750858108
 21
78.26605531864121
 31
0.0
  0
LINE
  5
286
330
6C
100
AcDbEntity
  8
Visible (ISO)
100
AcDbLine
 10
59.41914572891883
 20
78.64421578131821
 30
0.0
 11
59.41914572891883
 21
78.26605531864121
 31
0.0
  0
LINE
  5
287
330
6C
100
AcDbEntity
  8
Visible (ISO)
100
AcDbLine
 10
62.46914580044441
 20
78.64421578131821
 30
0.0
 11
59.41914572891883
 21
78.64421578131821
 31
0.0
  0
LINE
  5
288
330
6C
100
AcDbEntity
  8
Visible (ISO)
100
AcDbLine
 10
62.46914580044441
 20
78.06832435776435
 30
0.0
 11
62.46914580044441
 21
78.64421578131821
 31
0.0
  0
LINE
  5
289
330
6C
100
AcDbEntity
  8
Visible (ISO)
100
AcDbLine
 10
58.75674700998136
 20
67.84069040640874
 30
0.0
 11
58.75674700998136
 21
67.49466122487422
 31
0.0
  0
LINE
  5
28A
330
6C
100
AcDbEntity
  8
Visible (ISO)
100
AcDbLine
 10
58.75674700998136
 20
67.49466122487422
 30
0.0
 11
62.60508583604726
 21
66.30086054858018
 31
0.0
  0
LINE
  5
28B
330
6C
100
AcDbEntity
  8
Visible (ISO)
100
AcDbLine
 10
62.60508583604726
 20
66.30086054858018
 30
0.0
 11
62.60508583604726
 21
66.6518330041366
 31
0.0
  0
LINE
  5
28C
330
6C
100
AcDbEntity
  8
Visible (ISO)
100
AcDbLine
 10
62.60508583604726
 20
66.6518330041366
 30
0.0
 11
58.75674700998136
 21
67.84069040640874
 31
0.0
  0
SPLINE
  5
28D
330
6C
100
AcDbEntity
  8
Visible (ISO)
100
AcDbSpline
210
0.0
220
0.0
230
1.0
 70
     8
 71
     3
 72
    12
 73
     8
 74
     0
 42
0.0000000001
 43
0.0000000001
 40
-0.1079401807790274
 40
-0.1079401807790274
 40
-0.1079401807790274
 40
-0.1079401807790274
 40
-0.07860203248377
 40
-0.07860203248377
 40
-0.0480730076882148
 40
-0.0480730076882148
 40
0.0
 40
0.0
 40
0.0
 40
0.0
 10
60.87246829136376
 20
74.18291097653403
 30
0.0
 10
60.91405746631207
 20
74.14049001808677
 30
0.0
 10
60.95987203597328
 20
74.10319391195804
 30
0.0
 10
61.06143657455536
 20
74.03701046263612
 30
0.0
 10
61.11653005622084
 20
74.00916752289439
 30
0.0
 10
61.26451656286477
 20
73.95058953068115
 30
0.0
 10
61.3894534734063
 20
73.91597417935028
 30
0.0
 10
61.54969683236701
 20
73.91597417935028
 30
0.0
  0
SPLINE
  5
28E
330
6C
100
AcDbEntity
  8
Visible (ISO)
100
AcDbSpline
210
0.0
220
0.0
230
1.0
 70
     8
 71
     3
 72
    12
 73
     8
 74
     0
 42
0.0000000001
 43
0.0000000001
 40
-0.1090725218740488
 40
-0.1090725218740488
 40
-0.1090725218740488
 40
-0.1090725218740488
 40
-0.0639892976858853
 40
-0.0639892976858853
 40
-0.0335487392353605
 40
-0.0335487392353605
 40
0.0
 40
0.0
 40
0.0
 40
0.0
 10
61.54969683236701
 20
73.91597417935028
 30
0.0
 10
61.64150547225401
 20
73.91597417935028
 30
0.0
 10
61.734210857878
 20
73.92537647359289
 30
0.0
 10
61.88276474719625
 20
73.96539824158759
 30
0.0
 10
61.95933639308126
 20
73.99312390112301
 30
0.0
 10
62.13812232951659
 20
74.10944960937017
 30
0.0
 10
62.21587385331286
 20
74.18688020479464
 30
0.0
 10
62.27882975060044
 20
74.27930481996151
 30
0.0
  0
SPLINE
  5
28F
330
6C
100
AcDbEntity
  8
Visible (ISO)
100
AcDbSpline
210
0.0
220
0.0
230
1.0
 70
     8
 71
     3
 72
    10
 73
     6
 74
     0
 42
0.0000000001
 43
0.0000000001
 40
-0.144268255467227
 40
-0.144268255467227
 40
-0.144268255467227
 40
-0.144268255467227
 40
-0.0653054198963163
 40
-0.0653054198963163
 40
0.0
 40
0.0
 40
0.0
 40
0.0
 10
62.27882975060044
 20
74.27930481996151
 30
0.0
 10
62.34958474865563
 20
74.3811229878946
 30
0.0
 10
62.39643509505257
 20
74.49472326356437
 30
0.0
 10
62.4479964266117
 20
74.71529118190066
 30
0.0
 10
62.46914580044441
 20
74.85995884151411
 30
0.0
 10
62.46914580044441
 20
75.07764357450184
 30
0.0
  0
LINE
  5
290
330
6C
100
AcDbEntity
  8
Visible (ISO)
100
AcDbLine
 10
62.46914580044441
 20
75.07764357450184
 30
0.0
 11
62.46914580044441
 21
75.84385104789967
 31
0.0
  0
LINE
  5
291
330
6C
100
AcDbEntity
  8
Visible (ISO)
100
AcDbLine
 10
60.90212793549529
 20
75.4385025781021
 30
0.0
 11
62.11817334488799
 21
75.4385025781021
 31
0.0
  0
LINE
  5
292
330
6C
100
AcDbEntity
  8
Visible (ISO)
100
AcDbLine
 10
60.90212793549529
 20
75.16167923287449
 30
0.0
 11
60.90212793549529
 21
75.4385025781021
 31
0.0
  0
SPLINE
  5
293
330
6C
100
AcDbEntity
  8
Visible (ISO)
100
AcDbSpline
210
0.0
220
0.0
230
1.0
 70
     8
 71
     3
 72
    12
 73
     8
 74
     0
 42
0.0000000001
 43
0.0000000001
 40
-0.0591688462938552
 40
-0.0591688462938552
 40
-0.0591688462938552
 40
-0.0591688462938552
 40
-0.0518107773844004
 40
-0.0518107773844004
 40
-0.0416741463295713
 40
-0.0416741463295713
 40
0.0
 40
0.0
 40
0.0
 40
0.0
 10
61.0850290743064
 20
74.51163869899182
 30
0.0
 10
61.05029216427013
 20
74.54472147045493
 30
0.0
 10
61.02108575349364
 20
74.58213959048054
 30
0.0
 10
60.96449886307354
 20
74.68116664871573
 30
0.0
 10
60.9490353792334
 20
74.73421504491007
 30
0.0
 10
60.9114102388959
 20
74.87883667808237
 30
0.0
 10
60.90212793549529
 20
75.02276541177592
 30
0.0
 10
60.90212793549529
 20
75.16167923287449
 30
0.0
  0
SPLINE
  5
294
330
6C
100
AcDbEntity
  8
Visible (ISO)
100
AcDbSpline
210
0.0
220
0.0
230
1.0
 70
     8
 71
     3
 72
    10
 73
     6
 74
     0
 42
0.0000000001
 43
0.0000000001
 40
-0.0718253774295907
 40
-0.0718253774295907
 40
-0.0718253774295907
 40
-0.0718253774295907
 40
-0.0418170298197054
 40
-0.0418170298197054
 40
0.0
 40
0.0
 40
0.0
 40
0.0
 10
60.55609875396079
 20
75.09494503357855
 30
0.0
 10
60.55609875396079
 20
74.78635981407504
 30
0.0
 10
60.60998930146279
 20
74.61876140472748
 30
0.0
 10
60.70021617971357
 20
74.39699587349565
 30
0.0
 10
60.77468373013299
 20
74.28224767365737
 30
0.0
 10
60.87246829136376
 20
74.18291097653403
 30
0.0
  0
LINE
  5
295
330
6C
100
AcDbEntity
  8
Visible (ISO)
100
AcDbLine
 10
60.55609875396079
 20
75.4385025781021
 30
0.0
 11
60.55609875396079
 21
75.09494503357855
 31
0.0
  0
LINE
  5
296
330
6C
100
AcDbEntity
  8
Visible (ISO)
100
AcDbLine
 10
59.41914572891883
 20
75.4385025781021
 30
0.0
 11
60.55609875396079
 21
75.4385025781021
 31
0.0
  0
LINE
  5
297
330
6C
100
AcDbEntity
  8
Visible (ISO)
100
AcDbLine
 10
59.41914572891883
 20
75.84385104789966
 30
0.0
 11
59.41914572891883
 21
75.4385025781021
 31
0.0
  0
LINE
  5
298
330
6C
100
AcDbEntity
  8
Visible (ISO)
100
AcDbLine
 10
62.46914580044441
 20
75.84385104789967
 30
0.0
 11
59.41914572891883
 21
75.84385104789966
 31
0.0
  0
SPLINE
  5
299
330
6C
100
AcDbEntity
  8
Visible (ISO)
100
AcDbSpline
210
0.0
220
0.0
230
1.0
 70
     8
 71
     3
 72
    10
 73
     6
 74
     0
 42
0.0000000001
 43
0.0000000001
 40
-0.0416657511363777
 40
-0.0416657511363777
 40
-0.0416657511363777
 40
-0.0416657511363777
 40
-0.0228053214563302
 40
-0.0228053214563302
 40
0.0
 40
0.0
 40
0.0
 40
0.0
 10
61.53733864731221
 20
74.33862410822456
 30
0.0
 10
61.411866186078
 20
74.33862410822456
 30
0.0
 10
61.32851691174117
 20
74.36078071008657
 30
0.0
 10
61.2001376342139
 20
74.41382180280719
 30
0.0
 10
61.13878173246942
 20
74.45788604082878
 30
0.0
 10
61.0850290743064
 20
74.51163869899182
 30
0.0
  0
SPLINE
  5
29A
330
6C
100
AcDbEntity
  8
Visible (ISO)
100
AcDbSpline
210
0.0
220
0.0
230
1.0
 70
     8
 71
     3
 72
    12
 73
     8
 74
     0
 42
0.0000000001
 43
0.0000000001
 40
-0.0540526304824755
 40
-0.0540526304824755
 40
-0.0540526304824755
 40
-0.0540526304824755
 40
-0.0397979927239013
 40
-0.0397979927239013
 40
-0.0257267761595594
 40
-0.0257267761595594
 40
0.0
 40
0.0
 40
0.0
 40
0.0
 10
62.00200640537283
 20
74.55859980220008
 30
0.0
 10
61.97574614463675
 20
74.51920941109595
 30
0.0
 10
61.94470549900472
 20
74.48392493086441
 30
0.0
 10
61.87211134917742
 20
74.42408958871967
 30
0.0
 10
61.83256766543589
 20
74.40089238812167
 30
0.0
 10
61.70970897361193
 20
74.35060992219246
 30
0.0
 10
61.62309456784407
 20
74.33862410822456
 30
0.0
 10
61.53733864731221
 20
74.33862410822456
 30
0.0
  0
SPLINE
  5
29B
330
6C
100
AcDbEntity
  8
Visible (ISO)
100
AcDbSpline
210
0.0
220
0.0
230
1.0
 70
     8
 71
     3
 72
    10
 73
     6
 74
     0
 42
0.0000000001
 43
0.0000000001
 40
-0.0575836224093562
 40
-0.0575836224093562
 40
-0.0575836224093562
 40
-0.0575836224093562
 40
-0.022145086379592
 40
-0.022145086379592
 40
0.0
 40
0.0
 40
0.0
 40
0.0
 10
62.11817334488799
 20
75.10235994461144
 30
0.0
 10
62.11817334488799
 20
75.01503689978659
 30
0.0
 10
62.11411011425008
 20
74.87506591426518
 30
0.0
 10
62.07023279386941
 20
74.68822469347403
 30
0.0
 10
62.04295268457344
 20
74.620019221001
 30
0.0
 10
62.00200640537283
 20
74.55859980220008
 30
0.0
  0
LINE
  5
29C
330
6C
100
AcDbEntity
  8
Visible (ISO)
100
AcDbLine
 10
62.11817334488799
 20
75.4385025781021
 30
0.0
 11
62.11817334488799
 21
75.10235994461144
 31
0.0
  0
SPLINE
  5
29D
330
6C
100
AcDbEntity
  8
Visible (ISO)
100
AcDbSpline
210
0.0
220
0.0
230
1.0
 70
    12
 71
     2
 72
     6
 73
     3
 74
     0
 42
0.0000000001
 43
0.0000000001
 40
0.1245637514480406
 40
0.1245637514480406
 40
0.1245637514480406
 40
1.196655993054283
 40
1.196655993054283
 40
1.196655993054283
 10
82.79150870283872
 20
61.2547943766706
 30
0.0
 41
1.008856462052056
 10
84.39920385742546
 20
66.82401375832363
 30
0.0
 41
1.04254102123872
 10
84.39920385742546
 20
71.64709922208385
 30
0.0
 41
1.0
  0
SPLINE
  5
29E
330
6C
100
AcDbEntity
  8
Visible (ISO)
100
AcDbSpline
210
0.0
220
0.0
230
1.0
 70
    12
 71
     2
 72
     6
 73
     3
 74
     0
 42
0.0000000001
 43
0.0000000001
 40
1.196655993054283
 40
1.196655993054283
 40
1.196655993054283
 40
2.268748234660526
 40
2.268748234660526
 40
2.268748234660526
 10
84.39920385742546
 20
71.64709922208385
 30
0.0
 41
1.0
 10
84.39920385742546
 20
76.47018468584409
 30
0.0
 41
1.042541021238722
 10
82.79150870283872
 20
82.03940406749712
 30
0.0
 41
1.008856462052057
  0
SPLINE
  5
29F
330
6C
100
AcDbEntity
  8
Visible (ISO)
100
AcDbSpline
210
0.0
220
0.0
230
1.0
 70
    12
 71
     2
 72
     6
 73
     3
 74
     0
 42
0.0000000001
 43
0.0000000001
 40
0.12456375144804
 40
0.12456375144804
 40
0.12456375144804
 40
1.196655993054283
 40
1.196655993054283
 40
1.196655993054283
 10
82.79150870283872
 20
82.03940406749712
 30
0.0
 41
1.008856462052057
 10
84.39920385742544
 20
84.82401375832365
 30
0.0
 41
1.042541021238723
 10
84.39920385742546
 20
87.23555649020376
 30
0.0
 41
1.0
  0
LINE
  5
2A0
330
6C
100
AcDbEntity
  8
Visible (ISO)
100
AcDbLine
 10
84.39920385742546
 20
71.64709922208387
 30
0.0
 11
84.39920385742546
 21
87.23555649020374
 31
0.0
  0
SPLINE
  5
2A1
330
6C
100
AcDbEntity
  8
Visible (ISO)
100
AcDbSpline
210
0.0
220
0.0
230
1.0
 70
    12
 71
     2
 72
     6
 73
     3
 74
     0
 42
0.0000000001
 43
0.0000000001
 40
1.196655993054283
 40
1.196655993054283
 40
1.196655993054283
 40
2.268748234660526
 40
2.268748234660526
 40
2.268748234660526
 10
84.39920385742546
 20
87.23555649020376
 30
0.0
 41
1.0
 10
84.39920385742547
 20
89.64709922208387
 30
0.0
 41
1.042541021238722
 10
82.79150870283872
 20
92.43170891291038
 30
0.0
 41
1.008856462052057
  0
LINE
  5
2A2
330
6C
100
AcDbEntity
  8
Visible (ISO)
100
AcDbLine
 10
84.39920385742546
 20
87.23555649020374
 30
0.0
 11
84.39920385742546
 21
89.64709922208385
 31
0.0
  0
LINE
  5
2A3
330
6C
100
AcDbEntity
  8
Visible (ISO)
100
AcDbLine
 10
84.39920385742546
 20
53.64709922208387
 30
0.0
 11
84.39920385742546
 21
56.05864195396396
 31
0.0
  0
SPLINE
  5
2A4
330
6C
100
AcDbEntity
  8
Visible (ISO)
100
AcDbSpline
210
0.0
220
0.0
230
1.0
 70
    12
 71
     2
 72
     6
 73
     3
 74
     0
 42
0.0000000001
 43
0.0000000001
 40
0.1245637514480397
 40
0.1245637514480397
 40
0.1245637514480397
 40
1.196655993054283
 40
1.196655993054283
 40
1.196655993054283
 10
82.79150870283872
 20
50.86248953125734
 30
0.0
 41
1.008856462052058
 10
84.39920385742546
 20
53.64709922208385
 30
0.0
 41
1.042541021238728
 10
84.39920385742546
 20
56.05864195396396
 30
0.0
 41
1.0
  0
SPLINE
  5
2A5
330
6C
100
AcDbEntity
  8
Visible (ISO)
100
AcDbSpline
210
0.0
220
0.0
230
1.0
 70
    12
 71
     2
 72
     6
 73
     3
 74
     0
 42
0.0000000001
 43
0.0000000001
 40
1.196655993054283
 40
1.196655993054283
 40
1.196655993054283
 40
2.268748234660526
 40
2.268748234660526
 40
2.268748234660526
 10
84.39920385742546
 20
56.05864195396396
 30
0.0
 41
1.0
 10
84.39920385742546
 20
58.47018468584407
 30
0.0
 41
1.042541021238719
 10
82.79150870283872
 20
61.2547943766706
 30
0.0
 41
1.008856462052056
  0
LINE
  5
2A6
330
6C
100
AcDbEntity
  8
Visible (ISO)
100
AcDbLine
 10
84.39920385742546
 20
56.05864195396396
 30
0.0
 11
84.39920385742546
 21
71.64709922208387
 31
0.0
  0
LINE
  5
2A7
330
6C
100
AcDbEntity
  8
Visible (ISO)
100
AcDbLine
 10
84.39920385742546
 20
89.64709922208387
 30
0.0
 11
82.79150870283872
 21
92.43170891291038
 31
0.0
  0
LINE
  5
2A8
330
6C
100
AcDbEntity
  8
Visible (ISO)
100
AcDbLine
 10
84.39920385742546
 20
53.64709922208385
 30
0.0
 11
82.79150870283872
 21
50.86248953125734
 31
0.0
  0
LINE
  5
2A9
330
6C
100
AcDbEntity
  8
Visible (ISO)
100
AcDbLine
 10
57.00689901201219
 20
82.03940406749712
 30
0.0
 11
82.79150870283872
 21
82.03940406749712
 31
0.0
  0
LINE
  5
2AA
330
6C
100
AcDbEntity
  8
Visible (ISO)
100
AcDbLine
 10
57.00689901201219
 20
61.2547943766706
 30
0.0
 11
82.79150870283872
 21
61.2547943766706
 31
0.0
  0
LINE
  5
2AB
330
6C
100
AcDbEntity
  8
Visible (ISO)
100
AcDbLine
 10
57.00689901201219
 20
50.86248953125734
 30
0.0
 11
82.79150870283872
 21
50.86248953125734
 31
0.0
  0
LINE
  5
2AC
330
6C
100
AcDbEntity
  8
Visible (ISO)
100
AcDbLine
 10
57.00689901201219
 20
92.43170891291038
 30
0.0
 11
82.79150870283872
 21
92.43170891291038
 31
0.0
  0
SPLINE
  5
2AD
330
6C
100
AcDbEntity
  8
Visible (ISO)
100
AcDbSpline
210
0.0
220
0.0
230
1.0
 70
    12
 71
     2
 72
     6
 73
     3
 74
     0
 42
0.0000000001
 43
0.0000000001
 40
0.1245637514480407
 40
0.1245637514480407
 40
0.1245637514480407
 40
1.196655993054283
 40
1.196655993054283
 40
1.196655993054283
 10
57.00689901201219
 20
82.03940406749712
 30
0.0
 41
1.008856462052056
 10
55.39920385742547
 20
76.47018468584409
 30
0.0
 41
1.042541021238718
 10
55.39920385742546
 20
71.64709922208385
 30
0.0
 41
1.0
  0
SPLINE
  5
2AE
330
6C
100
AcDbEntity
  8
Visible (ISO)
100
AcDbSpline
210
0.0
220
0.0
230
1.0
 70
    12
 71
     2
 72
     6
 73
     3
 74
     0
 42
0.0000000001
 43
0.0000000001
 40
1.196655993054283
 40
1.196655993054283
 40
1.196655993054283
 40
2.268748234660526
 40
2.268748234660526
 40
2.268748234660526
 10
55.39920385742546
 20
71.64709922208385
 30
0.0
 41
1.0
 10
55.39920385742546
 20
66.82401375832362
 30
0.0
 41
1.042541021238726
 10
57.00689901201219
 20
61.2547943766706
 30
0.0
 41
1.008856462052058
  0
SPLINE
  5
2AF
330
6C
100
AcDbEntity
  8
Visible (ISO)
100
AcDbSpline
210
0.0
220
0.0
230
1.0
 70
    12
 71
     2
 72
     6
 73
     3
 74
     0
 42
0.0000000001
 43
0.0000000001
 40
0.1245637514480404
 40
0.1245637514480404
 40
0.1245637514480404
 40
1.196655993054284
 40
1.196655993054284
 40
1.196655993054284
 10
57.00689901201219
 20
61.2547943766706
 30
0.0
 41
1.008856462052058
 10
55.39920385742546
 20
58.47018468584408
 30
0.0
 41
1.042541021238728
 10
55.39920385742546
 20
56.05864195396396
 30
0.0
 41
1.0
  0
SPLINE
  5
2B0
330
6C
100
AcDbEntity
  8
Visible (ISO)
100
AcDbSpline
210
0.0
220
0.0
230
1.0
 70
    12
 71
     2
 72
     6
 73
     3
 74
     0
 42
0.0000000001
 43
0.0000000001
 40
1.196655993054284
 40
1.196655993054284
 40
1.196655993054284
 40
2.268748234660528
 40
2.268748234660528
 40
2.268748234660528
 10
55.39920385742546
 20
56.05864195396396
 30
0.0
 41
1.0
 10
55.39920385742546
 20
53.64709922208385
 30
0.0
 41
1.042541021238729
 10
57.00689901201219
 20
50.86248953125734
 30
0.0
 41
1.008856462052058
  0
SPLINE
  5
2B1
330
6C
100
AcDbEntity
  8
Visible (ISO)
100
AcDbSpline
210
0.0
220
0.0
230
1.0
 70
    12
 71
     2
 72
     6
 73
     3
 74
     0
 42
0.0000000001
 43
0.0000000001
 40
1.196655993054284
 40
1.196655993054284
 40
1.196655993054284
 40
2.268748234660528
 40
2.268748234660528
 40
2.268748234660528
 10
55.39920385742546
 20
87.23555649020376
 30
0.0
 41
1.0
 10
55.39920385742546
 20
84.82401375832365
 30
0.0
 41
1.042541021238731
 10
57.00689901201219
 20
82.03940406749712
 30
0.0
 41
1.008856462052059
  0
LINE
  5
2B2
330
6C
100
AcDbEntity
  8
Visible (ISO)
100
AcDbLine
 10
55.39920385742546
 20
87.23555649020374
 30
0.0
 11
55.39920385742546
 21
71.64709922208387
 31
0.0
  0
LINE
  5
2B3
330
6C
100
AcDbEntity
  8
Visible (ISO)
100
AcDbLine
 10
55.39920385742546
 20
71.64709922208387
 30
0.0
 11
55.39920385742546
 21
56.05864195396396
 31
0.0
  0
LINE
  5
2B4
330
6C
100
AcDbEntity
  8
Visible (ISO)
100
AcDbLine
 10
55.39920385742546
 20
56.05864195396396
 30
0.0
 11
55.39920385742546
 21
53.64709922208387
 31
0.0
  0
LINE
  5
2B5
330
6C
100
AcDbEntity
  8
Visible (ISO)
100
AcDbLine
 10
55.39920385742546
 20
89.64709922208385
 30
0.0
 11
55.39920385742546
 21
87.23555649020374
 31
0.0
  0
SPLINE
  5
2B6
330
6C
100
AcDbEntity
  8
Visible (ISO)
100
AcDbSpline
210
0.0
220
0.0
230
1.0
 70
    12
 71
     2
 72
     6
 73
     3
 74
     0
 42
0.0000000001
 43
0.0000000001
 40
0.1245637514480414
 40
0.1245637514480414
 40
0.1245637514480414
 40
1.196655993054284
 40
1.196655993054284
 40
1.196655993054284
 10
57.00689901201219
 20
92.43170891291038
 30
0.0
 41
1.008856462052057
 10
55.39920385742547
 20
89.64709922208387
 30
0.0
 41
1.04254102123872
 10
55.39920385742546
 20
87.23555649020376
 30
0.0
 41
1.0
  0
LINE
  5
2B7
330
6C
100
AcDbEntity
  8
Visible (ISO)
100
AcDbLine
 10
55.39920385742546
 20
53.64709922208385
 30
0.0
 11
57.00689901201219
 21
50.86248953125734
 31
0.0
  0
LINE
  5
2B8
330
6C
100
AcDbEntity
  8
Visible (ISO)
100
AcDbLine
 10
55.39920385742546
 20
89.64709922208387
 30
0.0
 11
57.00689901201219
 21
92.43170891291038
 31
0.0
  0
LINE
  5
2B9
330
6C
100
AcDbEntity
  8
Visible (ISO)
100
AcDbLine
 10
105.3992038574254
 20
60.14709922208385
 30
0.0
 11
105.3992038574254
 21
83.14709922208386
 31
0.0
  0
LINE
  5
2BA
330
6C
100
AcDbEntity
  8
Visible (ISO)
100
AcDbLine
 10
102.7940275184517
 20
84.65119848267679
 30
0.0
 11
102.7940275184517
 21
58.64299996149093
 31
0.0
  0
LINE
  5
2BB
330
6C
100
AcDbEntity
  8
Visible (ISO)
100
AcDbLine
 10
105.3992038574254
 20
60.14709922208385
 30
0.0
 11
102.7940275184517
 21
58.64299996149093
 31
0.0
  0
LINE
  5
2BC
330
6C
100
AcDbEntity
  8
Visible (ISO)
100
AcDbLine
 10
105.3992038574254
 20
83.14709922208386
 30
0.0
 11
102.7940275184517
 21
84.65119848267677
 31
0.0
  0
LINE
  5
2BD
330
6C
100
AcDbEntity
  8
Visible (ISO)
100
AcDbLine
 10
102.7940275184517
 20
58.64299996149093
 30
0.0
 11
84.39920385742546
 21
58.06816172208386
 31
0.0
  0
LINE
  5
2BE
330
6C
100
AcDbEntity
  8
Visible (ISO)
100
AcDbLine
 10
102.7940275184517
 20
84.65119848267679
 30
0.0
 11
84.39920385742546
 21
85.22603672208388
 31
0.0
  0
LINE
  5
2BF
330
6C
100
AcDbEntity
  8
Visible Narrow (ISO)
100
AcDbLine
 10
84.39920385742546
 20
59.23072896644277
 30
0.0
 11
104.9228806063362
 21
59.87209386484623
 31
0.0
  0
LINE
  5
2C0
330
6C
100
AcDbEntity
  8
Visible Narrow (ISO)
100
AcDbLine
 10
104.9228806063362
 20
83.42210457932152
 30
0.0
 11
84.39920385742546
 21
84.06346947772496
 31
0.0
  0
LINE
  5
2C1
330
6C
100
AcDbEntity
  8
Visible (ISO)
100
AcDbLine
 10
167.2629503821615
 20
64.00223812838667
 30
0.0
 11
167.2629503821615
 21
64.36556876899792
 31
0.0
  0
LINE
  5
2C2
330
6C
100
AcDbEntity
  8
Visible (ISO)
100
AcDbLine
 10
167.262950382162
 20
64.36556876899792
 30
0.0
 11
167.262950382162
 21
64.74125759466395
 31
0.0
  0
LINE
  5
2C3
330
6C
100
AcDbEntity
  8
Visible (ISO)
100
AcDbLine
 10
167.262950382162
 20
64.74125759466395
 30
0.0
 11
167.2629503821616
 21
66.10560122471428
 31
0.0
  0
LINE
  5
2C4
330
6C
100
AcDbEntity
  8
Visible (ISO)
100
AcDbLine
 10
167.2729503821615
 20
66.10560122471428
 30
0.0
 11
167.2629503821616
 21
66.10560122471428
 31
0.0
  0
LINE
  5
2C5
330
6C
100
AcDbEntity
  8
Visible (ISO)
100
AcDbLine
 10
167.272950382162
 20
64.74125759466395
 30
0.0
 11
167.262950382162
 21
64.74125759466395
 31
0.0
  0
LINE
  5
2C6
330
6C
100
AcDbEntity
  8
Visible (ISO)
100
AcDbLine
 10
167.272950382162
 20
64.36556876899792
 30
0.0
 11
167.262950382162
 21
64.36556876899792
 31
0.0
  0
LINE
  5
2C7
330
6C
100
AcDbEntity
  8
Visible (ISO)
100
AcDbLine
 10
167.2729503821615
 20
64.00223812838667
 30
0.0
 11
167.2629503821615
 21
64.00223812838667
 31
0.0
  0
LINE
  5
2C8
330
6C
100
AcDbEntity
  8
Visible (ISO)
100
AcDbLine
 10
167.262950382162
 20
71.38996115414838
 30
0.0
 11
167.262950382162
 21
73.84182506902146
 31
0.0
  0
LINE
  5
2C9
330
6C
100
AcDbEntity
  8
Visible (ISO)
100
AcDbLine
 10
167.272950382162
 20
71.38996115414838
 30
0.0
 11
167.262950382162
 21
71.38996115414838
 31
0.0
  0
LINE
  5
2CA
330
6C
100
AcDbEntity
  8
Visible (ISO)
100
AcDbLine
 10
167.272950382162
 20
73.84182506902146
 30
0.0
 11
167.262950382162
 21
73.84182506902146
 31
0.0
  0
LINE
  5
2CB
330
6C
100
AcDbEntity
  8
Visible (ISO)
100
AcDbLine
 10
167.262950382161
 20
71.27209922208386
 30
0.0
 11
167.262950382161
 21
71.38996115414838
 31
0.0
  0
LINE
  5
2CC
330
6C
100
AcDbEntity
  8
Visible (ISO)
100
AcDbLine
 10
167.272950382161
 20
71.27209922208386
 30
0.0
 11
167.262950382161
 21
71.27209922208386
 31
0.0
  0
LINE
  5
2CD
330
6C
100
AcDbEntity
  8
Visible (ISO)
100
AcDbLine
 10
167.2629503821603
 20
70.89709922208387
 30
0.0
 11
167.2629503821603
 21
71.27209922208386
 31
0.0
  0
LINE
  5
2CE
330
6C
100
AcDbEntity
  8
Visible (ISO)
100
AcDbLine
 10
167.2729503821603
 20
70.89709922208387
 30
0.0
 11
167.2629503821603
 21
70.89709922208387
 31
0.0
  0
SPLINE
  5
2CF
330
6C
100
AcDbEntity
  8
Visible (ISO)
100
AcDbSpline
210
0.0
220
0.0
230
1.0
 70
    24
 71
     3
 72
     8
 73
     4
 74
     0
 42
0.0000000001
 43
0.0000000001
 40
-0.0065241603406681
 40
-0.0065241603406681
 40
-0.0065241603406681
 40
-0.0065241603406681
 40
0.0
 40
0.0
 40
0.0
 40
0.0
 10
167.2629503821613
 20
69.79822069111839
 30
0.0
 10
167.2629503821613
 20
69.81679419937202
 30
0.0
 10
167.2629503821613
 20
69.83504443619998
 30
0.0
 10
167.2629503821613
 20
69.85260293333078
 30
0.0
  0
LINE
  5
2D0
330
6C
100
AcDbEntity
  8
Visible (ISO)
100
AcDbLine
 10
167.2629503821613
 20
69.85260293333078
 30
0.0
 11
167.2629503821613
 21
69.88226257746233
 31
0.0
  0
SPLINE
  5
2D1
330
6C
100
AcDbEntity
  8
Visible (ISO)
100
AcDbSpline
210
0.0
220
0.0
230
1.0
 70
    24
 71
     3
 72
    10
 73
     6
 74
     0
 42
0.0000000001
 43
0.0000000001
 40
-0.0885658603841451
 40
-0.0885658603841451
 40
-0.0885658603841451
 40
-0.0885658603841451
 40
-0.0462305825010247
 40
-0.0462305825010247
 40
-0.0279122155352231
 40
-0.0279122155352231
 40
-0.0279122155352231
 40
-0.0279122155352231
 10
167.2629503821614
 20
68.02853481924175
 30
0.0
 10
167.2629503821614
 20
68.02853481924175
 30
0.0
 10
167.2629503821614
 20
68.03433295265822
 30
0.0
 10
167.2629503821615
 20
68.05626755301005
 30
0.0
 10
167.2629503821615
 20
68.06719694360925
 30
0.0
 10
167.2629503821615
 20
68.08798029309295
 30
0.0
  0
SPLINE
  5
2D2
330
6C
100
AcDbEntity
  8
Visible (ISO)
100
AcDbSpline
210
0.0
220
0.0
230
1.0
 70
    24
 71
     3
 72
    12
 73
     8
 74
     0
 42
0.0000000001
 43
0.0000000001
 40
-0.0809849561323424
 40
-0.0809849561323424
 40
-0.0809849561323424
 40
-0.0809849561323424
 40
-0.0487839678312112
 40
-0.0487839678312112
 40
-0.0261016532529983
 40
-0.0261016532529983
 40
0.0
 40
0.0
 40
0.0
 40
0.0
 10
167.2629503821618
 20
68.08785410750481
 30
0.0
 10
167.2629503821618
 20
68.08785410750481
 30
0.0
 10
167.2629503821618
 20
68.09485657046943
 30
0.0
 10
167.2629503821619
 20
68.12408134052571
 30
0.0
 10
167.2629503821619
 20
68.14474723346878
 30
0.0
 10
167.2629503821619
 20
68.2297894123821
 30
0.0
 10
167.262950382162
 20
68.28920061831349
 30
0.0
 10
167.262950382162
 20
68.35973417871049
 30
0.0
  0
SPLINE
  5
2D3
330
6C
100
AcDbEntity
  8
Visible (ISO)
100
AcDbSpline
210
0.0
220
0.0
230
1.0
 70
    24
 71
     3
 72
    10
 73
     6
 74
     0
 42
0.0000000001
 43
0.0000000001
 40
-0.129052022994557
 40
-0.129052022994557
 40
-0.129052022994557
 40
-0.129052022994557
 40
-0.0531217252154028
 40
-0.0531217252154028
 40
0.0
 40
0.0
 40
0.0
 40
0.0
 10
167.262950382162
 20
68.35973417871049
 30
0.0
 10
167.262950382162
 20
68.44531183764485
 30
0.0
 10
167.262950382162
 20
68.53918747364258
 30
0.0
 10
167.262950382162
 20
68.71097998579916
 30
0.0
 10
167.262950382162
 20
68.82528738417561
 30
0.0
 10
167.262950382162
 20
69.00235980156029
 30
0.0
  0
SPLINE
  5
2D4
330
6C
100
AcDbEntity
  8
Visible (ISO)
100
AcDbSpline
210
0.0
220
0.0
230
1.0
 70
    24
 71
     3
 72
    10
 73
     6
 74
     0
 42
0.0000000001
 43
0.0000000001
 40
-0.0941114371501296
 40
-0.0941114371501296
 40
-0.0941114371501296
 40
-0.0941114371501296
 40
-0.0392069370433986
 40
-0.0392069370433986
 40
0.0
 40
0.0
 40
0.0
 40
0.0
 10
167.262950382162
 20
69.00235980156029
 30
0.0
 10
167.262950382162
 20
69.14848926674517
 30
0.0
 10
167.262950382162
 20
69.29453616331709
 30
0.0
 10
167.262950382162
 20
69.53724480807469
 30
0.0
 10
167.262950382162
 20
69.68308994200596
 30
0.0
 10
167.262950382162
 20
69.79822691908966
 30
0.0
  0
LINE
  5
2D5
330
6C
100
AcDbEntity
  8
Visible (ISO)
100
AcDbLine
 10
167.2729503821613
 20
69.88226257746233
 30
0.0
 11
167.2629503821613
 21
69.88226257746233
 31
0.0
  0
LINE
  5
2D6
330
6C
100
AcDbEntity
  8
Visible (ISO)
100
AcDbLine
 10
167.2729503821614
 20
68.02853481924175
 30
0.0
 11
167.2629503821614
 21
68.02853481924175
 31
0.0
  0
LINE
  5
2D7
330
6C
100
AcDbEntity
  8
Visible (ISO)
100
AcDbLine
 10
167.2729503821618
 20
68.08785410750481
 30
0.0
 11
167.2629503821618
 21
68.08785410750481
 31
0.0
  0
LINE
  5
2D8
330
6C
100
AcDbEntity
  8
Visible (ISO)
100
AcDbLine
 10
167.272950382162
 20
69.79822691908966
 30
0.0
 11
167.262950382162
 21
69.79822691908966
 31
0.0
  0
LINE
  5
2D9
330
6C
100
AcDbEntity
  8
Visible (ISO)
100
AcDbLine
 10
167.2729503821613
 20
69.85260293333078
 30
0.0
 11
167.2629503821613
 21
69.85260293333078
 31
0.0
  0
LINE
  5
2DA
330
6C
100
AcDbEntity
  8
Visible (ISO)
100
AcDbLine
 10
167.272950382162
 20
76.46176030063985
 30
0.0
 11
167.262950382162
 21
76.46176030063985
 31
0.0
  0
LINE
  5
2DB
330
6C
100
AcDbEntity
  8
Visible (ISO)
100
AcDbLine
 10
167.272950382162
 20
76.83992076331685
 30
0.0
 11
167.262950382162
 21
76.83992076331685
 31
0.0
  0
LINE
  5
2DC
330
6C
100
AcDbEntity
  8
Visible (ISO)
100
AcDbLine
 10
167.262950382162
 20
76.46176030063985
 30
0.0
 11
167.262950382162
 21
76.83992076331685
 31
0.0
  0
LINE
  5
2DD
330
6C
100
AcDbEntity
  8
Visible (ISO)
100
AcDbLine
 10
167.272950382162
 20
78.06832435776435
 30
0.0
 11
167.262950382162
 21
78.06832435776435
 31
0.0
  0
LINE
  5
2DE
330
6C
100
AcDbEntity
  8
Visible (ISO)
100
AcDbLine
 10
167.2629503821613
 20
76.83992076331685
 30
0.0
 11
167.262950382162
 21
78.06832435776435
 31
0.0
  0
LINE
  5
2DF
330
6C
100
AcDbEntity
  8
Visible (ISO)
100
AcDbLine
 10
167.272950382162
 20
78.64421578131821
 30
0.0
 11
167.262950382162
 21
78.64421578131821
 31
0.0
  0
LINE
  5
2E0
330
6C
100
AcDbEntity
  8
Visible (ISO)
100
AcDbLine
 10
167.262950382162
 20
78.06832435776435
 30
0.0
 11
167.262950382162
 21
78.64421578131821
 31
0.0
  0
LINE
  5
2E1
330
6C
100
AcDbEntity
  8
Visible (ISO)
100
AcDbLine
 10
167.2629503821621
 20
66.30086054858018
 30
0.0
 11
167.2629503821621
 21
66.6518330041366
 31
0.0
  0
LINE
  5
2E2
330
6C
100
AcDbEntity
  8
Visible (ISO)
100
AcDbLine
 10
167.2629503821621
 20
66.6518330041366
 30
0.0
 11
167.2629503821609
 21
67.84069040640874
 31
0.0
  0
LINE
  5
2E3
330
6C
100
AcDbEntity
  8
Visible (ISO)
100
AcDbLine
 10
167.2729503821609
 20
67.84069040640874
 30
0.0
 11
167.2629503821609
 21
67.84069040640874
 31
0.0
  0
LINE
  5
2E4
330
6C
100
AcDbEntity
  8
Visible (ISO)
100
AcDbLine
 10
167.2729503821621
 20
66.6518330041366
 30
0.0
 11
167.2629503821621
 21
66.6518330041366
 31
0.0
  0
LINE
  5
2E5
330
6C
100
AcDbEntity
  8
Visible (ISO)
100
AcDbLine
 10
167.2729503821621
 20
66.30086054858018
 30
0.0
 11
167.2629503821621
 21
66.30086054858018
 31
0.0
  0
LINE
  5
2E6
330
6C
100
AcDbEntity
  8
Visible (ISO)
100
AcDbLine
 10
167.2729503821617
 20
73.91597417935028
 30
0.0
 11
167.2629503821617
 21
73.91597417935028
 31
0.0
  0
SPLINE
  5
2E7
330
6C
100
AcDbEntity
  8
Visible (ISO)
100
AcDbSpline
210
0.0
220
0.0
230
1.0
 70
    24
 71
     3
 72
    12
 73
     8
 74
     0
 42
0.0000000001
 43
0.0000000001
 40
-0.1090725218740488
 40
-0.1090725218740488
 40
-0.1090725218740488
 40
-0.1090725218740488
 40
-0.0639892976858853
 40
-0.0639892976858853
 40
-0.0335487392353605
 40
-0.0335487392353605
 40
0.0
 40
0.0
 40
0.0
 40
0.0
 10
167.2629503821617
 20
73.91597417935028
 30
0.0
 10
167.2629503821618
 20
73.91597417935028
 30
0.0
 10
167.2629503821618
 20
73.92537647359289
 30
0.0
 10
167.2629503821618
 20
73.96539824158759
 30
0.0
 10
167.2629503821619
 20
73.99312390112301
 30
0.0
 10
167.2629503821619
 20
74.10944960937017
 30
0.0
 10
167.2629503821619
 20
74.18688020479464
 30
0.0
 10
167.2629503821619
 20
74.27930481996151
 30
0.0
  0
SPLINE
  5
2E8
330
6C
100
AcDbEntity
  8
Visible (ISO)
100
AcDbSpline
210
0.0
220
0.0
230
1.0
 70
    24
 71
     3
 72
    10
 73
     6
 74
     0
 42
0.0000000001
 43
0.0000000001
 40
-0.144268255467227
 40
-0.144268255467227
 40
-0.144268255467227
 40
-0.144268255467227
 40
-0.0653054198963163
 40
-0.0653054198963163
 40
0.0
 40
0.0
 40
0.0
 40
0.0
 10
167.2629503821619
 20
74.27930481996151
 30
0.0
 10
167.262950382162
 20
74.3811229878946
 30
0.0
 10
167.262950382162
 20
74.49472326356437
 30
0.0
 10
167.262950382162
 20
74.71529118190066
 30
0.0
 10
167.262950382162
 20
74.85995884151411
 30
0.0
 10
167.262950382162
 20
75.07764357450184
 30
0.0
  0
LINE
  5
2E9
330
6C
100
AcDbEntity
  8
Visible (ISO)
100
AcDbLine
 10
167.272950382162
 20
75.84385104789967
 30
0.0
 11
167.262950382162
 21
75.84385104789967
 31
0.0
  0
LINE
  5
2EA
330
6C
100
AcDbEntity
  8
Visible (ISO)
100
AcDbLine
 10
167.262950382162
 20
75.07764357450184
 30
0.0
 11
167.262950382162
 21
75.84385104789967
 31
0.0
  0
SPLINE
  5
2EB
330
6C
100
AcDbEntity
  8
Visible (ISO)
100
AcDbSpline
210
0.0
220
0.0
230
1.0
 70
    28
 71
     2
 72
     6
 73
     3
 74
     0
 42
0.0000000001
 43
0.0000000001
 40
0.1245637514480406
 40
0.1245637514480406
 40
0.1245637514480406
 40
1.196655993054283
 40
1.196655993054283
 40
1.196655993054283
 10
167.272950382168
 20
61.2547943766706
 30
0.0
 41
1.008856462052056
 10
167.2729503821685
 20
66.82401375832363
 30
0.0
 41
1.04254102123872
 10
167.2729503821685
 20
71.64709922208385
 30
0.0
 41
1.0
  0
SPLINE
  5
2EC
330
6C
100
AcDbEntity
  8
Visible (ISO)
100
AcDbSpline
210
0.0
220
0.0
230
1.0
 70
    28
 71
     2
 72
     6
 73
     3
 74
     0
 42
0.0000000001
 43
0.0000000001
 40
1.196655993054283
 40
1.196655993054283
 40
1.196655993054283
 40
2.268748234660526
 40
2.268748234660526
 40
2.268748234660526
 10
167.2729503821685
 20
71.64709922208385
 30
0.0
 41
1.0
 10
167.2729503821685
 20
76.47018468584409
 30
0.0
 41
1.042541021238722
 10
167.272950382168
 20
82.03940406749712
 30
0.0
 41
1.008856462052057
  0
SPLINE
  5
2ED
330
6C
100
AcDbEntity
  8
Visible (ISO)
100
AcDbSpline
210
0.0
220
0.0
230
1.0
 70
    28
 71
     2
 72
     6
 73
     3
 74
     0
 42
0.0000000001
 43
0.0000000001
 40
0.12456375144804
 40
0.12456375144804
 40
0.12456375144804
 40
1.196655993054283
 40
1.196655993054283
 40
1.196655993054283
 10
167.272950382168
 20
82.03940406749712
 30
0.0
 41
1.008856462052057
 10
172.0960358459287
 20
84.82401375832365
 30
0.0
 41
1.042541021238723
 10
176.2729503821685
 20
87.23555649020376
 30
0.0
 41
1.0
  0
ARC
  5
2EE
330
6C
100
AcDbEntity
  8
Visible (ISO)
100
AcDbCircle
 10
185.2729503821685
 20
71.64709922208387
 30
0.0
 40
17.99999999999999
100
AcDbArc
 50
119.9999999999999
 51
180.0
  0
SPLINE
  5
2EF
330
6C
100
AcDbEntity
  8
Visible (ISO)
100
AcDbSpline
210
0.0
220
0.0
230
1.0
 70
    28
 71
     2
 72
     6
 73
     3
 74
     0
 42
0.0000000001
 43
0.0000000001
 40
0.1245637514480408
 40
0.1245637514480408
 40
0.1245637514480408
 40
1.196655993054284
 40
1.196655993054284
 40
1.196655993054284
 10
185.272950382168
 20
92.43170891291038
 30
0.0
 41
1.008856462052055
 10
190.0960358459287
 20
89.64709922208387
 30
0.0
 41
1.042541021238715
 10
194.2729503821685
 20
87.23555649020376
 30
0.0
 41
1.0
  0
SPLINE
  5
2F0
330
6C
100
AcDbEntity
  8
Visible (ISO)
100
AcDbSpline
210
0.0
220
0.0
230
1.0
 70
    28
 71
     2
 72
     6
 73
     3
 74
     0
 42
0.0000000001
 43
0.0000000001
 40
1.196655993054283
 40
1.196655993054283
 40
1.196655993054283
 40
2.268748234660526
 40
2.268748234660526
 40
2.268748234660526
 10
176.2729503821685
 20
87.23555649020376
 30
0.0
 41
1.0
 10
180.4498649184083
 20
89.64709922208387
 30
0.0
 41
1.042541021238722
 10
185.272950382168
 20
92.43170891291038
 30
0.0
 41
1.008856462052057
  0
ARC
  5
2F1
330
6C
100
AcDbEntity
  8
Visible (ISO)
100
AcDbCircle
 10
185.2729503821685
 20
71.64709922208387
 30
0.0
 40
18.0
100
AcDbArc
 50
60.00000000000005
 51
120.0000000000001
  0
SPLINE
  5
2F2
330
6C
100
AcDbEntity
  8
Visible (ISO)
100
AcDbSpline
210
0.0
220
0.0
230
1.0
 70
    28
 71
     2
 72
     6
 73
     3
 74
     0
 42
0.0000000001
 43
0.0000000001
 40
0.1245637514480408
 40
0.1245637514480408
 40
0.1245637514480408
 40
1.196655993054284
 40
1.196655993054284
 40
1.196655993054284
 10
203.272950382168
 20
82.03940406749712
 30
0.0
 41
1.008856462052057
 10
203.2729503821685
 20
76.47018468584409
 30
0.0
 41
1.042541021238723
 10
203.2729503821685
 20
71.64709922208387
 30
0.0
 41
1.0
  0
SPLINE
  5
2F3
330
6C
100
AcDbEntity
  8
Visible (ISO)
100
AcDbSpline
210
0.0
220
0.0
230
1.0
 70
    28
 71
     2
 72
     6
 73
     3
 74
     0
 42
0.0000000001
 43
0.0000000001
 40
1.196655993054284
 40
1.196655993054284
 40
1.196655993054284
 40
2.268748234660528
 40
2.268748234660528
 40
2.268748234660528
 10
194.2729503821685
 20
87.23555649020376
 30
0.0
 41
1.0
 10
198.4498649184083
 20
84.82401375832365
 30
0.0
 41
1.042541021238722
 10
203.272950382168
 20
82.03940406749712
 30
0.0
 41
1.008856462052057
  0
ARC
  5
2F4
330
6C
100
AcDbEntity
  8
Visible (ISO)
100
AcDbCircle
 10
185.2729503821685
 20
71.64709922208387
 30
0.0
 40
18.0
100
AcDbArc
 50
0.0
 51
60.00000000000005
  0
SPLINE
  5
2F5
330
6C
100
AcDbEntity
  8
Visible (ISO)
100
AcDbSpline
210
0.0
220
0.0
230
1.0
 70
    28
 71
     2
 72
     6
 73
     3
 74
     0
 42
0.0000000001
 43
0.0000000001
 40
1.196655993054284
 40
1.196655993054284
 40
1.196655993054284
 40
2.268748234660527
 40
2.268748234660527
 40
2.268748234660527
 10
203.2729503821685
 20
71.64709922208387
 30
0.0
 41
1.0
 10
203.2729503821685
 20
66.82401375832364
 30
0.0
 41
1.042541021238723
 10
203.272950382168
 20
61.2547943766706
 30
0.0
 41
1.008856462052057
  0
ARC
  5
2F6
330
6C
100
AcDbEntity
  8
Visible (ISO)
100
AcDbCircle
 10
185.2729503821685
 20
71.64709922208387
 30
0.0
 40
18.0
100
AcDbArc
 50
300.0
 51
0.0
  0
SPLINE
  5
2F7
330
6C
100
AcDbEntity
  8
Visible (ISO)
100
AcDbSpline
210
0.0
220
0.0
230
1.0
 70
    28
 71
     2
 72
     6
 73
     3
 74
     0
 42
0.0000000001
 43
0.0000000001
 40
0.1245637514480412
 40
0.1245637514480412
 40
0.1245637514480412
 40
1.196655993054284
 40
1.196655993054284
 40
1.196655993054284
 10
203.272950382168
 20
61.2547943766706
 30
0.0
 41
1.008856462052057
 10
198.4498649184083
 20
58.47018468584408
 30
0.0
 41
1.042541021238725
 10
194.2729503821685
 20
56.05864195396399
 30
0.0
 41
1.0
  0
SPLINE
  5
2F8
330
6C
100
AcDbEntity
  8
Visible (ISO)
100
AcDbSpline
210
0.0
220
0.0
230
1.0
 70
    28
 71
     2
 72
     6
 73
     3
 74
     0
 42
0.0000000001
 43
0.0000000001
 40
1.196655993054284
 40
1.196655993054284
 40
1.196655993054284
 40
2.268748234660526
 40
2.268748234660526
 40
2.268748234660526
 10
194.2729503821685
 20
56.05864195396399
 30
0.0
 41
1.0
 10
190.0960358459287
 20
53.64709922208387
 30
0.0
 41
1.042541021238712
 10
185.272950382168
 20
50.86248953125734
 30
0.0
 41
1.008856462052055
  0
ARC
  5
2F9
330
6C
100
AcDbEntity
  8
Visible (ISO)
100
AcDbCircle
 10
185.2729503821685
 20
71.64709922208387
 30
0.0
 40
18.0
100
AcDbArc
 50
240.0
 51
300.0
  0
SPLINE
  5
2FA
330
6C
100
AcDbEntity
  8
Visible (ISO)
100
AcDbSpline
210
0.0
220
0.0
230
1.0
 70
    28
 71
     2
 72
     6
 73
     3
 74
     0
 42
0.0000000001
 43
0.0000000001
 40
0.1245637514480397
 40
0.1245637514480397
 40
0.1245637514480397
 40
1.196655993054283
 40
1.196655993054283
 40
1.196655993054283
 10
185.272950382168
 20
50.86248953125734
 30
0.0
 41
1.008856462052058
 10
180.4498649184083
 20
53.64709922208385
 30
0.0
 41
1.042541021238728
 10
176.2729503821685
 20
56.05864195396396
 30
0.0
 41
1.0
  0
SPLINE
  5
2FB
330
6C
100
AcDbEntity
  8
Visible (ISO)
100
AcDbSpline
210
0.0
220
0.0
230
1.0
 70
    28
 71
     2
 72
     6
 73
     3
 74
     0
 42
0.0000000001
 43
0.0000000001
 40
1.196655993054283
 40
1.196655993054283
 40
1.196655993054283
 40
2.268748234660526
 40
2.268748234660526
 40
2.268748234660526
 10
176.2729503821685
 20
56.05864195396396
 30
0.0
 41
1.0
 10
172.0960358459287
 20
58.47018468584407
 30
0.0
 41
1.042541021238719
 10
167.272950382168
 20
61.2547943766706
 30
0.0
 41
1.008856462052056
  0
ARC
  5
2FC
330
6C
100
AcDbEntity
  8
Visible (ISO)
100
AcDbCircle
 10
185.2729503821685
 20
71.64709922208387
 30
0.0
 40
18.0
100
AcDbArc
 50
180.0
 51
240.0
  0
CIRCLE
  5
2FD
330
6C
100
AcDbEntity
  8
Visible (ISO)
100
AcDbCircle
 10
185.2729503821746
 20
71.64709922208387
 30
0.0
 40
8.0
  0
CIRCLE
  5
2FE
330
6C
100
AcDbEntity
  8
Visible (ISO)
100
AcDbCircle
 10
185.2729503821747
 20
71.64709922208387
 30
0.0
 40
8.5
  0
CIRCLE
  5
2FF
330
6C
100
AcDbEntity
  8
Visible (ISO)
100
AcDbCircle
 10
185.2729503821747
 20
71.64709922208387
 30
0.0
 40
11.5
  0
CIRCLE
  5
300
330
6C
100
AcDbEntity
  8
Visible (ISO)
100
AcDbCircle
 10
185.272950382174
 20
71.64709922208387
 30
0.0
 40
13.00409926059292
  0
CIRCLE
  5
301
330
6C
100
AcDbEntity
  8
Visible (ISO)
100
AcDbCircle
 10
185.2729503821685
 20
71.64709922208387
 30
0.0
 40
13.5789375
  0
CIRCLE
  5
302
330
6C
100
AcDbEntity
  8
Visible Narrow (ISO)
100
AcDbCircle
 10
185.2729503821746
 20
71.64709922208387
 30
0.0
 40
11.77500535723763
  0
LINE
  5
303
330
6C
100
AcDbEntity
  8
Visible (ISO)
100
AcDbLine
 10
59.10300939513817
 20
129.3529007779186
 30
0.0
 11
59.10300939513817
 21
129.3429007779186
 31
0.0
  0
LINE
  5
304
330
6C
100
AcDbEntity
  8
Visible (ISO)
100
AcDbLine
 10
59.10300939513817
 20
129.3429007779186
 30
0.0
 11
56.85300939513817
 21
129.3429007779186
 31
0.0
  0
LINE
  5
305
330
6C
100
AcDbEntity
  8
Visible (ISO)
100
AcDbLine
 10
56.85300939513817
 20
129.3529007779187
 30
0.0
 11
56.85300939513817
 21
129.3429007779187
 31
0.0
  0
LINE
  5
306
330
6C
100
AcDbEntity
  8
Visible (ISO)
100
AcDbLine
 10
56.10300939513819
 20
129.3529007779184
 30
0.0
 11
56.10300939513819
 21
129.3429007779185
 31
0.0
  0
LINE
  5
307
330
6C
100
AcDbEntity
  8
Visible (ISO)
100
AcDbLine
 10
56.85300939513817
 20
129.3429007779187
 30
0.0
 11
56.10300939513819
 21
129.3429007779185
 31
0.0
  0
SPLINE
  5
308
330
6C
100
AcDbEntity
  8
Visible (ISO)
100
AcDbSpline
210
0.0
220
0.0
230
1.0
 70
    24
 71
     3
 72
    10
 73
     6
 74
     0
 42
0.0000000001
 43
0.0000000001
 40
-0.075402167362433
 40
-0.075402167362433
 40
-0.075402167362433
 40
-0.075402167362433
 40
-0.0653506750529575
 40
-0.0653506750529575
 40
0.0
 40
0.0
 40
0.0
 40
0.0
 10
59.419145812169
 20
129.3429007779178
 30
0.0
 10
59.41617049687318
 20
129.3429007779178
 30
0.0
 10
59.41328800561834
 20
129.3429007779178
 30
0.0
 10
59.39233602002126
 20
129.3429007779178
 30
0.0
 10
59.35488316665632
 20
129.3429007779178
 30
0.0
 10
59.35488316665632
 20
129.3429007779177
 30
0.0
  0
SPLINE
  5
309
330
6C
100
AcDbEntity
  8
Visible (ISO)
100
AcDbSpline
210
0.0
220
0.0
230
1.0
 70
    24
 71
     3
 72
    10
 73
     6
 74
     0
 42
0.0000000001
 43
0.0000000001
 40
-0.0941114371501296
 40
-0.0941114371501296
 40
-0.0941114371501296
 40
-0.0941114371501296
 40
-0.0392069370433986
 40
-0.0392069370433986
 40
-0.0362135918805693
 40
-0.0362135918805693
 40
-0.0362135918805693
 40
-0.0362135918805693
 10
62.53340836275185
 20
129.3429007779177
 30
0.0
 10
62.53340836275185
 20
129.3429007779177
 30
0.0
 10
62.51129791397989
 20
129.3429007779178
 30
0.0
 10
62.47336367545927
 20
129.3429007779178
 30
0.0
 10
62.47130597809991
 20
129.3429007779178
 30
0.0
 10
62.46915044766629
 20
129.3429007779178
 30
0.0
  0
LINE
  5
30A
330
6C
100
AcDbEntity
  8
Visible (ISO)
100
AcDbLine
 10
59.35488316665632
 20
129.3529007779177
 30
0.0
 11
59.35488316665632
 21
129.3429007779177
 31
0.0
  0
LINE
  5
30B
330
6C
100
AcDbEntity
  8
Visible (ISO)
100
AcDbLine
 10
62.53340836275185
 20
129.3529007779177
 30
0.0
 11
62.53340836275185
 21
129.3429007779177
 31
0.0
  0
LINE
  5
30C
330
6C
100
AcDbEntity
  8
Visible (ISO)
100
AcDbLine
 10
59.41914572894129
 20
129.3529007779205
 30
0.0
 11
59.41914572894129
 21
129.3429007779205
 31
0.0
  0
LINE
  5
30D
330
6C
100
AcDbEntity
  8
Visible (ISO)
100
AcDbLine
 10
62.46914580046686
 20
129.3429007779205
 30
0.0
 11
59.41914572894129
 21
129.3429007779205
 31
0.0
  0
LINE
  5
30E
330
6C
100
AcDbEntity
  8
Visible (ISO)
100
AcDbLine
 10
62.46914580046686
 20
129.3529007779205
 30
0.0
 11
62.46914580046686
 21
129.3429007779205
 31
0.0
  0
LINE
  5
30F
330
6C
100
AcDbEntity
  8
Visible (ISO)
100
AcDbLine
 10
62.60508583606971
 20
129.342900777917
 30
0.0
 11
62.53340836275185
 21
129.342900777917
 31
0.0
  0
LINE
  5
310
330
6C
100
AcDbEntity
  8
Visible (ISO)
100
AcDbLine
 10
59.35488316665632
 20
129.3429007779173
 30
0.0
 11
59.10300939513817
 21
129.3429007779173
 31
0.0
  0
LINE
  5
311
330
6C
100
AcDbEntity
  8
Visible (ISO)
100
AcDbLine
 10
62.60508583606971
 20
129.352900777917
 30
0.0
 11
62.60508583606971
 21
129.342900777917
 31
0.0
  0
SPLINE
  5
312
330
6C
100
AcDbEntity
  8
Visible (ISO)
100
AcDbSpline
210
0.0
220
0.0
230
1.0
 70
    28
 71
     2
 72
     6
 73
     3
 74
     0
 42
0.0000000001
 43
0.0000000001
 40
1.196655993054283
 40
1.196655993054283
 40
1.196655993054283
 40
2.268748234660526
 40
2.268748234660526
 40
2.268748234660526
 10
84.39920385744791
 20
129.3529007779184
 30
0.0
 41
1.0
 10
84.39920385744791
 20
129.3529007779199
 30
0.0
 41
1.042541021238722
 10
82.79150870286118
 20
129.3529007779216
 30
0.0
 41
1.008856462052057
  0
SPLINE
  5
313
330
6C
100
AcDbEntity
  8
Visible (ISO)
100
AcDbSpline
210
0.0
220
0.0
230
1.0
 70
    12
 71
     2
 72
     6
 73
     3
 74
     0
 42
0.0000000001
 43
0.0000000001
 40
0.12456375144804
 40
0.12456375144804
 40
0.12456375144804
 40
1.196655993054283
 40
1.196655993054283
 40
1.196655993054283
 10
82.79150870286118
 20
129.3529007779216
 30
0.0
 41
1.008856462052057
 10
84.39920385744789
 20
134.1759862416826
 30
0.0
 41
1.042541021238723
 10
84.39920385744791
 20
138.3529007779231
 30
0.0
 41
1.0
  0
LINE
  5
314
330
6C
100
AcDbEntity
  8
Visible (ISO)
100
AcDbLine
 10
84.39920385744791
 20
129.3529007779185
 30
0.0
 11
84.39920385744791
 21
138.3529007779231
 31
0.0
  0
SPLINE
  5
315
330
6C
100
AcDbEntity
  8
Visible (ISO)
100
AcDbSpline
210
0.0
220
0.0
230
1.0
 70
    12
 71
     2
 72
     6
 73
     3
 74
     0
 42
0.0000000001
 43
0.0000000001
 40
0.1245637514480408
 40
0.1245637514480408
 40
0.1245637514480408
 40
1.196655993054284
 40
1.196655993054284
 40
1.196655993054284
 10
82.79150870286118
 20
147.3529007779246
 30
0.0
 41
1.008856462052055
 10
84.39920385744791
 20
152.175986241684
 30
0.0
 41
1.042541021238715
 10
84.39920385744791
 20
156.3529007779231
 30
0.0
 41
1.0
  0
SPLINE
  5
316
330
6C
100
AcDbEntity
  8
Visible (ISO)
100
AcDbSpline
210
0.0
220
0.0
230
1.0
 70
    12
 71
     2
 72
     6
 73
     3
 74
     0
 42
0.0000000001
 43
0.0000000001
 40
1.196655993054283
 40
1.196655993054283
 40
1.196655993054283
 40
2.268748234660526
 40
2.268748234660526
 40
2.268748234660526
 10
84.39920385744791
 20
138.3529007779231
 30
0.0
 41
1.0
 10
84.39920385744793
 20
142.5298153141636
 30
0.0
 41
1.042541021238722
 10
82.79150870286118
 20
147.3529007779246
 30
0.0
 41
1.008856462052057
  0
LINE
  5
317
330
6C
100
AcDbEntity
  8
Visible (ISO)
100
AcDbLine
 10
84.39920385744791
 20
138.3529007779231
 30
0.0
 11
84.39920385744791
 21
156.3529007779231
 31
0.0
  0
SPLINE
  5
318
330
6C
100
AcDbEntity
  8
Visible (ISO)
100
AcDbSpline
210
0.0
220
0.0
230
1.0
 70
    28
 71
     2
 72
     6
 73
     3
 74
     0
 42
0.0000000001
 43
0.0000000001
 40
0.1245637514480408
 40
0.1245637514480408
 40
0.1245637514480408
 40
1.196655993054284
 40
1.196655993054284
 40
1.196655993054284
 10
82.79150870286118
 20
165.3529007779215
 30
0.0
 41
1.008856462052057
 10
84.39920385744791
 20
165.3529007779199
 30
0.0
 41
1.042541021238723
 10
84.39920385744791
 20
165.3529007779185
 30
0.0
 41
1.0
  0
SPLINE
  5
319
330
6C
100
AcDbEntity
  8
Visible (ISO)
100
AcDbSpline
210
0.0
220
0.0
230
1.0
 70
    12
 71
     2
 72
     6
 73
     3
 74
     0
 42
0.0000000001
 43
0.0000000001
 40
1.196655993054284
 40
1.196655993054284
 40
1.196655993054284
 40
2.268748234660528
 40
2.268748234660528
 40
2.268748234660528
 10
84.39920385744791
 20
156.3529007779231
 30
0.0
 41
1.0
 10
84.39920385744791
 20
160.5298153141622
 30
0.0
 41
1.042541021238722
 10
82.79150870286118
 20
165.3529007779215
 30
0.0
 41
1.008856462052057
  0
LINE
  5
31A
330
6C
100
AcDbEntity
  8
Visible (ISO)
100
AcDbLine
 10
84.39920385744791
 20
156.352900777923
 30
0.0
 11
84.39920385744791
 21
165.3529007779185
 31
0.0
  0
LINE
  5
31B
330
6C
100
AcDbEntity
  8
Visible (ISO)
100
AcDbLine
 10
57.00689901203464
 20
129.3529007779216
 30
0.0
 11
82.79150870286118
 21
129.3529007779216
 31
0.0
  0
LINE
  5
31C
330
6C
100
AcDbEntity
  8
Visible (ISO)
100
AcDbLine
 10
57.00689901203464
 20
165.3529007779215
 30
0.0
 11
82.79150870286118
 21
165.3529007779215
 31
0.0
  0
LINE
  5
31D
330
6C
100
AcDbEntity
  8
Visible (ISO)
100
AcDbLine
 10
57.00689901203464
 20
147.3529007779246
 30
0.0
 11
82.79150870286118
 21
147.3529007779246
 31
0.0
  0
SPLINE
  5
31E
330
6C
100
AcDbEntity
  8
Visible (ISO)
100
AcDbSpline
210
0.0
220
0.0
230
1.0
 70
    28
 71
     2
 72
     6
 73
     3
 74
     0
 42
0.0000000001
 43
0.0000000001
 40
0.1245637514480407
 40
0.1245637514480407
 40
0.1245637514480407
 40
1.196655993054283
 40
1.196655993054283
 40
1.196655993054283
 10
57.00689901203464
 20
129.3529007779216
 30
0.0
 41
1.008856462052056
 10
55.39920385744792
 20
129.3529007779199
 30
0.0
 41
1.042541021238718
 10
55.39920385744792
 20
129.3529007779184
 30
0.0
 41
1.0
  0
SPLINE
  5
31F
330
6C
100
AcDbEntity
  8
Visible (ISO)
100
AcDbSpline
210
0.0
220
0.0
230
1.0
 70
    28
 71
     2
 72
     6
 73
     3
 74
     0
 42
0.0000000001
 43
0.0000000001
 40
1.196655993054285
 40
1.196655993054285
 40
1.196655993054285
 40
2.268748234660528
 40
2.268748234660528
 40
2.268748234660528
 10
55.3992038574479
 20
165.3529007779185
 30
0.0
 41
1.0
 10
55.3992038574479
 20
165.3529007779199
 30
0.0
 41
1.04254102123872
 10
57.00689901203464
 20
165.3529007779215
 30
0.0
 41
1.008856462052057
  0
SPLINE
  5
320
330
6C
100
AcDbEntity
  8
Visible (ISO)
100
AcDbSpline
210
0.0
220
0.0
230
1.0
 70
    12
 71
     2
 72
     6
 73
     3
 74
     0
 42
0.0000000001
 43
0.0000000001
 40
1.196655993054284
 40
1.196655993054284
 40
1.196655993054284
 40
2.268748234660528
 40
2.268748234660528
 40
2.268748234660528
 10
55.39920385744792
 20
138.3529007779231
 30
0.0
 41
1.0
 10
55.39920385744792
 20
134.1759862416825
 30
0.0
 41
1.042541021238731
 10
57.00689901203464
 20
129.3529007779216
 30
0.0
 41
1.008856462052059
  0
LINE
  5
321
330
6C
100
AcDbEntity
  8
Visible (ISO)
100
AcDbLine
 10
55.39920385744792
 20
138.3529007779231
 30
0.0
 11
55.39920385744792
 21
129.3529007779184
 31
0.0
  0
LINE
  5
322
330
6C
100
AcDbEntity
  8
Visible (ISO)
100
AcDbLine
 10
55.39920385744792
 20
165.3529007779185
 30
0.0
 11
55.39920385744792
 21
156.3529007779231
 31
0.0
  0
SPLINE
  5
323
330
6C
100
AcDbEntity
  8
Visible (ISO)
100
AcDbSpline
210
0.0
220
0.0
230
1.0
 70
    12
 71
     2
 72
     6
 73
     3
 74
     0
 42
0.0000000001
 43
0.0000000001
 40
0.1245637514480413
 40
0.1245637514480413
 40
0.1245637514480413
 40
1.196655993054285
 40
1.196655993054285
 40
1.196655993054285
 10
57.00689901203464
 20
165.3529007779215
 30
0.0
 41
1.008856462052058
 10
55.39920385744792
 20
160.5298153141622
 30
0.0
 41
1.042541021238728
 10
55.39920385744792
 20
156.3529007779231
 30
0.0
 41
1.0
  0
SPLINE
  5
324
330
6C
100
AcDbEntity
  8
Visible (ISO)
100
AcDbSpline
210
0.0
220
0.0
230
1.0
 70
    12
 71
     2
 72
     6
 73
     3
 74
     0
 42
0.0000000001
 43
0.0000000001
 40
1.196655993054285
 40
1.196655993054285
 40
1.196655993054285
 40
2.268748234660529
 40
2.268748234660529
 40
2.268748234660529
 10
55.39920385744792
 20
156.3529007779231
 30
0.0
 41
1.0
 10
55.39920385744792
 20
152.175986241684
 30
0.0
 41
1.042541021238716
 10
57.00689901203464
 20
147.3529007779246
 30
0.0
 41
1.008856462052056
  0
LINE
  5
325
330
6C
100
AcDbEntity
  8
Visible (ISO)
100
AcDbLine
 10
55.39920385744792
 20
156.3529007779231
 30
0.0
 11
55.39920385744792
 21
138.3529007779231
 31
0.0
  0
SPLINE
  5
326
330
6C
100
AcDbEntity
  8
Visible (ISO)
100
AcDbSpline
210
0.0
220
0.0
230
1.0
 70
    12
 71
     2
 72
     6
 73
     3
 74
     0
 42
0.0000000001
 43
0.0000000001
 40
0.1245637514480414
 40
0.1245637514480414
 40
0.1245637514480414
 40
1.196655993054284
 40
1.196655993054284
 40
1.196655993054284
 10
57.00689901203464
 20
147.3529007779246
 30
0.0
 41
1.008856462052057
 10
55.39920385744792
 20
142.5298153141636
 30
0.0
 41
1.04254102123872
 10
55.39920385744792
 20
138.3529007779231
 30
0.0
 41
1.0
  0
LINE
  5
327
330
6C
100
AcDbEntity
  8
Visible (ISO)
100
AcDbLine
 10
105.3992038574479
 20
135.8529007779184
 30
0.0
 11
105.3992038574479
 21
158.8529007779184
 31
0.0
  0
LINE
  5
328
330
6C
100
AcDbEntity
  8
Visible (ISO)
100
AcDbLine
 10
102.7940275184741
 20
160.3570000385114
 30
0.0
 11
102.7940275184741
 21
134.3488015173255
 31
0.0
  0
LINE
  5
329
330
6C
100
AcDbEntity
  8
Visible (ISO)
100
AcDbLine
 10
105.3992038574479
 20
135.8529007779184
 30
0.0
 11
102.7940275184742
 21
134.3488015173256
 31
0.0
  0
LINE
  5
32A
330
6C
100
AcDbEntity
  8
Visible (ISO)
100
AcDbLine
 10
105.3992038574479
 20
158.8529007779184
 30
0.0
 11
102.7940275184742
 21
160.3570000385114
 31
0.0
  0
LINE
  5
32B
330
6C
100
AcDbEntity
  8
Visible (ISO)
100
AcDbLine
 10
102.7940275184741
 20
134.3488015173256
 30
0.0
 11
84.39920385744791
 21
133.7739632779185
 31
0.0
  0
LINE
  5
32C
330
6C
100
AcDbEntity
  8
Visible (ISO)
100
AcDbLine
 10
102.7940275184741
 20
160.3570000385114
 30
0.0
 11
84.39920385744791
 21
160.9318382779185
 31
0.0
  0
LINE
  5
32D
330
6C
100
AcDbEntity
  8
Visible Narrow (ISO)
100
AcDbLine
 10
84.39920385744791
 20
134.9365305222774
 30
0.0
 11
104.9228806063587
 21
135.5778954206809
 31
0.0
  0
LINE
  5
32E
330
6C
100
AcDbEntity
  8
Visible Narrow (ISO)
100
AcDbLine
 10
104.9228806063587
 20
159.1279061351561
 30
0.0
 11
84.39920385744791
 21
159.7692710335596
 31
0.0
  0
MTEXT
  5
32F
330
6C
100
AcDbEntity
  8
Symbol (ISO)
100
AcDbMText
 10
122.2488551182254
 20
106.3949882454641
 30
0.0
 40
2.5
 41
15.68713426589965
 46
0.0
 71
     1
 72
     1
  1
{5NF-8366}
  7
Note Text (JIS)
 73
     1
 44
1.5
  0
ENDSEC
  0
SECTION
  2
OBJECTS
  0
DICTIONARY
  5
C
330
0
100
AcDbDictionary
281
     1
  3
ACAD_COLOR
350
63
  3
ACAD_GROUP
350
D
  3
ACAD_LAYOUT
350
62
  3
ACAD_MATERIAL
350
10
  3
ACAD_MLEADERSTYLE
350
66
  3
ACAD_MLINESTYLE
350
5F
  3
ACAD_PLOTSETTINGS
350
61
  3
ACAD_PLOTSTYLENAME
350
E
  3
ACAD_SCALELIST
350
42
  3
ACAD_TABLESTYLE
350
64
  3
ACAD_VISUALSTYLE
350
29
  3
ACDB_RECOMPOSE_DATA
350
338
  3
AcDbVariableDictionary
350
330
  0
DICTIONARY
  5
63
102
{ACAD_REACTORS
330
C
102
}
330
C
100
AcDbDictionary
281
     1
  0
DICTIONARY
  5
D
102
{ACAD_REACTORS
330
C
102
}
330
C
100
AcDbDictionary
281
     1
  0
DICTIONARY
  5
62
102
{ACAD_REACTORS
330
C
102
}
330
C
100
AcDbDictionary
281
     1
  3
Layout1
350
6B
  3
Layout2
350
73
  3
Model
350
6F
  0
DICTIONARY
  5
10
102
{ACAD_REACTORS
330
C
102
}
330
C
100
AcDbDictionary
281
     1
  3
ByBlock
350
19
  3
ByLayer
350
11
  3
Global
350
21
  0
DICTIONARY
  5
66
102
{ACAD_REACTORS
330
C
102
}
330
C
100
AcDbDictionary
281
     1
  3
Standard
350
67
  0
DICTIONARY
  5
5F
102
{ACAD_REACTORS
330
C
102
}
330
C
100
AcDbDictionary
281
     1
  3
Standard
350
60
  0
DICTIONARY
  5
61
102
{ACAD_REACTORS
330
C
102
}
330
C
100
AcDbDictionary
281
     1
  0
ACDBDICTIONARYWDFLT
  5
E
102
{ACAD_REACTORS
330
C
102
}
330
C
100
AcDbDictionary
281
     1
  3
Normal
350
F
100
AcDbDictionaryWithDefault
340
F
  0
DICTIONARY
  5
42
102
{ACAD_REACTORS
330
C
102
}
330
C
100
AcDbDictionary
281
     1
  3
A0
350
43
  3
A1
350
44
  3
A2
350
45
  3
A3
350
46
  3
A4
350
47
  3
A5
350
48
  3
A6
350
49
  3
A7
350
4A
  3
A8
350
4B
  3
A9
350
4C
  3
B0
350
4D
  3
B1
350
4E
  3
B2
350
4F
  3
B3
350
50
  3
B4
350
51
  3
B5
350
52
  3
B6
350
53
  0
DICTIONARY
  5
64
102
{ACAD_REACTORS
330
C
102
}
330
C
100
AcDbDictionary
281
     1
  3
Standard
350
65
  0
DICTIONARY
  5
29
102
{ACAD_REACTORS
330
C
102
}
330
C
100
AcDbDictionary
281
     1
  3
2dWireframe
350
2F
  3
Basic
350
2E
  3
Brighten
350
35
  3
ColorChange
350
39
  3
Conceptual
350
32
  3
Dim
350
34
  3
EdgeColorOff
350
41
  3
Facepattern
350
38
  3
Flat
350
2A
  3
FlatWithEdges
350
2B
  3
Gouraud
350
2C
  3
GouraudWithEdges
350
2D
  3
Hidden
350
31
  3
JitterOff
350
3F
  3
Linepattern
350
37
  3
OverhangOff
350
40
  3
Realistic
350
33
  3
Shaded
350
3E
  3
Shaded with edges
350
3D
  3
Shades of Gray
350
3A
  3
Sketchy
350
3B
  3
Thicken
350
36
  3
Wireframe
350
30
  3
X-Ray
350
3C
  0
XRECORD
  5
338
102
{ACAD_REACTORS
330
C
102
}
330
C
100
AcDbXrecord
280
     1
 90
        1
330
65
  0
DICTIONARY
  5
330
102
{ACAD_REACTORS
330
C
102
}
330
C
100
AcDbDictionary
281
     1
  3
CANNOSCALE
350
333
  3
CMLEADERSTYLE
350
332
  3
CTABLESTYLE
350
331
  0
LAYOUT
  5
6B
102
{ACAD_REACTORS
330
62
102
}
330
62
100
AcDbPlotSettings
  1

  2

  4

  6

 40
0.0
 41
0.0
 42
0.0
 43
0.0
 44
0.0
 45
0.0
 46
0.0
 47
0.0
 48
0.0
 49
0.0
140
0.0
141
0.0
142
1.0
143
1.0
 70
   688
 72
     0
 73
     0
 74
     5
  7

 75
    16
147
1.0
 76
     0
 77
     2
 78
   300
148
0.0
149
0.0
100
AcDbLayout
  1
Layout1
 70
     1
 71
     1
 10
0.0
 20
0.0
 11
12.0
 21
9.0
 12
0.0
 22
0.0
 32
0.0
 14
0.0
 24
0.0
 34
0.0
 15
0.0
 25
0.0
 35
0.0
146
0.0
 13
0.0
 23
0.0
 33
0.0
 16
1.0
 26
0.0
 36
0.0
 17
0.0
 27
1.0
 37
0.0
 76
     0
330
68
  0
LAYOUT
  5
73
102
{ACAD_REACTORS
330
62
102
}
330
62
100
AcDbPlotSettings
  1

  2

  4

  6

 40
0.0
 41
0.0
 42
0.0
 43
0.0
 44
0.0
 45
0.0
 46
0.0
 47
0.0
 48
0.0
 49
0.0
140
0.0
141
0.0
142
1.0
143
1.0
 70
   688
 72
     0
 73
     0
 74
     5
  7

 75
    16
147
1.0
 76
     0
 77
     2
 78
   300
148
0.0
149
0.0
100
AcDbLayout
  1
Layout2
 70
     1
 71
     2
 10
0.0
 20
0.0
 11
12.0
 21
9.0
 12
0.0
 22
0.0
 32
0.0
 14
0.0
 24
0.0
 34
0.0
 15
0.0
 25
0.0
 35
0.0
146
0.0
 13
0.0
 23
0.0
 33
0.0
 16
1.0
 26
0.0
 36
0.0
 17
0.0
 27
1.0
 37
0.0
 76
     0
330
70
  0
LAYOUT
  5
6F
102
{ACAD_REACTORS
330
62
102
}
330
62
100
AcDbPlotSettings
  1

  2

  4

  6

 40
0.0
 41
0.0
 42
0.0
 43
0.0
 44
0.0
 45
0.0
 46
0.0
 47
0.0
 48
0.0
 49
0.0
140
0.0
141
0.0
142
1.0
143
1.0
 70
  1712
 72
     0
 73
     0
 74
     0
  7

 75
     0
147
1.0
 76
     0
 77
     2
 78
   300
148
0.0
149
0.0
100
AcDbLayout
  1
Model
 70
     1
 71
     0
 10
0.0
 20
0.0
 11
12.0
 21
9.0
 12
0.0
 22
0.0
 32
0.0
 14
0.0
 24
0.0
 34
0.0
 15
0.0
 25
0.0
 35
0.0
146
0.0
 13
0.0
 23
0.0
 33
0.0
 16
1.0
 26
0.0
 36
0.0
 17
0.0
 27
1.0
 37
0.0
 76
     0
330
6C
  0
MATERIAL
  5
19
102
{ACAD_XDICTIONARY
360
1A
102
}
102
{ACAD_REACTORS
330
10
102
}
330
10
100
AcDbMaterial
  1
ByBlock
 72
     0
 43
0.0208333333333333
 43
0.0
 43
0.0
 43
0.0
 43
0.0
 43
0.0208333333333333
 43
0.0
 43
0.0
 43
0.0
 43
0.0
 43
1.0
 43
0.0
 43
0.0
 43
0.0
 43
0.0
 43
1.0
 77
     0
 47
0.0208333333333333
 47
0.0
 47
0.0
 47
0.0
 47
0.0
 47
0.0208333333333333
 47
0.0
 47
0.0
 47
0.0
 47
0.0
 47
1.0
 47
0.0
 47
0.0
 47
0.0
 47
0.0
 47
1.0
171
     0
 49
0.0208333333333333
 49
0.0
 49
0.0
 49
0.0
 49
0.0
 49
0.0208333333333333
 49
0.0
 49
0.0
 49
0.0
 49
0.0
 49
1.0
 49
0.0
 49
0.0
 49
0.0
 49
0.0
 49
1.0
175
     0
142
0.0208333333333333
142
0.0
142
0.0
142
0.0
142
0.0
142
0.0208333333333333
142
0.0
142
0.0
142
0.0
142
0.0
142
1.0
142
0.0
142
0.0
142
0.0
142
0.0
142
1.0
179
     0
144
0.0208333333333333
144
0.0
144
0.0
144
0.0
144
0.0
144
0.0208333333333333
144
0.0
144
0.0
144
0.0
144
0.0
144
1.0
144
0.0
144
0.0
144
0.0
144
0.0
144
1.0
147
0.0208333333333333
147
0.0
147
0.0
147
0.0
147
0.0
147
0.0208333333333333
147
0.0
147
0.0
147
0.0
147
0.0
147
1.0
147
0.0
147
0.0
147
0.0
147
0.0
147
1.0
  0
MATERIAL
  5
11
102
{ACAD_XDICTIONARY
360
12
102
}
102
{ACAD_REACTORS
330
10
102
}
330
10
100
AcDbMaterial
  1
ByLayer
 72
     0
 43
0.0208333333333333
 43
0.0
 43
0.0
 43
0.0
 43
0.0
 43
0.0208333333333333
 43
0.0
 43
0.0
 43
0.0
 43
0.0
 43
1.0
 43
0.0
 43
0.0
 43
0.0
 43
0.0
 43
1.0
 77
     0
 47
0.0208333333333333
 47
0.0
 47
0.0
 47
0.0
 47
0.0
 47
0.0208333333333333
 47
0.0
 47
0.0
 47
0.0
 47
0.0
 47
1.0
 47
0.0
 47
0.0
 47
0.0
 47
0.0
 47
1.0
171
     0
 49
0.0208333333333333
 49
0.0
 49
0.0
 49
0.0
 49
0.0
 49
0.0208333333333333
 49
0.0
 49
0.0
 49
0.0
 49
0.0
 49
1.0
 49
0.0
 49
0.0
 49
0.0
 49
0.0
 49
1.0
175
     0
142
0.0208333333333333
142
0.0
142
0.0
142
0.0
142
0.0
142
0.0208333333333333
142
0.0
142
0.0
142
0.0
142
0.0
142
1.0
142
0.0
142
0.0
142
0.0
142
0.0
142
1.0
179
     0
144
0.0208333333333333
144
0.0
144
0.0
144
0.0
144
0.0
144
0.0208333333333333
144
0.0
144
0.0
144
0.0
144
0.0
144
1.0
144
0.0
144
0.0
144
0.0
144
0.0
144
1.0
147
0.0208333333333333
147
0.0
147
0.0
147
0.0
147
0.0
147
0.0208333333333333
147
0.0
147
0.0
147
0.0
147
0.0
147
1.0
147
0.0
147
0.0
147
0.0
147
0.0
147
1.0
  0
MATERIAL
  5
21
102
{ACAD_XDICTIONARY
360
22
102
}
102
{ACAD_REACTORS
330
10
102
}
330
10
100
AcDbMaterial
  1
Global
 72
     0
 43
0.0208333333333333
 43
0.0
 43
0.0
 43
0.0
 43
0.0
 43
0.0208333333333333
 43
0.0
 43
0.0
 43
0.0
 43
0.0
 43
1.0
 43
0.0
 43
0.0
 43
0.0
 43
0.0
 43
1.0
 77
     0
 47
0.0208333333333333
 47
0.0
 47
0.0
 47
0.0
 47
0.0
 47
0.0208333333333333
 47
0.0
 47
0.0
 47
0.0
 47
0.0
 47
1.0
 47
0.0
 47
0.0
 47
0.0
 47
0.0
 47
1.0
171
     0
 49
0.0208333333333333
 49
0.0
 49
0.0
 49
0.0
 49
0.0
 49
0.0208333333333333
 49
0.0
 49
0.0
 49
0.0
 49
0.0
 49
1.0
 49
0.0
 49
0.0
 49
0.0
 49
0.0
 49
1.0
175
     0
142
0.0208333333333333
142
0.0
142
0.0
142
0.0
142
0.0
142
0.0208333333333333
142
0.0
142
0.0
142
0.0
142
0.0
142
1.0
142
0.0
142
0.0
142
0.0
142
0.0
142
1.0
179
     0
144
0.0208333333333333
144
0.0
144
0.0
144
0.0
144
0.0
144
0.0208333333333333
144
0.0
144
0.0
144
0.0
144
0.0
144
1.0
144
0.0
144
0.0
144
0.0
144
0.0
144
1.0
147
0.0208333333333333
147
0.0
147
0.0
147
0.0
147
0.0
147
0.0208333333333333
147
0.0
147
0.0
147
0.0
147
0.0
147
1.0
147
0.0
147
0.0
147
0.0
147
0.0
147
1.0
  0
MLEADERSTYLE
  5
67
102
{ACAD_REACTORS
330
66
102
}
330
66
100
AcDbMLeaderStyle
179
     2
170
     2
171
     1
172
     0
 90
        2
 40
0.0
 41
0.0
173
     1
 91
-1056964608
340
5B
 92
       -2
290
     1
 42
0.09
291
     1
 43
0.36
  3
Standard
 44
0.18
300

342
55
174
     1
178
     6
175
     1
176
     0
 93
-1056964608
 45
0.18
292
     0
297
     0
 46
0.18
 94
-1056964608
 47
1.0
 49
1.0
140
1.0
293
     1
141
0.0
294
     1
177
     0
142
1.0
295
     1
296
     0
143
0.125
271
     0
272
     9
273
     9
  0
MLINESTYLE
  5
60
102
{ACAD_REACTORS
330
5F
102
}
330
5F
100
AcDbMlineStyle
  2
STANDARD
 70
     0
  3

 62
   256
 51
90.0
 52
90.0
 71
     2
 49
0.5
 62
   256
  6
BYLAYER
 49
-0.5
 62
   256
  6
BYLAYER
  0
ACDBPLACEHOLDER
  5
F
102
{ACAD_REACTORS
330
E
102
}
330
E
  0
SCALE
  5
43
102
{ACAD_REACTORS
330
42
102
}
330
42
100
AcDbScale
 70
     0
300
1:1
140
1.0
141
1.0
290
     1
  0
SCALE
  5
44
102
{ACAD_REACTORS
330
42
102
}
330
42
100
AcDbScale
 70
     0
300
1/128" = 1'-0"
140
0.0078125
141
12.0
290
     0
  0
SCALE
  5
45
102
{ACAD_REACTORS
330
42
102
}
330
42
100
AcDbScale
 70
     0
300
1/64" = 1'-0"
140
0.015625
141
12.0
290
     0
  0
SCALE
  5
46
102
{ACAD_REACTORS
330
42
102
}
330
42
100
AcDbScale
 70
     0
300
1/32" = 1'-0"
140
0.03125
141
12.0
290
     0
  0
SCALE
  5
47
102
{ACAD_REACTORS
330
42
102
}
330
42
100
AcDbScale
 70
     0
300
1/16" = 1'-0"
140
0.0625
141
12.0
290
     0
  0
SCALE
  5
48
102
{ACAD_REACTORS
330
42
102
}
330
42
100
AcDbScale
 70
     0
300
3/32" = 1'-0"
140
0.09375
141
12.0
290
     0
  0
SCALE
  5
49
102
{ACAD_REACTORS
330
42
102
}
330
42
100
AcDbScale
 70
     0
300
1/8" = 1'-0"
140
0.125
141
12.0
290
     0
  0
SCALE
  5
4A
102
{ACAD_REACTORS
330
42
102
}
330
42
100
AcDbScale
 70
     0
300
3/16" = 1'-0"
140
0.1875
141
12.0
290
     0
  0
SCALE
  5
4B
102
{ACAD_REACTORS
330
42
102
}
330
42
100
AcDbScale
 70
     0
300
1/4" = 1'-0"
140
0.25
141
12.0
290
     0
  0
SCALE
  5
4C
102
{ACAD_REACTORS
330
42
102
}
330
42
100
AcDbScale
 70
     0
300
3/8" = 1'-0"
140
0.375
141
12.0
290
     0
  0
SCALE
  5
4D
102
{ACAD_REACTORS
330
42
102
}
330
42
100
AcDbScale
 70
     0
300
1/2" = 1'-0"
140
0.5
141
12.0
290
     0
  0
SCALE
  5
4E
102
{ACAD_REACTORS
330
42
102
}
330
42
100
AcDbScale
 70
     0
300
3/4" = 1'-0"
140
0.75
141
12.0
290
     0
  0
SCALE
  5
4F
102
{ACAD_REACTORS
330
42
102
}
330
42
100
AcDbScale
 70
     0
300
1" = 1'-0"
140
1.0
141
12.0
290
     0
  0
SCALE
  5
50
102
{ACAD_REACTORS
330
42
102
}
330
42
100
AcDbScale
 70
     0
300
1-1/2" = 1'-0"
140
1.5
141
12.0
290
     0
  0
SCALE
  5
51
102
{ACAD_REACTORS
330
42
102
}
330
42
100
AcDbScale
 70
     0
300
3" = 1'-0"
140
3.0
141
12.0
290
     0
  0
SCALE
  5
52
102
{ACAD_REACTORS
330
42
102
}
330
42
100
AcDbScale
 70
     0
300
6" = 1'-0"
140
6.0
141
12.0
290
     0
  0
SCALE
  5
53
102
{ACAD_REACTORS
330
42
102
}
330
42
100
AcDbScale
 70
     0
300
1'-0" = 1'-0"
140
12.0
141
12.0
290
     0
  0
TABLESTYLE
  5
65
102
{ACAD_XDICTIONARY
360
334
102
}
102
{ACAD_REACTORS
330
64
102
}
330
64
100
AcDbTableStyle
280
     0
  3
Standard
 70
     0
 71
     0
 40
0.06
 41
0.06
280
     0
281
     0
  7
Standard
140
0.18
170
     2
 62
     0
 63
     7
283
     0
 90
      512
 91
        0
  1

274
    -2
284
     1
 64
     0
275
    -2
285
     1
 65
     0
276
    -2
286
     1
 66
     0
277
    -2
287
     1
 67
     0
278
    -2
288
     1
 68
     0
279
    -2
289
     1
 69
     0
  7
Standard
140
0.25
170
     5
 62
     0
 63
     7
283
     0
 90
      512
 91
        0
  1

274
    -2
284
     1
 64
     0
275
    -2
285
     1
 65
     0
276
    -2
286
     1
 66
     0
277
    -2
287
     1
 67
     0
278
    -2
288
     1
 68
     0
279
    -2
289
     1
 69
     0
  7
Standard
140
0.18
170
     5
 62
     0
 63
     7
283
     0
 90
      512
 91
        0
  1

274
    -2
284
     1
 64
     0
275
    -2
285
     1
 65
     0
276
    -2
286
     1
 66
     0
277
    -2
287
     1
 67
     0
278
    -2
288
     1
 68
     0
279
    -2
289
     1
 69
     0
  0
VISUALSTYLE
  5
2F
102
{ACAD_REACTORS
330
29
102
}
330
29
100
AcDbVisualStyle
  2
2dWireframe
 70
     4
177
     2
291
     0
 71
     0
176
     1
 72
     2
176
     1
 73
     0
176
     1
 90
        0
176
     1
 40
0.6
176
     1
 41
30.0
176
     1
 63
     7
421
 16777215
176
     1
 74
     1
176
     1
 91
        4
176
     1
 64
     7
176
     1
 65
   257
176
     1
 75
     1
176
     1
175
     1
176
     1
 42
1.0
176
     1
 92
        0
176
     1
 66
   257
176
     1
 43
1.0
176
     1
 76
     1
176
     1
 77
     6
176
     1
 78
     2
176
     1
 67
     7
176
     1
 79
     5
176
     1
170
     0
176
     1
171
     0
176
     1
290
     0
176
     1
 93
        1
176
     1
 44
0.0
176
     1
173
     0
176
     1
  0
VISUALSTYLE
  5
2E
102
{ACAD_REACTORS
330
29
102
}
330
29
100
AcDbVisualStyle
  2
Basic
 70
     7
177
     2
291
     1
 71
     1
176
     1
 72
     0
176
     1
 73
     1
176
     1
 90
        0
176
     1
 40
0.6
176
     1
 41
30.0
176
     1
 63
     7
421
 16777215
176
     1
 74
     0
176
     1
 91
        4
176
     1
 64
     7
176
     1
 65
   257
176
     1
 75
     1
176
     1
175
     1
176
     1
 42
1.0
176
     1
 92
        8
176
     1
 66
     7
176
     1
 43
1.0
176
     1
 76
     1
176
     1
 77
     6
176
     1
 78
     2
176
     1
 67
     7
176
     1
 79
     5
176
     1
170
     0
176
     1
171
     0
176
     1
290
     0
176
     1
 93
        1
176
     1
 44
0.0
176
     1
173
     0
176
     1
  0
VISUALSTYLE
  5
35
102
{ACAD_REACTORS
330
29
102
}
330
29
100
AcDbVisualStyle
  2
Brighten
 70
    12
177
     2
291
     1
 71
     2
176
     1
 72
     2
176
     1
 73
     0
176
     1
 90
        0
176
     1
 40
0.6
176
     1
 41
30.0
176
     1
 63
     7
421
 16777215
176
     1
 74
     1
176
     1
 91
        4
176
     1
 64
     7
176
     1
 65
   257
176
     1
 75
     1
176
     1
175
     1
176
     1
 42
1.0
176
     1
 92
        8
176
     1
 66
     7
176
     1
 43
1.0
176
     1
 76
     1
176
     1
 77
     6
176
     1
 78
     2
176
     1
 67
     7
176
     1
 79
     5
176
     1
170
     0
176
     1
171
     0
176
     1
290
     0
176
     1
 93
        1
176
     1
 44
50.0
176
     1
173
     0
176
     1
  0
VISUALSTYLE
  5
39
102
{ACAD_REACTORS
330
29
102
}
330
29
100
AcDbVisualStyle
  2
ColorChange
 70
    16
177
     2
291
     1
 71
     2
176
     1
 72
     2
176
     1
 73
     3
176
     1
 90
        0
176
     1
 40
0.6
176
     1
 41
30.0
176
     1
 63
     8
421
  8421504
176
     1
 74
     1
176
     1
 91
        4
176
     1
 64
     7
176
     1
 65
   257
176
     1
 75
     1
176
     1
175
     1
176
     1
 42
1.0
176
     1
 92
        8
176
     1
 66
     8
424
  8421504
176
     1
 43
1.0
176
     1
 76
     1
176
     1
 77
     6
176
     1
 78
     2
176
     1
 67
     7
176
     1
 79
     5
176
     1
170
     0
176
     1
171
     0
176
     1
290
     0
176
     1
 93
        1
176
     1
 44
0.0
176
     1
173
     0
176
     1
  0
VISUALSTYLE
  5
32
102
{ACAD_REACTORS
330
29
102
}
330
29
100
AcDbVisualStyle
  2
Conceptual
 70
     9
177
     2
291
     0
 71
     3
176
     1
 72
     2
176
     1
 73
     0
176
     1
 90
        0
176
     1
 40
0.6
176
     1
 41
30.0
176
     1
 63
     7
421
 16777215
176
     1
 74
     2
176
     1
 91
        2
176
     1
 64
     7
176
     1
 65
   257
176
     1
 75
     1
176
     1
175
     1
176
     1
 42
179.0
176
     1
 92
        8
176
     1
 66
     7
176
     1
 43
1.0
176
     1
 76
     1
176
     1
 77
     6
176
     1
 78
     2
176
     1
 67
     7
176
     1
 79
     3
176
     1
170
     0
176
     1
171
     0
176
     1
290
     0
176
     1
 93
        1
176
     1
 44
0.0
176
     1
173
     0
176
     1
  0
VISUALSTYLE
  5
34
102
{ACAD_REACTORS
330
29
102
}
330
29
100
AcDbVisualStyle
  2
Dim
 70
    11
177
     2
291
     1
 71
     2
176
     1
 72
     2
176
     1
 73
     0
176
     1
 90
        0
176
     1
 40
0.6
176
     1
 41
30.0
176
     1
 63
     7
421
 16777215
176
     1
 74
     1
176
     1
 91
        4
176
     1
 64
     7
176
     1
 65
   257
176
     1
 75
     1
176
     1
175
     1
176
     1
 42
1.0
176
     1
 92
        8
176
     1
 66
     7
176
     1
 43
1.0
176
     1
 76
     1
176
     1
 77
     6
176
     1
 78
     2
176
     1
 67
     7
176
     1
 79
     5
176
     1
170
     0
176
     1
171
     0
176
     1
290
     0
176
     1
 93
        1
176
     1
 44
-50.0
176
     1
173
     0
176
     1
  0
VISUALSTYLE
  5
41
102
{ACAD_REACTORS
330
29
102
}
330
29
100
AcDbVisualStyle
  2
EdgeColorOff
 70
    22
177
     2
291
     1
 71
     2
176
     0
 72
     2
176
     0
 73
     0
176
     0
 90
        0
176
     0
 40
0.6
176
     0
 41
30.0
176
     0
 63
     7
421
 16777215
176
     0
 74
     1
176
     0
 91
        4
176
     0
 64
     7
176
     0
 65
   257
176
     0
 75
     1
176
     0
175
     1
176
     0
 42
1.0
176
     0
 92
        8
176
     2
 66
     7
176
     0
 43
1.0
176
     0
 76
     1
176
     0
 77
     6
176
     0
 78
     2
176
     0
 67
     7
176
     0
 79
     5
176
     0
170
     0
176
     0
171
     0
176
     0
290
     0
176
     0
 93
        1
176
     0
 44
0.0
176
     0
173
     0
176
     0
  0
VISUALSTYLE
  5
38
102
{ACAD_REACTORS
330
29
102
}
330
29
100
AcDbVisualStyle
  2
Facepattern
 70
    15
177
     2
291
     1
 71
     2
176
     1
 72
     2
176
     1
 73
     0
176
     1
 90
        0
176
     1
 40
0.6
176
     1
 41
30.0
176
     1
 63
     7
421
 16777215
176
     1
 74
     1
176
     1
 91
        4
176
     1
 64
     7
176
     1
 65
   257
176
     1
 75
     1
176
     1
175
     1
176
     1
 42
1.0
176
     1
 92
        8
176
     1
 66
     7
176
     1
 43
1.0
176
     1
 76
     1
176
     1
 77
     6
176
     1
 78
     2
176
     1
 67
     7
176
     1
 79
     5
176
     1
170
     0
176
     1
171
     0
176
     1
290
     0
176
     1
 93
        1
176
     1
 44
0.0
176
     1
173
     0
176
     1
  0
VISUALSTYLE
  5
2A
102
{ACAD_REACTORS
330
29
102
}
330
29
100
AcDbVisualStyle
  2
Flat
 70
     0
177
     2
291
     1
 71
     2
176
     1
 72
     1
176
     1
 73
     1
176
     1
 90
        2
176
     1
 40
0.6
176
     1
 41
30.0
176
     1
 63
     7
421
 16777215
176
     1
 74
     0
176
     1
 91
        0
176
     1
 64
     7
176
     1
 65
   257
176
     1
 75
     1
176
     1
175
     1
176
     1
 42
1.0
176
     1
 92
        8
176
     1
 66
     7
176
     1
 43
1.0
176
     1
 76
     1
176
     1
 77
     6
176
     1
 78
     2
176
     1
 67
     7
176
     1
 79
     5
176
     1
170
     0
176
     1
171
     0
176
     1
290
     0
176
     1
 93
       13
176
     1
 44
0.0
176
     1
173
     0
176
     1
  0
VISUALSTYLE
  5
2B
102
{ACAD_REACTORS
330
29
102
}
330
29
100
AcDbVisualStyle
  2
FlatWithEdges
 70
     1
177
     2
291
     1
 71
     2
176
     1
 72
     1
176
     1
 73
     1
176
     1
 90
        2
176
     1
 40
0.6
176
     1
 41
30.0
176
     1
 63
     7
421
 16777215
176
     1
 74
     1
176
     1
 91
        0
176
     1
 64
     7
176
     1
 65
   257
176
     1
 75
     1
176
     1
175
     1
176
     1
 42
1.0
176
     1
 92
        0
176
     1
 66
   257
176
     1
 43
1.0
176
     1
 76
     1
176
     1
 77
     6
176
     1
 78
     2
176
     1
 67
     7
176
     1
 79
     5
176
     1
170
     0
176
     1
171
     0
176
     1
290
     0
176
     1
 93
       13
176
     1
 44
0.0
176
     1
173
     0
176
     1
  0
VISUALSTYLE
  5
2C
102
{ACAD_REACTORS
330
29
102
}
330
29
100
AcDbVisualStyle
  2
Gouraud
 70
     2
177
     2
291
     1
 71
     2
176
     1
 72
     2
176
     1
 73
     1
176
     1
 90
        2
176
     1
 40
0.6
176
     1
 41
30.0
176
     1
 63
     7
421
 16777215
176
     1
 74
     0
176
     1
 91
        0
176
     1
 64
     7
176
     1
 65
   257
176
     1
 75
     1
176
     1
175
     1
176
     1
 42
1.0
176
     1
 92
        0
176
     1
 66
     7
176
     1
 43
1.0
176
     1
 76
     1
176
     1
 77
     6
176
     1
 78
     2
176
     1
 67
     7
176
     1
 79
     5
176
     1
170
     0
176
     1
171
     0
176
     1
290
     0
176
     1
 93
       13
176
     1
 44
0.0
176
     1
173
     0
176
     1
  0
VISUALSTYLE
  5
2D
102
{ACAD_REACTORS
330
29
102
}
330
29
100
AcDbVisualStyle
  2
GouraudWithEdges
 70
     3
177
     2
291
     1
 71
     2
176
     1
 72
     2
176
     1
 73
     1
176
     1
 90
        2
176
     1
 40
0.6
176
     1
 41
30.0
176
     1
 63
     7
421
 16777215
176
     1
 74
     1
176
     1
 91
        0
176
     1
 64
     7
176
     1
 65
   257
176
     1
 75
     1
176
     1
175
     1
176
     1
 42
1.0
176
     1
 92
        0
176
     1
 66
   257
176
     1
 43
1.0
176
     1
 76
     1
176
     1
 77
     6
176
     1
 78
     2
176
     1
 67
     7
176
     1
 79
     5
176
     1
170
     0
176
     1
171
     0
176
     1
290
     0
176
     1
 93
       13
176
     1
 44
0.0
176
     1
173
     0
176
     1
  0
VISUALSTYLE
  5
31
102
{ACAD_REACTORS
330
29
102
}
330
29
100
AcDbVisualStyle
  2
Hidden
 70
     6
177
     2
291
     0
 71
     1
176
     1
 72
     2
176
     1
 73
     2
176
     1
 90
        0
176
     1
 40
0.6
176
     1
 41
30.0
176
     1
 63
     7
421
 16777215
176
     1
 74
     2
176
     1
 91
        2
176
     1
 64
     7
176
     1
 65
   257
176
     1
 75
     2
176
     1
175
     1
176
     1
 42
40.0
176
     1
 92
        0
176
     1
 66
   257
176
     1
 43
1.0
176
     1
 76
     1
176
     1
 77
     6
176
     1
 78
     2
176
     1
 67
     7
176
     1
 79
     3
176
     1
170
     0
176
     1
171
     0
176
     1
290
     0
176
     1
 93
        1
176
     1
 44
0.0
176
     1
173
     0
176
     1
  0
VISUALSTYLE
  5
3F
102
{ACAD_REACTORS
330
29
102
}
330
29
100
AcDbVisualStyle
  2
JitterOff
 70
    20
177
     2
291
     1
 71
     2
176
     0
 72
     2
176
     0
 73
     0
176
     0
 90
        0
176
     0
 40
0.6
176
     0
 41
30.0
176
     0
 63
     7
421
 16777215
176
     0
 74
     1
176
     0
 91
        4
176
     0
 64
     7
176
     0
 65
   257
176
     0
 75
     1
176
     0
175
     1
176
     0
 42
1.0
176
     0
 92
       10
176
     2
 66
     7
176
     0
 43
1.0
176
     0
 76
     1
176
     0
 77
     6
176
     0
 78
     2
176
     0
 67
     7
176
     0
 79
     5
176
     0
170
     0
176
     0
171
     0
176
     0
290
     0
176
     0
 93
        1
176
     0
 44
0.0
176
     0
173
     0
176
     0
  0
VISUALSTYLE
  5
37
102
{ACAD_REACTORS
330
29
102
}
330
29
100
AcDbVisualStyle
  2
Linepattern
 70
    14
177
     2
291
     1
 71
     2
176
     1
 72
     2
176
     1
 73
     0
176
     1
 90
        0
176
     1
 40
0.6
176
     1
 41
30.0
176
     1
 63
     7
421
 16777215
176
     1
 74
     1
176
     1
 91
        4
176
     1
 64
     7
176
     1
 65
   257
176
     1
 75
     7
176
     1
175
     7
176
     1
 42
1.0
176
     1
 92
        8
176
     1
 66
     7
176
     1
 43
1.0
176
     1
 76
     1
176
     1
 77
     6
176
     1
 78
     2
176
     1
 67
     7
176
     1
 79
     5
176
     1
170
     0
176
     1
171
     0
176
     1
290
     0
176
     1
 93
        1
176
     1
 44
0.0
176
     1
173
     0
176
     1
  0
VISUALSTYLE
  5
40
102
{ACAD_REACTORS
330
29
102
}
330
29
100
AcDbVisualStyle
  2
OverhangOff
 70
    21
177
     2
291
     1
 71
     2
176
     0
 72
     2
176
     0
 73
     0
176
     0
 90
        0
176
     0
 40
0.6
176
     0
 41
30.0
176
     0
 63
     7
421
 16777215
176
     0
 74
     1
176
     0
 91
        4
176
     0
 64
     7
176
     0
 65
   257
176
     0
 75
     1
176
     0
175
     1
176
     0
 42
1.0
176
     0
 92
        9
176
     2
 66
     7
176
     0
 43
1.0
176
     0
 76
     1
176
     0
 77
     6
176
     0
 78
     2
176
     0
 67
     7
176
     0
 79
     5
176
     0
170
     0
176
     0
171
     0
176
     0
290
     0
176
     0
 93
        1
176
     0
 44
0.0
176
     0
173
     0
176
     0
  0
VISUALSTYLE
  5
33
102
{ACAD_REACTORS
330
29
102
}
330
29
100
AcDbVisualStyle
  2
Realistic
 70
     8
177
     2
291
     0
 71
     2
176
     1
 72
     3
176
     1
 73
     0
176
     1
 90
        2
176
     1
 40
0.6
176
     1
 41
30.0
176
     1
 63
     7
421
 16777215
176
     1
 74
     0
176
     1
 91
        0
176
     1
 64
     7
176
     1
 65
   257
176
     1
 75
     1
176
     1
175
     1
176
     1
 42
1.0
176
     1
 92
        8
176
     1
 66
   257
176
     1
 43
1.0
176
     1
 76
     1
176
     1
 77
     6
176
     1
 78
     2
176
     1
 67
     7
176
     1
 79
     3
176
     1
170
     0
176
     1
171
     0
176
     1
290
     0
176
     1
 93
       13
176
     1
 44
0.0
176
     1
173
     0
176
     1
  0
VISUALSTYLE
  5
3E
102
{ACAD_REACTORS
330
29
102
}
330
29
100
AcDbVisualStyle
  2
Shaded
 70
    27
177
     2
291
     0
 71
     2
176
     1
 72
     2
176
     1
 73
     1
176
     1
 90
        2
176
     1
 40
0.6
176
     1
 41
30.0
176
     1
 63
     7
421
 16777215
176
     1
 74
     0
176
     1
 91
        4
176
     1
 64
     7
176
     1
 65
   257
176
     1
 75
     1
176
     1
175
     1
176
     1
 42
1.0
176
     1
 92
        8
176
     1
 66
   257
176
     1
 43
1.0
176
     1
 76
     1
176
     1
 77
     6
176
     1
 78
     2
176
     1
 67
     8
425
  7895160
176
     1
 79
     3
176
     1
170
     0
176
     1
171
     0
176
     1
290
     0
176
     1
 93
        5
176
     1
 44
0.0
176
     1
173
     0
176
     1
  0
VISUALSTYLE
  5
3D
102
{ACAD_REACTORS
330
29
102
}
330
29
100
AcDbVisualStyle
  2
Shaded with edges
 70
    26
177
     2
291
     0
 71
     2
176
     1
 72
     2
176
     1
 73
     1
176
     1
 90
        2
176
     1
 40
0.6
176
     1
 41
30.0
176
     1
 63
     7
421
 16777215
176
     1
 74
     1
176
     1
 91
       10
176
     1
 64
     7
176
     1
 65
   257
176
     1
 75
     2
176
     1
175
     1
176
     1
 42
1.0
176
     1
 92
        8
176
     1
 66
   257
176
     1
 43
1.0
176
     1
 76
     1
176
     1
 77
     6
176
     1
 78
     2
176
     1
 67
     7
176
     1
 79
     3
176
     1
170
     0
176
     1
171
     0
176
     1
290
     0
176
     1
 93
        5
176
     1
 44
0.0
176
     1
173
     0
176
     1
  0
VISUALSTYLE
  5
3A
102
{ACAD_REACTORS
330
29
102
}
330
29
100
AcDbVisualStyle
  2
Shades of Gray
 70
    23
177
     2
291
     0
 71
     2
176
     1
 72
     2
176
     1
 73
     3
176
     1
 90
        0
176
     1
 40
0.6
176
     1
 41
30.0
176
     1
 63
     7
421
 16777215
176
     1
 74
     2
176
     1
 91
        2
176
     1
 64
     7
176
     1
 65
     7
176
     1
 75
     1
176
     1
175
     1
176
     1
 42
40.0
176
     1
 92
        8
176
     1
 66
     7
176
     1
 43
1.0
176
     1
 76
     1
176
     1
 77
     6
176
     1
 78
     2
176
     1
 67
     7
176
     1
 79
     3
176
     1
170
     0
176
     1
171
     0
176
     1
290
     0
176
     1
 93
        1
176
     1
 44
0.0
176
     1
173
     0
176
     1
  0
VISUALSTYLE
  5
3B
102
{ACAD_REACTORS
330
29
102
}
330
29
100
AcDbVisualStyle
  2
Sketchy
 70
    24
177
     2
291
     0
 71
     1
176
     1
 72
     2
176
     1
 73
     2
176
     1
 90
        0
176
     1
 40
0.6
176
     1
 41
30.0
176
     1
 63
     7
421
 16777215
176
     1
 74
     2
176
     1
 91
        2
176
     1
 64
     7
176
     1
 65
     7
176
     1
 75
     1
176
     1
175
     1
176
     1
 42
40.0
176
     1
 92
       11
176
     1
 66
     7
176
     1
 43
1.0
176
     1
 76
     1
176
     1
 77
     6
176
     1
 78
     2
176
     1
 67
     7
176
     1
 79
     6
176
     1
170
     0
176
     1
171
     0
176
     1
290
     0
176
     1
 93
        1
176
     1
 44
0.0
176
     1
173
     0
176
     1
  0
VISUALSTYLE
  5
36
102
{ACAD_REACTORS
330
29
102
}
330
29
100
AcDbVisualStyle
  2
Thicken
 70
    13
177
     2
291
     1
 71
     2
176
     1
 72
     2
176
     1
 73
     0
176
     1
 90
        0
176
     1
 40
0.6
176
     1
 41
30.0
176
     1
 63
     7
421
 16777215
176
     1
 74
     1
176
     1
 91
        4
176
     1
 64
     7
176
     1
 65
   257
176
     1
 75
     1
176
     1
175
     1
176
     1
 42
1.0
176
     1
 92
       12
176
     1
 66
     7
176
     1
 43
1.0
176
     1
 76
     1
176
     1
 77
     6
176
     1
 78
     2
176
     1
 67
     7
176
     1
 79
     5
176
     1
170
     0
176
     1
171
     0
176
     1
290
     0
176
     1
 93
        1
176
     1
 44
0.0
176
     1
173
     0
176
     1
  0
VISUALSTYLE
  5
30
102
{ACAD_REACTORS
330
29
102
}
330
29
100
AcDbVisualStyle
  2
Wireframe
 70
     5
177
     2
291
     0
 71
     0
176
     1
 72
     2
176
     1
 73
     0
176
     1
 90
        0
176
     1
 40
0.6
176
     1
 41
30.0
176
     1
 63
     7
421
 16777215
176
     1
 74
     1
176
     1
 91
        4
176
     1
 64
     7
176
     1
 65
   257
176
     1
 75
     1
176
     1
175
     1
176
     1
 42
1.0
176
     1
 92
        0
176
     1
 66
   257
176
     1
 43
1.0
176
     1
 76
     1
176
     1
 77
     6
176
     1
 78
     2
176
     1
 67
     7
176
     1
 79
     3
176
     1
170
     0
176
     1
171
     0
176
     1
290
     0
176
     1
 93
        1
176
     1
 44
0.0
176
     1
173
     0
176
     1
  0
VISUALSTYLE
  5
3C
102
{ACAD_REACTORS
330
29
102
}
330
29
100
AcDbVisualStyle
  2
X-Ray
 70
    25
177
     2
291
     0
 71
     2
176
     1
 72
     2
176
     1
 73
     1
176
     1
 90
        1
176
     1
 40
0.5
176
     1
 41
30.0
176
     1
 63
     7
421
 16777215
176
     1
 74
     1
176
     1
 91
        0
176
     1
 64
     7
176
     1
 65
   257
176
     1
 75
     1
176
     1
175
     1
176
     1
 42
1.0
176
     1
 92
        8
176
     1
 66
     7
176
     1
 43
1.0
176
     1
 76
     1
176
     1
 77
     6
176
     1
 78
     2
176
     1
 67
     7
176
     1
 79
     3
176
     1
170
     0
176
     1
171
     0
176
     1
290
     0
176
     1
 93
       13
176
     1
 44
0.0
176
     1
173
     0
176
     1
  0
DICTIONARYVAR
  5
333
102
{ACAD_REACTORS
330
330
102
}
330
330
100
DictionaryVariables
280
     0
  1
1:1
  0
DICTIONARYVAR
  5
332
102
{ACAD_REACTORS
330
330
102
}
330
330
100
DictionaryVariables
280
     0
  1
STANDARD
  0
DICTIONARYVAR
  5
331
102
{ACAD_REACTORS
330
330
102
}
330
330
100
DictionaryVariables
280
     0
  1
STANDARD
  0
DICTIONARY
  5
1A
330
19
100
AcDbDictionary
280
     1
281
     1
  3
BUMPTILE
360
1C
  3
DIFFUSETILE
360
1B
  3
OPACITYTILE
360
1F
  3
REFLECTIONTILE
360
1E
  3
REFRACTIONTILE
360
20
  3
SPECULARTILE
360
1D
  0
DICTIONARY
  5
12
330
11
100
AcDbDictionary
280
     1
281
     1
  3
BUMPTILE
360
14
  3
DIFFUSETILE
360
13
  3
OPACITYTILE
360
17
  3
REFLECTIONTILE
360
16
  3
REFRACTIONTILE
360
18
  3
SPECULARTILE
360
15
  0
DICTIONARY
  5
22
330
21
100
AcDbDictionary
280
     1
281
     1
  3
BUMPTILE
360
24
  3
DIFFUSETILE
360
23
  3
OPACITYTILE
360
27
  3
REFLECTIONTILE
360
26
  3
REFRACTIONTILE
360
28
  3
SPECULARTILE
360
25
  0
DICTIONARY
  5
334
330
65
100
AcDbDictionary
280
     1
281
     1
  3
ACAD_ROUNDTRIP_2008_TABLESTYLE_CELLSTYLEMAP
360
335
  0
XRECORD
  5
1C
102
{ACAD_REACTORS
330
1A
102
}
330
1A
100
AcDbXrecord
280
     1
270
     1
271
     1
  0
XRECORD
  5
1B
102
{ACAD_REACTORS
330
1A
102
}
330
1A
100
AcDbXrecord
280
     1
270
     1
271
     1
  0
XRECORD
  5
1F
102
{ACAD_REACTORS
330
1A
102
}
330
1A
100
AcDbXrecord
280
     1
270
     1
271
     1
  0
XRECORD
  5
1E
102
{ACAD_REACTORS
330
1A
102
}
330
1A
100
AcDbXrecord
280
     1
270
     1
271
     1
  0
XRECORD
  5
20
102
{ACAD_REACTORS
330
1A
102
}
330
1A
100
AcDbXrecord
280
     1
270
     1
271
     1
  0
XRECORD
  5
1D
102
{ACAD_REACTORS
330
1A
102
}
330
1A
100
AcDbXrecord
280
     1
270
     1
271
     1
  0
XRECORD
  5
14
102
{ACAD_REACTORS
330
12
102
}
330
12
100
AcDbXrecord
280
     1
270
     1
271
     1
  0
XRECORD
  5
13
102
{ACAD_REACTORS
330
12
102
}
330
12
100
AcDbXrecord
280
     1
270
     1
271
     1
  0
XRECORD
  5
17
102
{ACAD_REACTORS
330
12
102
}
330
12
100
AcDbXrecord
280
     1
270
     1
271
     1
  0
XRECORD
  5
16
102
{ACAD_REACTORS
330
12
102
}
330
12
100
AcDbXrecord
280
     1
270
     1
271
     1
  0
XRECORD
  5
18
102
{ACAD_REACTORS
330
12
102
}
330
12
100
AcDbXrecord
280
     1
270
     1
271
     1
  0
XRECORD
  5
15
102
{ACAD_REACTORS
330
12
102
}
330
12
100
AcDbXrecord
280
     1
270
     1
271
     1
  0
XRECORD
  5
24
102
{ACAD_REACTORS
330
22
102
}
330
22
100
AcDbXrecord
280
     1
270
     1
271
     1
  0
XRECORD
  5
23
102
{ACAD_REACTORS
330
22
102
}
330
22
100
AcDbXrecord
280
     1
270
     1
271
     1
  0
XRECORD
  5
27
102
{ACAD_REACTORS
330
22
102
}
330
22
100
AcDbXrecord
280
     1
270
     1
271
     1
  0
XRECORD
  5
26
102
{ACAD_REACTORS
330
22
102
}
330
22
100
AcDbXrecord
280
     1
270
     1
271
     1
  0
XRECORD
  5
28
102
{ACAD_REACTORS
330
22
102
}
330
22
100
AcDbXrecord
280
     1
270
     1
271
     1
  0
XRECORD
  5
25
102
{ACAD_REACTORS
330
22
102
}
330
22
100
AcDbXrecord
280
     1
270
     1
271
     1
  0
CELLSTYLEMAP
  5
335
102
{ACAD_REACTORS
330
334
102
}
330
334
100
AcDbCellStyleMap
 90
        3
300
CELLSTYLE
  1
TABLEFORMAT_BEGIN
 90
        5
170
     1
 91
        0
 92
    32768
 62
   257
 93
        1
300
CONTENTFORMAT
  1
CONTENTFORMAT_BEGIN
 90
        0
 91
        0
 92
      512
 93
        0
300

 40
0.0
140
1.0
 94
        5
 62
     0
340
55
144
0.25
309
CONTENTFORMAT_END
171
     0
 94
        0
309
TABLEFORMAT_END
  1
CELLSTYLE_BEGIN
 90
        1
 91
        1
300
_TITLE
309
CELLSTYLE_END
300
CELLSTYLE
  1
TABLEFORMAT_BEGIN
 90
        5
170
     1
 91
        0
 92
        0
 62
   257
 93
        1
300
CONTENTFORMAT
  1
CONTENTFORMAT_BEGIN
 90
        0
 91
        0
 92
      512
 93
        0
300

 40
0.0
140
1.0
 94
        5
 62
     0
340
55
144
0.18
309
CONTENTFORMAT_END
171
     0
 94
        0
309
TABLEFORMAT_END
  1
CELLSTYLE_BEGIN
 90
        2
 91
        1
300
_HEADER
309
CELLSTYLE_END
300
CELLSTYLE
  1
TABLEFORMAT_BEGIN
 90
        5
170
     1
 91
        0
 92
        0
 62
   257
 93
        1
300
CONTENTFORMAT
  1
CONTENTFORMAT_BEGIN
 90
        0
 91
        0
 92
      512
 93
        0
300

 40
0.0
140
1.0
 94
        2
 62
     0
340
55
144
0.18
309
CONTENTFORMAT_END
171
     0
 94
        0
309
TABLEFORMAT_END
  1
CELLSTYLE_BEGIN
 90
        3
 91
        2
300
_DATA
309
CELLSTYLE_END
  0
ENDSEC
  0
EOF
