  0
SECTION
  2
HEADER
  9
$ACADVER
  1
AC1015
  9
$ACADMAINTVER
 70
    20
  9
$DWGCODEPAGE
  3
ANSI_932
  9
$INSBASE
 10
0.0
 20
0.0
 30
0.0
  9
$EXTMIN
 10
151.1224158906964
 20
284.0948710469871
 30
0.0
  9
$EXTMAX
 10
257.837213280993
 20
376.9497053247162
 30
0.0
  9
$LIMMIN
 10
111.9519891780935
 20
253.7721357807053
  9
$LIMMAX
 10
321.9734177495221
 20
402.2721357807053
  9
$ORTHOMODE
 70
     0
  9
$REGENMODE
 70
     1
  9
$FILLMODE
 70
     1
  9
$QTEXTMODE
 70
     0
  9
$MIRRTEXT
 70
     1
  9
$LTSCALE
 40
0.5
  9
$ATTMODE
 70
     1
  9
$TEXTSIZE
 40
1.5
  9
$TRACEWID
 40
1.0
  9
$TEXTSTYLE
  7
STANDARD
  9
$CLAYER
  8
AM_0
  9
$CELTYPE
  6
ByLayer
  9
$CECOLOR
 62
   256
  9
$CELTSCALE
 40
1.0
  9
$DISPSILH
 70
     0
  9
$DIMSCALE
 40
0.5
  9
$DIMASZ
 40
2.5
  9
$DIMEXO
 40
1.0
  9
$DIMDLI
 40
10.0
  9
$DIMRND
 40
0.0
  9
$DIMDLE
 40
0.0
  9
$DIMEXE
 40
1.0
  9
$DIMTP
 40
0.1
  9
$DIMTM
 40
0.1
  9
$DIMTXT
 40
3.5
  9
$DIMCEN
 40
0.0
  9
$DIMTSZ
 40
0.0
  9
$DIMTOL
 70
     0
  9
$DIMLIM
 70
     0
  9
$DIMTIH
 70
     0
  9
$DIMTOH
 70
     0
  9
$DIMSE1
 70
     0
  9
$DIMSE2
 70
     0
  9
$DIMTAD
 70
     3
  9
$DIMZIN
 70
     8
  9
$DIMBLK
  1
Open30
  9
$DIMASO
 70
     1
  9
$DIMSHO
 70
     1
  9
$DIMPOST
  1

  9
$DIMAPOST
  1
"
  9
$DIMALT
 70
     0
  9
$DIMALTD
 70
     2
  9
$DIMALTF
 40
0.0393701
  9
$DIMLFAC
 40
1.0
  9
$DIMTOFL
 70
     1
  9
$DIMTVP
 40
0.0
  9
$DIMTIX
 70
     0
  9
$DIMSOXD
 70
     0
  9
$DIMSAH
 70
     0
  9
$DIMBLK1
  1
Open30
  9
$DIMBLK2
  1
Open30
  9
$DIMSTYLE
  2
AM_JIS
  9
$DIMCLRD
 70
   256
  9
$DIMCLRE
 70
   256
  9
$DIMCLRT
 70
     2
  9
$DIMTFAC
 40
0.71
  9
$DIMGAP
 40
1.5
  9
$DIMJUST
 70
     0
  9
$DIMSD1
 70
     0
  9
$DIMSD2
 70
     0
  9
$DIMTOLJ
 70
     0
  9
$DIMTZIN
 70
     0
  9
$DIMALTZ
 70
     0
  9
$DIMALTTZ
 70
     0
  9
$DIMUPT
 70
     0
  9
$DIMDEC
 70
     2
  9
$DIMTDEC
 70
     3
  9
$DIMALTU
 70
     2
  9
$DIMALTTD
 70
     4
  9
$DIMTXSTY
  7
STANDARD
  9
$DIMAUNIT
 70
     0
  9
$DIMADEC
 70
     0
  9
$DIMALTRND
 40
0.0
  9
$DIMAZIN
 70
     2
  9
$DIMDSEP
 70
    46
  9
$DIMATFIT
 70
     3
  9
$DIMFRAC
 70
     0
  9
$DIMLDRBLK
  1
Open30
  9
$DIMLUNIT
 70
     2
  9
$DIMLWD
 70
    -1
  9
$DIMLWE
 70
    -1
  9
$DIMTMOVE
 70
     0
  9
$LUNITS
 70
     2
  9
$LUPREC
 70
     2
  9
$SKETCHINC
 40
1.0
  9
$FILLETRAD
 40
0.5
  9
$AUNITS
 70
     0
  9
$AUPREC
 70
     0
  9
$MENU
  1
.
  9
$ELEVATION
 40
0.0
  9
$PELEVATION
 40
0.0
  9
$THICKNESS
 40
0.0
  9
$LIMCHECK
 70
     0
  9
$CHAMFERA
 40
0.5
  9
$CHAMFERB
 40
0.5
  9
$CHAMFERC
 40
0.5
  9
$CHAMFERD
 40
0.7853981633974518
  9
$SKPOLY
 70
     0
  9
$TDCREATE
 40
2453060.746216852
  9
$TDUCREATE
 40
2453060.371216852
  9
$TDUPDATE
 40
2456104.629109329
  9
$TDUUPDATE
 40
2456104.254109328
  9
$TDINDWG
 40
0.3334362963
  9
$TDUSRTIMER
 40
0.3334362963
  9
$USRTIMER
 70
     1
  9
$ANGBASE
 50
0.0
  9
$ANGDIR
 70
     0
  9
$PDMODE
 70
     0
  9
$PDSIZE
 40
0.0
  9
$PLINEWID
 40
0.0
  9
$SPLFRAME
 70
     0
  9
$SPLINETYPE
 70
     6
  9
$SPLINESEGS
 70
     8
  9
$HANDSEED
  5
44C0
  9
$SURFTAB1
 70
     6
  9
$SURFTAB2
 70
     6
  9
$SURFTYPE
 70
     6
  9
$SURFU
 70
     6
  9
$SURFV
 70
     6
  9
$UCSBASE
  2

  9
$UCSNAME
  2

  9
$UCSORG
 10
0.0
 20
0.0
 30
0.0
  9
$UCSXDIR
 10
1.0
 20
0.0
 30
0.0
  9
$UCSYDIR
 10
0.0
 20
1.0
 30
0.0
  9
$UCSORTHOREF
  2

  9
$UCSORTHOVIEW
 70
     0
  9
$UCSORGTOP
 10
0.0
 20
0.0
 30
0.0
  9
$UCSORGBOTTOM
 10
0.0
 20
0.0
 30
0.0
  9
$UCSORGLEFT
 10
0.0
 20
0.0
 30
0.0
  9
$UCSORGRIGHT
 10
0.0
 20
0.0
 30
0.0
  9
$UCSORGFRONT
 10
0.0
 20
0.0
 30
0.0
  9
$UCSORGBACK
 10
0.0
 20
0.0
 30
0.0
  9
$PUCSBASE
  2

  9
$PUCSNAME
  2

  9
$PUCSORG
 10
0.0
 20
0.0
 30
0.0
  9
$PUCSXDIR
 10
1.0
 20
0.0
 30
0.0
  9
$PUCSYDIR
 10
0.0
 20
1.0
 30
0.0
  9
$PUCSORTHOREF
  2

  9
$PUCSORTHOVIEW
 70
     0
  9
$PUCSORGTOP
 10
0.0
 20
0.0
 30
0.0
  9
$PUCSORGBOTTOM
 10
0.0
 20
0.0
 30
0.0
  9
$PUCSORGLEFT
 10
0.0
 20
0.0
 30
0.0
  9
$PUCSORGRIGHT
 10
0.0
 20
0.0
 30
0.0
  9
$PUCSORGFRONT
 10
0.0
 20
0.0
 30
0.0
  9
$PUCSORGBACK
 10
0.0
 20
0.0
 30
0.0
  9
$USERI1
 70
     0
  9
$USERI2
 70
     0
  9
$USERI3
 70
     0
  9
$USERI4
 70
     0
  9
$USERI5
 70
     0
  9
$USERR1
 40
0.0
  9
$USERR2
 40
0.0
  9
$USERR3
 40
0.0
  9
$USERR4
 40
0.0
  9
$USERR5
 40
0.0
  9
$WORLDVIEW
 70
     1
  9
$SHADEDGE
 70
     3
  9
$SHADEDIF
 70
    70
  9
$TILEMODE
 70
     1
  9
$MAXACTVP
 70
    64
  9
$PINSBASE
 10
0.0
 20
0.0
 30
0.0
  9
$PLIMCHECK
 70
     0
  9
$PEXTMIN
 10
1.000000000000000E+20
 20
1.000000000000000E+20
 30
1.000000000000000E+20
  9
$PEXTMAX
 10
-1.000000000000000E+20
 20
-1.000000000000000E+20
 30
-1.000000000000000E+20
  9
$PLIMMIN
 10
0.0
 20
0.0
  9
$PLIMMAX
 10
420.0
 20
297.0
  9
$UNITMODE
 70
     0
  9
$VISRETAIN
 70
     1
  9
$PLINEGEN
 70
     0
  9
$PSLTSCALE
 70
     1
  9
$TREEDEPTH
 70
  3020
  9
$CMLSTYLE
  2
Standard
  9
$CMLJUST
 70
     0
  9
$CMLSCALE
 40
20.0
  9
$PROXYGRAPHICS
 70
     1
  9
$MEASUREMENT
 70
     1
  9
$CELWEIGHT
370
    -1
  9
$ENDCAPS
280
     0
  9
$JOINSTYLE
280
     0
  9
$LWDISPLAY
290
     0
  9
$INSUNITS
 70
     4
  9
$HYPERLINKBASE
  1

  9
$STYLESHEET
  1
IMAGIO.ctb
  9
$XEDIT
290
     1
  9
$CEPSNTYPE
380
     0
  9
$PSTYLEMODE
290
     1
  9
$FINGERPRINTGUID
  2
{E9837AF4-F598-11D4-A28F-00004C61E3BD}
  9
$VERSIONGUID
  2
{D8BB86AD-2163-4AE1-A11B-15638FA714AF}
  9
$EXTNAMES
290
     1
  9
$PSVPSCALE
 40
0.0
  9
$OLESTARTUP
290
     0
  0
ENDSEC
  0
SECTION
  2
CLASSES
  0
CLASS
  1
ACDBDICTIONARYWDFLT
  2
AcDbDictionaryWithDefault
  3
ObjectDBX Classes
 90
        0
280
     0
281
     0
  0
CLASS
  1
ACDBPLACEHOLDER
  2
AcDbPlaceHolder
  3
ObjectDBX Classes
 90
        0
280
     0
281
     0
  0
CLASS
  1
LAYOUT
  2
AcDbLayout
  3
ObjectDBX Classes
 90
        0
280
     0
281
     0
  0
CLASS
  1
AMGSETTINGSOBJ
  2
AmgSettingsObj
  3
"AcadM|Product Description: AutoCAD Mechanical|Company: Autodesk, Inc."
 90
     1024
280
     0
281
     0
  0
CLASS
  1
ACME_DOCUMENT
  2
AcMeDbDoc
  3
AcMeServices
 90
     1024
280
     0
281
     0
  0
CLASS
  1
ACMESCOPE
  2
AcMeScope
  3
AcMeServices
 90
     1024
280
     0
281
     0
  0
CLASS
  1
ACMECOMMANDHISTORY
  2
AcMeCommandHistory
  3
AcMeServices
 90
     1024
280
     0
281
     0
  0
CLASS
  1
DICTIONARYVAR
  2
AcDbDictionaryVar
  3
ObjectDBX Classes
 90
        0
280
     0
281
     0
  0
CLASS
  1
ACIMSYSVARMAN
  2
AcImSysVarManager
  3
AcMeServices
 90
     1024
280
     0
281
     0
  0
CLASS
  1
ACIMREALSYSVAR
  2
AcImRealSysVar
  3
AcMeServices
 90
     1024
280
     0
281
     0
  0
CLASS
  1
ACIMINTSYSVAR
  2
AcImIntSysVar
  3
AcMeServices
 90
     1024
280
     0
281
     0
  0
CLASS
  1
ACMEDRAWINGMAN
  2
AcMeDrawingMan
  3
AcMeServices
 90
    33792
280
     0
281
     0
  0
CLASS
  1
ACMEVIEW
  2
AcMeView
  3
AcMeServices
 90
    33792
280
     0
281
     0
  0
CLASS
  1
ACDBENTITYCACHE
  2
AcMeEntityCache
  3
AcMeServices
 90
     1024
280
     0
281
     0
  0
CLASS
  1
GSMANAGER
  2
AcMeGSManager
  3
AcMeServices
 90
    32768
280
     0
281
     0
  0
CLASS
  1
AMDTINTERNALREACTOR
  2
AmdtInternalReactor
  3
AcMeServices
 90
     1024
280
     0
281
     0
  0
CLASS
  1
ACMESTATEMGR
  2
AcMeStateMgr
  3
AcMeServices
 90
     1024
280
     0
281
     0
  0
CLASS
  1
ACME_DATABASE
  2
AcMeDbDatabase
  3
AcMeServices
 90
     1024
280
     0
281
     0
  0
CLASS
  1
ACRFINSADJUSTERMGR
  2
AcRfInsAdjusterMgr
  3
AcMeServices
 90
     1024
280
     0
281
     0
  0
CLASS
  1
ACMDATADICTIONARY
  2
AcmDataDictionary
  3
"AcmSymBB|Product Description: AutoCAD Mechanical|Company: Autodesk, Inc."
 90
     1024
280
     0
281
     0
  0
CLASS
  1
ACMDATAENTRYBLOCK
  2
AcmDataEntryBlock
  3
AcmSymBB|Product Description: AutoCAD Mechanical|Company: Autodesk, Inc.
 90
     1024
280
     0
281
     0
  0
CLASS
  1
AMGOBJPROPCFG
  2
AmgObjPropCfg
  3
"AmgLay|Product Description: AutoCAD Mechanical|Company: Autodesk, Inc."
 90
     1025
280
     0
281
     0
  0
CLASS
  1
ACAMGFILTERDAT
  2
AcAmgFilterDat
  3
"AcadM|Product Description: AutoCAD Mechanical|Company: Autodesk, Inc."
 90
     1024
280
     0
281
     0
  0
CLASS
  1
LAYER_INDEX
  2
AcDbLayerIndex
  3
ObjectDBX Classes
 90
    32768
280
     0
281
     0
  0
CLASS
  1
IDBUFFER
  2
AcDbIdBuffer
  3
ObjectDBX Classes
 90
    32768
280
     0
281
     0
  0
CLASS
  1
ACIMSTRSYSVAR
  2
AcImStrSysVar
  3
AcMeServices
 90
     1024
280
     0
281
     0
  0
CLASS
  1
ACMSTANDARDJIS
  2
AcmStandardJIS
  3
"Amdt_StdImp|Product Description: AutoCAD Mechanical|Company: Autodesk, Inc."
 90
     1024
280
     0
281
     0
  0
CLASS
  1
ACMSURFSTANDARDJIS
  2
AcmSurfTextStdJIS
  3
"Amdt_StdImp|Product Description: AutoCAD Mechanical|Company: Autodesk, Inc."
 90
     1024
280
     0
281
     0
  0
CLASS
  1
ACMFCFSTANDARDJIS
  2
AcmFCFStdJIS
  3
"Amdt_StdImp|Product Description: AutoCAD Mechanical|Company: Autodesk, Inc."
 90
     1024
280
     0
281
     0
  0
CLASS
  1
ACMWELDSTANDARDJIS
  2
AcmWeldingStdJIS
  3
"Amdt_StdImp|Product Description: AutoCAD Mechanical|Company: Autodesk, Inc."
 90
     1024
280
     0
281
     0
  0
CLASS
  1
ACMIDSTANDARDJIS
  2
AcmIdStdJIS
  3
"Amdt_StdImp|Product Description: AutoCAD Mechanical|Company: Autodesk, Inc."
 90
     1024
280
     0
281
     0
  0
CLASS
  1
ACMDATUMSTANDARDJIS
  2
AcmDatumStdJIS
  3
"Amdt_StdImp|Product Description: AutoCAD Mechanical|Company: Autodesk, Inc."
 90
     1024
280
     0
281
     0
  0
CLASS
  1
ACMBOMSTANDARDJIS
  2
AcmBOMStdJIS
  3
"Amdt_StdImp|Product Description: AutoCAD Mechanical|Company: Autodesk, Inc."
 90
     1024
280
     0
281
     0
  0
CLASS
  1
ACMPARTREF
  2
AcmPartRef
  3
"AcmSymBB|Product Description: AutoCAD Mechanical|Company: Autodesk, Inc."
 90
    36863
280
     0
281
     1
  0
CLASS
  1
NEWSTDPARTPARLIST
  2
AmgNewParListFiler
  3
"AmgParList|Product Description: AutoCAD Mechanical|Company: Autodesk, Inc."
 90
    36863
280
     0
281
     0
  0
CLASS
  1
ACMDATAENTRYPART
  2
AcmDataEntryPart
  3
AcmSymBB|Product Description: AutoCAD Mechanical|Company: Autodesk, Inc.
 90
    33792
280
     0
281
     0
  0
CLASS
  1
ACMPICKOBJ
  2
AcmPickEnt
  3
"AcmSymBB|Product Description: AutoCAD Mechanical|Company: Autodesk, Inc."
 90
    33792
280
     0
281
     1
  0
CLASS
  1
ACMDATAENTRY
  2
AcmDataEntry
  3
AcmSymBB|Product Description: AutoCAD Mechanical|Company: Autodesk, Inc.
 90
     1024
280
     0
281
     0
  0
CLASS
  1
ACMBOM
  2
AcmBom
  3
"AcmSymBB|Product Description: AutoCAD Mechanical|Company: Autodesk, Inc."
 90
     1024
280
     0
281
     0
  0
CLASS
  1
ACMBOMROW
  2
AcmBomRow
  3
"AcmSymBB|Product Description: AutoCAD Mechanical|Company: Autodesk, Inc."
 90
    33792
280
     0
281
     0
  0
CLASS
  1
ACMBALLOON
  2
AcmBalloon
  3
"AcmSymBB|Product Description: AutoCAD Mechanical|Company: Autodesk, Inc."
 90
    36863
280
     0
281
     1
  0
CLASS
  1
ACMPARTLIST
  2
AcmPartList
  3
"AcmSymBB|Product Description: AutoCAD Mechanical|Company: Autodesk, Inc."
 90
    36863
280
     0
281
     1
  0
CLASS
  1
AMDTNOTE
  2
AmdtNote
  3
"AcmSymBB|Product Description: AutoCAD Mechanical|Company: Autodesk, Inc."
 90
    36863
280
     0
281
     1
  0
CLASS
  1
STDPART2D
  2
AmgStdPart
  3
AmgStdPart|Product Description: AutoCAD Mechanical|Company: Autodesk, Inc.
 90
    36863
280
     0
281
     1
  0
CLASS
  1
ACGREFMASTER
  2
AcGrefMaster
  3
AcAttribServices
 90
     1024
280
     0
281
     0
  0
CLASS
  1
AM_DRAWING_MGR
  2
AcDmDwgMgr
  3
AcMechDwgViewMgmt
 90
     1024
280
     0
281
     0
  0
CLASS
  1
AM_DWG_DOCUMENT
  2
AcDmDwgDocument
  3
AcMechDwgViewMgmt
 90
     1024
280
     0
281
     0
  0
CLASS
  1
AM_DWG_SHEET
  2
AcDmSheet
  3
AcMechDwgViewMgmt
 90
     1024
280
     0
281
     0
  0
CLASS
  1
AM_VIEWDIMPARMAP
  2
AcDmViewDimParMap
  3
AcMechDwgViewMgmt
 90
     1024
280
     0
281
     0
  0
CLASS
  1
AM_DWGMGR_NAME
  2
AcDmDwgMgrName
  3
AcMechDwgViewMgmt
 90
     1024
280
     0
281
     0
  0
CLASS
  1
ACGREFACADMASTER
  2
AcGrefacadMaster
  3
AcGrefServices
 90
     1024
280
     0
281
     0
  0
CLASS
  1
AMDTMENUSTATEMGR
  2
AmdtMenuStateMgr
  3
McadcomServices
 90
     1024
280
     0
281
     0
  0
CLASS
  1
AMDTMCOMMENUSTATE
  2
AmdtMcomMenuState
  3
McadcomServices
 90
     1024
280
     0
281
     0
  0
CLASS
  1
AMIMASTER
  2
AmiMaster
  3
AmiServices
 90
     1024
280
     0
281
     0
  0
CLASS
  1
MAPIAMMOUDLE
  2
MApiAmModule
  3
MApiAmServices
 90
     1024
280
     0
281
     0
  0
CLASS
  1
AMDTADMENUSTATE
  2
AmdtAdMenuState
  3
DesignerServices
 90
    32768
280
     0
281
     0
  0
CLASS
  1
ADAPPL
  2
AcAdAppl
  3
DesignerAssemblies
 90
    33792
280
     0
281
     0
  0
CLASS
  1
DEPMGR
  2
AcAdDepMgr
  3
DesignerAssemblies
 90
    33792
280
     0
281
     0
  0
CLASS
  1
PARAMMGR
  2
AcAdParamMgr
  3
DesignerAssemblies
 90
    33792
280
     0
281
     0
  0
CLASS
  1
PARAMSCOPE
  2
AcAdParamScope
  3
DesignerAssemblies
 90
    33792
280
     0
281
     0
  0
CLASS
  1
NAMEDAPPL
  2
AcAdNamedAppl
  3
DesignerAssemblies
 90
    33792
280
     0
281
     0
  0
CLASS
  1
AMDTDMMENUSTATE
  2
AmdtDmMenuState
  3
AcMechDwgViewMgmt
 90
     1024
280
     0
281
     0
  0
CLASS
  1
AMDTAMMENUSTATE
  2
AmdtAmMenuState
  3
DesignerAssemblies
 90
     1024
280
     0
281
     0
  0
CLASS
  1
ACAMPROJECT
  2
AcAmProject
  3
DesignerAssemblies
 90
     1024
280
     0
281
     0
  0
CLASS
  1
ACAMGRCOMPDEF
  2
AcAmGrCompDef
  3
DesignerAssemblies
 90
     1024
280
     0
281
     0
  0
CLASS
  1
ACCMCONTEXT
  2
AcCmContext
  3
DesignerAssemblies
 90
     1024
280
     0
281
     0
  0
CLASS
  1
ACAMCOMPDEF
  2
AcAmCompDef
  3
DesignerAssemblies
 90
     1024
280
     0
281
     0
  0
CLASS
  1
ACAMCOMPDEFMGR
  2
AcAmCompDefMgr
  3
DesignerAssemblies
 90
     1024
280
     0
281
     0
  0
CLASS
  1
AMCONTEXTMGR
  2
AcAmContextMgr
  3
DesignerAssemblies
 90
     1024
280
     0
281
     0
  0
CLASS
  1
ACAMCONTEXTMODELER
  2
AcAmContextModeler
  3
DesignerAssemblies
 90
     1024
280
     0
281
     0
  0
CLASS
  1
AMDTFORMULAUPDATEDISPATCHER
  2
AmdtFormulaUpdateDispatcher
  3
AcMeServices
 90
     1024
280
     0
281
     0
  0
CLASS
  1
ACAMGTITLESTD
  2
AcAmgTitleStd
  3
"AmgTitle|Product Description: AutoCAD Mechanical|Company: Autodesk, Inc."
 90
     4095
280
     0
281
     0
  0
CLASS
  1
ACMDETAILSTANDARDJIS
  2
AmdtDetailSymStdJIS
  3
"Amdt_StdImp|Product Description: AutoCAD Mechanical|Company: Autodesk, Inc."
 90
     1024
280
     0
281
     0
  0
CLASS
  1
ACMSECTIONSTANDARDJIS
  2
AmdtSectionSymStdJIS
  3
"Amdt_StdImp|Product Description: AutoCAD Mechanical|Company: Autodesk, Inc."
 90
     1024
280
     0
281
     0
  0
CLASS
  1
ACMCENTERLINESTANDARDJIS
  2
AmdtCenterLineStdJIS
  3
"Amdt_StdImp|Product Description: AutoCAD Mechanical|Company: Autodesk, Inc."
 90
     1024
280
     0
281
     0
  0
CLASS
  1
ACMTHREADLINESTANDARDJIS
  2
AmdtThreadLineStdJIS
  3
"Amdt_StdImp|Product Description: AutoCAD Mechanical|Company: Autodesk, Inc."
 90
     1024
280
     0
281
     0
  0
CLASS
  1
ACMNOTESTANDARDJIS
  2
AmdtNoteStdJIS
  3
"Amdt_StdImp|Product Description: AutoCAD Mechanical|Company: Autodesk, Inc."
 90
     1024
280
     0
281
     0
  0
CLASS
  1
AMDTNOTETEMPLATEDB
  2
AmdtNoteTemplateDB
  3
AcmSymBB|Product Description: AutoCAD Mechanical|Company: Autodesk, Inc.
 90
     1024
280
     0
281
     0
  0
CLASS
  1
ACAMGLAYSTD
  2
AcAmgLayStd
  3
"AmgLay|Product Description: AutoCAD Mechanical|Company: Autodesk, Inc."
 90
     1024
280
     0
281
     0
  0
CLASS
  1
ACAMGDIMSTD
  2
AcAmgDimStd
  3
"AmgDim|Product Description: AutoCAD Mechanical|Company: Autodesk, Inc."
 90
     1024
280
     0
281
     0
  0
CLASS
  1
ACAMGHOLECHARTSTDJIS
  2
AcAmgHoleChartStdJIS
  3
AmgDim|Product Description: AutoCAD Mechanical|Company: Autodesk, Inc.
 90
     1024
280
     0
281
     0
  0
CLASS
  1
CATALOGSTATE
  2
AcAmCatalogState
  3
DesignerAssemblies
 90
    33792
280
     0
281
     0
  0
CLASS
  1
ACAMGRCOMPDEFSET
  2
AcAmGrCompDefSet
  3
DesignerAssemblies
 90
     1024
280
     0
281
     0
  0
CLASS
  1
AMDTBROWSERDBTAB
  2
AmdtBrowserDbTab
  3
McadcomServices
 90
     1024
280
     0
281
     0
  0
CLASS
  1
CBROWSERAPPOBJECT
  2
CBrowserAppObject
  3
McadcomServices
 90
     1024
280
     0
281
     0
  0
CLASS
  1
DM_PLACEHOLDER
  2
AcDmSelsetPlaceholder
  3
AcMechDwgViewMgmt
 90
     1024
280
     0
281
     0
  0
CLASS
  1
MATERIAL
  2
AcDbMaterial
  3
ObjectDBX Classes
 90
     1153
280
     0
281
     0
  0
CLASS
  1
AMDTACMWBLOCKBOMENTITY
  2
AmdtAcmWblockBomEntity
  3
"AcmSymBB|Product Description: AutoCAD Mechanical|Company: Autodesk, Inc."
 90
     4095
280
     0
281
     1
  0
CLASS
  1
ACDBLINERES
  2
AcDbLineRes
  3
AcGrefServices
 90
     1024
280
     0
281
     0
  0
CLASS
  1
ACMSTANDARDISO
  2
AcmStandardISO
  3
"Amdt_StdImp|Product Description: AutoCAD Mechanical|Company: Autodesk, Inc."
 90
     1024
280
     0
281
     0
  0
CLASS
  1
ACMSURFSTANDARDISO
  2
AcmSurfTextStdISO
  3
"Amdt_StdImp|Product Description: AutoCAD Mechanical|Company: Autodesk, Inc."
 90
     1024
280
     0
281
     0
  0
CLASS
  1
ACMFCFSTANDARDISO
  2
AcmFCFStdISO
  3
"Amdt_StdImp|Product Description: AutoCAD Mechanical|Company: Autodesk, Inc."
 90
     1024
280
     0
281
     0
  0
CLASS
  1
ACMWELDSTANDARDISO
  2
AcmWeldingStdISO
  3
"Amdt_StdImp|Product Description: AutoCAD Mechanical|Company: Autodesk, Inc."
 90
     1024
280
     0
281
     0
  0
CLASS
  1
ACMIDSTANDARDISO
  2
AcmIdStdISO
  3
"Amdt_StdImp|Product Description: AutoCAD Mechanical|Company: Autodesk, Inc."
 90
     1024
280
     0
281
     0
  0
CLASS
  1
ACMDATUMSTANDARDISO
  2
AcmDatumStdISO
  3
"Amdt_StdImp|Product Description: AutoCAD Mechanical|Company: Autodesk, Inc."
 90
     1024
280
     0
281
     0
  0
CLASS
  1
ACMBOMSTANDARDISO
  2
AcmBOMStdISO
  3
"Amdt_StdImp|Product Description: AutoCAD Mechanical|Company: Autodesk, Inc."
 90
     1024
280
     0
281
     0
  0
CLASS
  1
ACMDETAILSTANDARDISO
  2
AmdtDetailSymStdISO
  3
"Amdt_StdImp|Product Description: AutoCAD Mechanical|Company: Autodesk, Inc."
 90
     1024
280
     0
281
     0
  0
CLASS
  1
ACMSECTIONSTANDARDISO
  2
AmdtSectionSymStdISO
  3
"Amdt_StdImp|Product Description: AutoCAD Mechanical|Company: Autodesk, Inc."
 90
     1024
280
     0
281
     0
  0
CLASS
  1
ACMCENTERLINESTANDARDISO
  2
AmdtCenterLineStdISO
  3
"Amdt_StdImp|Product Description: AutoCAD Mechanical|Company: Autodesk, Inc."
 90
     1024
280
     0
281
     0
  0
CLASS
  1
ACMTHREADLINESTANDARDISO
  2
AmdtThreadLineStdISO
  3
"Amdt_StdImp|Product Description: AutoCAD Mechanical|Company: Autodesk, Inc."
 90
     1024
280
     0
281
     0
  0
CLASS
  1
ACMNOTESTANDARDISO
  2
AmdtNoteStdISO
  3
"Amdt_StdImp|Product Description: AutoCAD Mechanical|Company: Autodesk, Inc."
 90
     1024
280
     0
281
     0
  0
CLASS
  1
ACAMGHOLECHARTSTDISO
  2
AcAmgHoleChartStdISO
  3
AmgDim|Product Description: AutoCAD Mechanical|Company: Autodesk, Inc.
 90
     1024
280
     0
281
     0
  0
CLASS
  1
VISUALSTYLE
  2
AcDbVisualStyle
  3
ObjectDBX Classes
 90
     4095
280
     0
281
     0
  0
CLASS
  1
TABLESTYLE
  2
AcDbTableStyle
  3
ObjectDBX Classes
 90
     4095
280
     0
281
     0
  0
CLASS
  1
ACRFATTGENMGR
  2
AcRfAttGeneralMgr
  3
AcAttribServices
 90
     1024
280
     0
281
     0
  0
CLASS
  1
ACRFOBJATTMGR
  2
AcRfObjAttGroupMgr
  3
AcAttribServices
 90
     1024
280
     0
281
     0
  0
CLASS
  1
ACRFMCADAPIATTHOLDER
  2
AcRfMCADAPIAttHolder
  3
AcAttribServices
 90
     1024
280
     0
281
     0
  0
CLASS
  1
AMDTSYSATTR
  2
AmdtSystemAttribute
  3
AcAttribServices
 90
     1024
280
     0
281
     0
  0
CLASS
  1
ACMTAPERSTANDARDJIS
  2
AcmTaperStdJIS
  3
"Amdt_StdImp|Product Description: AutoCAD Mechanical|Company: Autodesk, Inc."
 90
     1024
280
     0
281
     0
  0
CLASS
  1
AMDTEDGESTANDARDISO13715
  2
AmdtEdgeStdISO13715
  3
"Amdt_StdImp|Product Description: AutoCAD Mechanical|Company: Autodesk, Inc."
 90
     1024
280
     0
281
     0
  0
CLASS
  1
ACMTAPERSTANDARDISO
  2
AcmTaperStdISO
  3
"Amdt_StdImp|Product Description: AutoCAD Mechanical|Company: Autodesk, Inc."
 90
     1024
280
     0
281
     0
  0
CLASS
  1
SORTENTSTABLE
  2
AcDbSortentsTable
  3
ObjectDBX Classes
 90
        0
280
     0
281
     0
  0
CLASS
  1
SCALE
  2
AcDbScale
  3
ObjectDBX Classes
 90
     1153
280
     0
281
     0
  0
CLASS
  1
MLEADERSTYLE
  2
AcDbMLeaderStyle
  3
ACDB_MLEADERSTYLE_CLASS
 90
     4095
280
     0
281
     0
  0
CLASS
  1
ACMANOOTATIONVIEWSTANDARDJIS
  2
AmdtAnViewStdJIS
  3
"Amdt_StdImp|Product Description: AutoCAD Mechanical|Company: Autodesk, Inc."
 90
     1024
280
     0
281
     0
  0
CLASS
  1
AMDTEDGESTANDARDJIS
  2
AmdtEdgeStdJIS
  3
"Amdt_StdImp|Product Description: AutoCAD Mechanical|Company: Autodesk, Inc."
 90
     1024
280
     0
281
     0
  0
CLASS
  1
ACMANOOTATIONVIEWSTANDARDISO
  2
AmdtAnViewStdISO
  3
"Amdt_StdImp|Product Description: AutoCAD Mechanical|Company: Autodesk, Inc."
 90
     1024
280
     0
281
     0
  0
CLASS
  1
ACDBDIMENSIONRES
  2
AcDbDimensionRes
  3
AcmSymBB|Product Description: AutoCAD Mechanical|Company: Autodesk, Inc.
 90
     1024
280
     0
281
     0
  0
CLASS
  1
DIMASSOC
  2
AcDbDimAssoc
  3
"AcDbDimAssoc|Product Desc:     AcDim ARX App For Dimension|Company:          Autodesk, Inc.|WEB Address:      www.autodesk.com"
 90
    32768
280
     0
281
     0
  0
CLASS
  1
CAMSSTRUCTBTNSTATE
  2
StructBtnState
  3
DesignerAssemblies
 90
    33792
280
     0
281
     0
  0
CLASS
  1
CELLSTYLEMAP
  2
AcDbCellStyleMap
  3
ObjectDBX Classes
 90
     1152
280
     0
281
     0
  0
CLASS
  1
ACDBOPPOLYLINERES
  2
AcDbOpPolylineRes
  3
AcGrefServices
 90
    33792
280
     0
281
     0
  0
CLASS
  1
ACRFINSADJ
  2
AcRfInsAdjuster
  3
AcMeServices
 90
    33792
280
     0
281
     0
  0
CLASS
  1
ACDBCIRCARCRES
  2
AcDbCircArcRes
  3
AcGrefServices
 90
     1024
280
     0
281
     0
  0
ENDSEC
  0
SECTION
  2
TABLES
  0
TABLE
  2
VPORT
  5
8
102
{ACAD_XDICTIONARY
360
2406
102
}
330
0
100
AcDbSymbolTable
 70
     1
  0
VPORT
  5
23C0
330
8
100
AcDbSymbolTableRecord
100
AcDbViewportTableRecord
  2
*Active
 70
     0
 10
0.0
 20
0.0
 11
1.0
 21
1.0
 12
196.0582547771622
 22
326.2413765915686
 13
0.0
 23
0.0
 14
2.5
 24
2.5
 15
10.0
 25
10.0
 16
0.0
 26
0.0
 36
1.0
 17
0.0
 27
0.0
 37
0.0
 40
149.5682067929861
 41
1.833150384193194
 42
50.0
 43
0.0
 44
0.0
 50
0.0
 51
0.0
 71
     0
 72
   100
 73
     1
 74
     3
 75
     0
 76
     0
 77
     0
 78
     0
281
     0
 65
     1
110
0.0
120
0.0
130
0.0
111
1.0
121
0.0
131
0.0
112
0.0
122
1.0
132
0.0
 79
     0
146
0.0
  0
ENDTAB
  0
TABLE
  2
LTYPE
  5
5
330
0
100
AcDbSymbolTable
 70
    16
  0
LTYPE
  5
14
330
5
100
AcDbSymbolTableRecord
100
AcDbLinetypeTableRecord
  2
ByBlock
 70
     0
  3

 72
    65
 73
     0
 40
0.0
  0
LTYPE
  5
15
330
5
100
AcDbSymbolTableRecord
100
AcDbLinetypeTableRecord
  2
ByLayer
 70
     0
  3

 72
    65
 73
     0
 40
0.0
  0
LTYPE
  5
16
330
5
100
AcDbSymbolTableRecord
100
AcDbLinetypeTableRecord
  2
Continuous
 70
     0
  3
Solid line
 72
    65
 73
     0
 40
0.0
  0
LTYPE
  5
4B
330
5
100
AcDbSymbolTableRecord
100
AcDbLinetypeTableRecord
  2
AM_ISO02W050
 70
     0
  3
__ __ __ __ __ __ __ __ __ __ __ __ __ __ __
 72
    65
 73
     2
 40
7.5
 49
6.0
 74
     0
 49
-1.5
 74
     0
  0
LTYPE
  5
4C
330
5
100
AcDbSymbolTableRecord
100
AcDbLinetypeTableRecord
  2
AM_ISO08W050
 70
     0
  3
____ . ____ . ____ . ____ . ____ . ____ . ____
 72
    65
 73
     4
 40
18.0
 49
12.0
 74
     0
 49
-1.5
 74
     0
 49
3.0
 74
     0
 49
-1.5
 74
     0
  0
LTYPE
  5
4D
330
5
100
AcDbSymbolTableRecord
100
AcDbLinetypeTableRecord
  2
AM_ISO09W050
 70
     0
  3
_____ . . _____ . . _____ . . ____ .. ____
 72
    65
 73
     6
 40
22.5
 49
12.0
 74
     0
 49
-1.5
 74
     0
 49
3.0
 74
     0
 49
-1.5
 74
     0
 49
3.0
 74
     0
 49
-1.5
 74
     0
  0
LTYPE
  5
4E
330
5
100
AcDbSymbolTableRecord
100
AcDbLinetypeTableRecord
  2
Amconstr
 70
     0
  3
_______________________
 72
    65
 73
     2
 40
9999.0
 49
9999.0
 74
     0
 49
0.0
 74
     0
  0
LTYPE
  5
4F
330
5
100
AcDbSymbolTableRecord
100
AcDbLinetypeTableRecord
  2
AM_ISO02W050x2
 70
     0
  3
 _ _ _ _ _ _ _ _ _ _ _ _
 72
    65
 73
     2
 40
3.75
 49
3.0
 74
     0
 49
-0.75
 74
     0
  0
LTYPE
  5
50
330
5
100
AcDbSymbolTableRecord
100
AcDbLinetypeTableRecord
  2
AM_ISO08W050x2
 70
     0
  3
__ . __ . __ . __ . __ . __
 72
    65
 73
     4
 40
9.0
 49
6.0
 74
     0
 49
-0.75
 74
     0
 49
1.5
 74
     0
 49
-0.75
 74
     0
  0
LTYPE
  5
53
330
5
100
AcDbSymbolTableRecord
100
AcDbLinetypeTableRecord
  2
Amzigzag
 70
     0
  3
/\/-/\/-/\/-/\/-/\/-/\/
 72
    65
 73
     2
 40
11.0001
 49
0.0001
 74
     4
 75
   135
340
52
 46
0.04
 50
0.0
 44
0.0
 45
0.0
 49
-11.0
 74
     0
  0
LTYPE
  5
169
330
5
100
AcDbSymbolTableRecord
100
AcDbLinetypeTableRecord
  2
ACJISTGB
 70
     0
  3
__ . . __ . .
 72
    65
 73
     6
 40
9.0
 49
4.0
 74
     0
 49
-1.0
 74
     0
 49
1.0
 74
     0
 49
-1.0
 74
     0
 49
1.0
 74
     0
 49
-1.0
 74
     0
  0
LTYPE
  5
16A
330
5
100
AcDbSymbolTableRecord
100
AcDbLinetypeTableRecord
  2
ACJISTGL
 70
     0
  3
_ _ _ _ _
 72
    65
 73
     2
 40
3.0
 49
2.0
 74
     0
 49
-1.0
 74
     0
  0
LTYPE
  5
1FF4
330
5
100
AcDbSymbolTableRecord
100
AcDbLinetypeTableRecord
  2
HIDDEN
 70
     0
  3
Hidden __ __ __ __ __ __ __ __ __ __ __ __ __ _
 72
    65
 73
     2
 40
9.524999999999998
 49
6.349999999999999
 74
     0
 49
-3.174999999999999
 74
     0
  0
LTYPE
  5
1FF5
330
5
100
AcDbSymbolTableRecord
100
AcDbLinetypeTableRecord
  2
PHANTOM2
 70
     0
  3
Phantom (.5x) ___ _ _ ___ _ _ ___ _ _ ___ _ _
 72
    65
 73
     6
 40
31.75
 49
15.875
 74
     0
 49
-3.174999999999999
 74
     0
 49
3.174999999999999
 74
     0
 49
-3.174999999999999
 74
     0
 49
3.174999999999999
 74
     0
 49
-3.174999999999999
 74
     0
  0
LTYPE
  5
1FF6
330
5
100
AcDbSymbolTableRecord
100
AcDbLinetypeTableRecord
  2
CENTER
 70
     0
  3
Center ____ _ ____ _ ____ _ ____ _ ____ _ ____
 72
    65
 73
     4
 40
50.8
 49
31.75
 74
     0
 49
-6.349999999999999
 74
     0
 49
6.349999999999999
 74
     0
 49
-6.349999999999999
 74
     0
  0
LTYPE
  5
22B9
330
5
100
AcDbSymbolTableRecord
100
AcDbLinetypeTableRecord
  2
ACISOWELD
 70
     0
  3
_ _ _ _ _
 72
    65
 73
     2
 40
2.0
 49
2.0
 74
     0
 49
-1.0
 74
     0
  0
LTYPE
  5
22BA
330
5
100
AcDbSymbolTableRecord
100
AcDbLinetypeTableRecord
  2
ACISOTGB
 70
     0
  3
__ . . __ . .
 72
    65
 73
     6
 40
9.0
 49
4.0
 74
     0
 49
-1.0
 74
     0
 49
1.0
 74
     0
 49
-1.0
 74
     0
 49
1.0
 74
     0
 49
-1.0
 74
     0
  0
LTYPE
  5
22BB
330
5
100
AcDbSymbolTableRecord
100
AcDbLinetypeTableRecord
  2
ACISOTGL
 70
     0
  3
_ _ _ _ _
 72
    65
 73
     2
 40
3.0
 49
2.0
 74
     0
 49
-1.0
 74
     0
  0
ENDTAB
  0
TABLE
  2
LAYER
  5
2
102
{ACAD_XDICTIONARY
360
2E7F
102
}
330
0
100
AcDbSymbolTable
 70
    19
  0
LAYER
  5
10
102
{ACAD_XDICTIONARY
360
3322
102
}
330
2
100
AcDbSymbolTableRecord
100
AcDbLayerTableRecord
  2
0
 70
     0
 62
     7
  6
Continuous
370
    -3
390
F
  0
LAYER
  5
59
102
{ACAD_XDICTIONARY
360
3324
102
}
330
2
100
AcDbSymbolTableRecord
100
AcDbLayerTableRecord
  2
AM_0
 70
     0
 62
     7
  6
Continuous
370
    50
390
F
  0
LAYER
  5
5A
102
{ACAD_XDICTIONARY
360
3326
102
}
330
2
100
AcDbSymbolTableRecord
100
AcDbLayerTableRecord
  2
AM_BOR
 70
     0
 62
     7
  6
Continuous
370
    50
390
F
  0
LAYER
  5
24D
102
{ACAD_XDICTIONARY
360
3328
102
}
330
2
100
AcDbSymbolTableRecord
100
AcDbLayerTableRecord
  2
AM_CL
 70
     0
 62
     1
  6
Amconstr
370
    25
390
F
  0
LAYER
  5
280
102
{ACAD_XDICTIONARY
360
332A
102
}
330
2
100
AcDbSymbolTableRecord
100
AcDbLayerTableRecord
  2
AM_7
 70
     0
 62
     4
  6
AM_ISO08W050
370
    25
390
F
  0
LAYER
  5
2C6
102
{ACAD_XDICTIONARY
360
332C
102
}
330
2
100
AcDbSymbolTableRecord
100
AcDbLayerTableRecord
  2
AM_4
 70
     0
 62
     3
  6
Continuous
370
    25
390
F
  0
LAYER
  5
2C7
102
{ACAD_XDICTIONARY
360
332E
102
}
330
2
100
AcDbSymbolTableRecord
100
AcDbLayerTableRecord
  2
AM_0N
 70
     0
 62
     7
  6
Continuous
370
    50
390
F
  0
LAYER
  5
2C8
102
{ACAD_XDICTIONARY
360
3330
102
}
330
2
100
AcDbSymbolTableRecord
100
AcDbLayerTableRecord
  2
AM_PAREF
 70
     0
 62
     4
  6
Continuous
290
     0
370
    25
390
F
  0
LAYER
  5
2C9
102
{ACAD_XDICTIONARY
360
3332
102
}
330
2
100
AcDbSymbolTableRecord
100
AcDbLayerTableRecord
  2
AM_12N
 70
     0
 62
     7
  6
Continuous
290
     0
370
    50
390
F
  0
LAYER
  5
5A5
102
{ACAD_XDICTIONARY
360
3334
102
}
330
2
100
AcDbSymbolTableRecord
100
AcDbLayerTableRecord
  2
AM_11
 70
     0
 62
     3
  6
AM_ISO09W050
370
    25
390
F
  0
LAYER
  5
782
102
{ACAD_XDICTIONARY
360
3336
102
}
330
2
100
AcDbSymbolTableRecord
100
AcDbLayerTableRecord
  2
AM_8
 70
     0
 62
     1
  6
Continuous
370
    25
390
F
  0
LAYER
  5
D32
102
{ACAD_XDICTIONARY
360
3338
102
}
330
2
100
AcDbSymbolTableRecord
100
AcDbLayerTableRecord
  2
AM_12
 70
     0
 62
     7
  6
Continuous
290
     0
370
    50
390
F
  0
LAYER
  5
D7F
102
{ACAD_XDICTIONARY
360
333A
102
}
330
2
100
AcDbSymbolTableRecord
100
AcDbLayerTableRecord
  2
AM_5
 70
     0
 62
     3
  6
Continuous
370
    25
390
F
  0
LAYER
  5
D81
330
2
100
AcDbSymbolTableRecord
100
AcDbLayerTableRecord
  2
Defpoints
 70
     0
 62
     7
  6
Continuous
290
     0
370
    -3
390
F
  0
LAYER
  5
15F9
102
{ACAD_XDICTIONARY
360
333C
102
}
330
2
100
AcDbSymbolTableRecord
100
AcDbLayerTableRecord
  2
AM_1
 70
     0
 62
    14
  6
Continuous
370
    50
390
F
  0
LAYER
  5
15FA
102
{ACAD_XDICTIONARY
360
333E
102
}
330
2
100
AcDbSymbolTableRecord
100
AcDbLayerTableRecord
  2
AM_2
 70
     0
 62
     5
  6
Continuous
370
    50
390
F
  0
LAYER
  5
15FB
102
{ACAD_XDICTIONARY
360
3340
102
}
330
2
100
AcDbSymbolTableRecord
100
AcDbLayerTableRecord
  2
AM_6
 70
     0
 62
     2
  6
Continuous
370
    35
390
F
  0
LAYER
  5
15FC
102
{ACAD_XDICTIONARY
360
3342
102
}
330
2
100
AcDbSymbolTableRecord
100
AcDbLayerTableRecord
  2
AM_10
 70
     0
 62
     7
  6
AM_ISO08W050
370
    50
390
F
  0
LAYER
  5
15FD
102
{ACAD_XDICTIONARY
360
3344
102
}
330
2
100
AcDbSymbolTableRecord
100
AcDbLayerTableRecord
  2
AM_9
 70
     0
 62
  -253
  6
Continuous
370
     0
390
F
  0
ENDTAB
  0
TABLE
  2
STYLE
  5
3
330
0
100
AcDbSymbolTable
 70
    10
  0
STYLE
  5
11
330
3
100
AcDbSymbolTableRecord
100
AcDbTextStyleTableRecord
  2
STANDARD
 70
     0
 40
0.0
 41
1.0
 50
0.0
 71
     0
 42
1.5
  3
ISOCP.SHX
  4
EXTFONT.SHX
  0
STYLE
  5
47
330
3
100
AcDbSymbolTableRecord
100
AcDbTextStyleTableRecord
  2
USER1
 70
     0
 40
0.0
 41
1.0
 50
0.0
 71
     0
 42
2.5
  3
TXT.SHX
  4

  0
STYLE
  5
48
330
3
100
AcDbSymbolTableRecord
100
AcDbTextStyleTableRecord
  2
USER2
 70
     0
 40
0.0
 41
1.0
 50
0.0
 71
     0
 42
2.5
  3
SIMPLEX.SHX
  4

  0
STYLE
  5
49
330
3
100
AcDbSymbolTableRecord
100
AcDbTextStyleTableRecord
  2
USER3
 70
     0
 40
0.0
 41
1.0
 50
0.0
 71
     0
 42
2.5
  3
ITALIC.SHX
  4

  0
STYLE
  5
52
330
3
100
AcDbSymbolTableRecord
100
AcDbTextStyleTableRecord
  2

 70
     1
 40
0.0
 41
1.0
 50
0.0
 71
     0
 42
2.5
  3
ltypeshp.shx
  4

  0
STYLE
  5
161
330
3
100
AcDbSymbolTableRecord
100
AcDbTextStyleTableRecord
  2
ACJISTS
 70
     0
 40
1.0
 41
1.0
 50
0.0
 71
     0
 42
2.5
  3
isocp.shx
  4
bigfont.shx
  0
STYLE
  5
168
330
3
100
AcDbSymbolTableRecord
100
AcDbTextStyleTableRecord
  2
ACJISGDT
 70
     0
 40
0.0
 41
1.0
 50
0.0
 71
     0
 42
2.5
  3
amgdt.shx
  4

  0
STYLE
  5
14A6
330
3
100
AcDbSymbolTableRecord
100
AcDbTextStyleTableRecord
  2
ｽﾀｲﾙ1
 70
     0
 40
0.0
 41
1.0
 50
0.0
 71
     0
 42
44.62462130138407
  3

  4

1001
ACAD
1000
HGPSoeiKakugothicUB
1071
    32818
  0
STYLE
  5
22BC
330
3
100
AcDbSymbolTableRecord
100
AcDbTextStyleTableRecord
  2
ACISOTS
 70
     0
 40
1.0
 41
1.0
 50
0.0
 71
     0
 42
3.0
  3
isocp.shx
  4
extfont.shx
  0
STYLE
  5
22BD
330
3
100
AcDbSymbolTableRecord
100
AcDbTextStyleTableRecord
  2
ACISOGDT
 70
     0
 40
0.0
 41
1.0
 50
0.0
 71
     0
 42
3.0
  3
amgdt.shx
  4

  0
ENDTAB
  0
TABLE
  2
VIEW
  5
6
330
0
100
AcDbSymbolTable
 70
     6
  0
VIEW
  5
7C
330
6
100
AcDbSymbolTableRecord
100
AcDbViewTableRecord
  2
AM_VIEW1
 70
     0
 40
74.25000000000006
 10
168.0344359866042
 20
365.1471357807053
 41
112.1648936170213
 11
0.0
 21
0.0
 31
1.0
 12
0.0
 22
0.0
 32
0.0
 42
50.0
 43
0.0
 44
0.0
 50
0.0
 71
     0
281
     0
 72
     0
  0
VIEW
  5
7D
330
6
100
AcDbSymbolTableRecord
100
AcDbViewTableRecord
  2
AM_VIEW2
 70
     0
 40
74.25000000000006
 10
265.8909709410115
 20
365.1471357807053
 41
112.1648936170213
 11
0.0
 21
0.0
 31
1.0
 12
0.0
 22
0.0
 32
0.0
 42
50.0
 43
0.0
 44
0.0
 50
0.0
 71
     0
281
     0
 72
     0
  0
VIEW
  5
7E
330
6
100
AcDbSymbolTableRecord
100
AcDbViewTableRecord
  2
AM_VIEW3
 70
     0
 40
74.25
 10
168.0344359866042
 20
290.8971357807053
 41
112.1648936170213
 11
0.0
 21
0.0
 31
1.0
 12
0.0
 22
0.0
 32
0.0
 42
50.0
 43
0.0
 44
0.0
 50
0.0
 71
     0
281
     0
 72
     0
  0
VIEW
  5
7F
330
6
100
AcDbSymbolTableRecord
100
AcDbViewTableRecord
  2
AM_VIEW4
 70
     0
 40
74.25
 10
265.8909709410115
 20
290.8971357807053
 41
112.1648936170213
 11
0.0
 21
0.0
 31
1.0
 12
0.0
 22
0.0
 32
0.0
 42
50.0
 43
0.0
 44
0.0
 50
0.0
 71
     0
281
     0
 72
     0
  0
VIEW
  5
80
330
6
100
AcDbSymbolTableRecord
100
AcDbViewTableRecord
  2
AM_VIEW5
 70
     0
 40
74.25
 10
216.9627034638078
 20
328.0221357807053
 41
112.1648936170213
 11
0.0
 21
0.0
 31
1.0
 12
0.0
 22
0.0
 32
0.0
 42
50.0
 43
0.0
 44
0.0
 50
0.0
 71
     0
281
     0
 72
     0
  0
VIEW
  5
81
330
6
100
AcDbSymbolTableRecord
100
AcDbViewTableRecord
  2
AM_VIEW6
 70
     0
 40
148.498515
 10
216.9627034638078
 20
328.0221357807053
 41
224.3275439361703
 11
0.0
 21
0.0
 31
1.0
 12
0.0
 22
0.0
 32
0.0
 42
50.0
 43
0.0
 44
0.0
 50
0.0
 71
     0
281
     0
 72
     0
  0
ENDTAB
  0
TABLE
  2
UCS
  5
7
330
0
100
AcDbSymbolTable
 70
     0
  0
ENDTAB
  0
TABLE
  2
APPID
  5
9
330
0
100
AcDbSymbolTable
 70
    49
  0
APPID
  5
12
330
9
100
AcDbSymbolTableRecord
100
AcDbRegAppTableRecord
  2
ACAD
 70
     0
  0
APPID
  5
30
330
9
100
AcDbSymbolTableRecord
100
AcDbRegAppTableRecord
  2
MCAD_NO_VIS
 70
     0
  0
APPID
  5
31
330
9
100
AcDbSymbolTableRecord
100
AcDbRegAppTableRecord
  2
ACAD_TEMP_GRAPHIC
 70
     0
  0
APPID
  5
5B
330
9
100
AcDbSymbolTableRecord
100
AcDbRegAppTableRecord
  2
GENIUS_GENREC_14
 70
     0
  0
APPID
  5
5C
330
9
100
AcDbSymbolTableRecord
100
AcDbRegAppTableRecord
  2
GENIUS_GENODEF_13
 70
     0
  0
APPID
  5
5D
330
9
100
AcDbSymbolTableRecord
100
AcDbRegAppTableRecord
  2
GENIUS_GENOBJ-N-REC_13
 70
     0
  0
APPID
  5
96
330
9
100
AcDbSymbolTableRecord
100
AcDbRegAppTableRecord
  2
GENIUS_GENOBJ-N-CEN_13
 70
     0
  0
APPID
  5
C1
330
9
100
AcDbSymbolTableRecord
100
AcDbRegAppTableRecord
  2
GENIUS_GENOBJ-N-TIT_13
 70
     0
  0
APPID
  5
C2
330
9
100
AcDbSymbolTableRecord
100
AcDbRegAppTableRecord
  2
GENIUS_GENTITLE_13
 70
     0
  0
APPID
  5
C3
330
9
100
AcDbSymbolTableRecord
100
AcDbRegAppTableRecord
  2
GENIUS_GENOENT_13
 70
     0
  0
APPID
  5
C4
330
9
100
AcDbSymbolTableRecord
100
AcDbRegAppTableRecord
  2
GENIUS_GENOREF_13
 70
     0
  0
APPID
  5
C5
330
9
100
AcDbSymbolTableRecord
100
AcDbRegAppTableRecord
  2
GENIUS_GENOLIS_13
 70
     0
  0
APPID
  5
C6
330
9
100
AcDbSymbolTableRecord
100
AcDbRegAppTableRecord
  2
GENIUS_GENZVEED_13
 70
     0
  0
APPID
  5
C7
330
9
100
AcDbSymbolTableRecord
100
AcDbRegAppTableRecord
  2
GENIUS_GENSCREG_15
 70
     0
  0
APPID
  5
C8
330
9
100
AcDbSymbolTableRecord
100
AcDbRegAppTableRecord
  2
GENIUS_GENOBJ-N-SDF_13
 70
     0
  0
APPID
  5
297
330
9
100
AcDbSymbolTableRecord
100
AcDbRegAppTableRecord
  2
GENIUS_GENOBJ-N-FIL_13
 70
     0
  0
APPID
  5
2CA
330
9
100
AcDbSymbolTableRecord
100
AcDbRegAppTableRecord
  2
GENIUS_GEFSH_13
 70
     0
  0
APPID
  5
2CB
330
9
100
AcDbSymbolTableRecord
100
AcDbRegAppTableRecord
  2
GENIUS_GENOBJ-F-SHS_13
 70
     0
  0
APPID
  5
2CC
330
9
100
AcDbSymbolTableRecord
100
AcDbRegAppTableRecord
  2
GENIUS_GENFIL_13
 70
     0
  0
APPID
  5
2CD
330
9
100
AcDbSymbolTableRecord
100
AcDbRegAppTableRecord
  2
GENIUS_GENOBJ-N-CHA_13
 70
     0
  0
APPID
  5
783
330
9
100
AcDbSymbolTableRecord
100
AcDbRegAppTableRecord
  2
GENIUS_GENOBJ-N-HTC_13
 70
     0
  0
APPID
  5
784
330
9
100
AcDbSymbolTableRecord
100
AcDbRegAppTableRecord
  2
GENIUS_GENHATCH_13
 70
     0
  0
APPID
  5
DBB
330
9
100
AcDbSymbolTableRecord
100
AcDbRegAppTableRecord
  2
GENIUS_GENDTOL_13
 70
     0
  0
APPID
  5
E32
330
9
100
AcDbSymbolTableRecord
100
AcDbRegAppTableRecord
  2
GENIUS_GENDIMSH_14
 70
     0
  0
APPID
  5
15FF
330
9
100
AcDbSymbolTableRecord
100
AcDbRegAppTableRecord
  2
GENIUS_GENOBJ-F-SHCL_13
 70
     0
  0
APPID
  5
1600
330
9
100
AcDbSymbolTableRecord
100
AcDbRegAppTableRecord
  2
GENIUS_GEFMSH_13
 70
     0
  0
APPID
  5
1601
330
9
100
AcDbSymbolTableRecord
100
AcDbRegAppTableRecord
  2
GENIUS_GEFSHP_13
 70
     0
  0
APPID
  5
1602
330
9
100
AcDbSymbolTableRecord
100
AcDbRegAppTableRecord
  2
GENIUS_GEFSHP0_13
 70
     0
  0
APPID
  5
1603
330
9
100
AcDbSymbolTableRecord
100
AcDbRegAppTableRecord
  2
GENIUS_GEFSH0_13
 70
     0
  0
APPID
  5
1609
330
9
100
AcDbSymbolTableRecord
100
AcDbRegAppTableRecord
  2
GEVID1077756923
 70
     0
  0
APPID
  5
160A
330
9
100
AcDbSymbolTableRecord
100
AcDbRegAppTableRecord
  2
GEVDC
 70
     0
  0
APPID
  5
160C
330
9
100
AcDbSymbolTableRecord
100
AcDbRegAppTableRecord
  2
GENIUS_GENBH_13
 70
     0
  0
APPID
  5
160E
330
9
100
AcDbSymbolTableRecord
100
AcDbRegAppTableRecord
  2
GENIUS_GENOBJ-NBEHI-BHF_13
 70
     0
  0
APPID
  5
1610
330
9
100
AcDbSymbolTableRecord
100
AcDbRegAppTableRecord
  2
GENIUS_GENOBJ-NBEHI-BHB_13
 70
     0
  0
APPID
  5
200B
330
9
100
AcDbSymbolTableRecord
100
AcDbRegAppTableRecord
  2
AD_DRAW
 70
     0
  0
APPID
  5
200E
330
9
100
AcDbSymbolTableRecord
100
AcDbRegAppTableRecord
  2
ACATTRIBSERVICES
 70
     0
  0
APPID
  5
202C
330
9
100
AcDbSymbolTableRecord
100
AcDbRegAppTableRecord
  2
DESIGNERASSEMBLIES
 70
     0
  0
APPID
  5
203E
330
9
100
AcDbSymbolTableRecord
100
AcDbRegAppTableRecord
  2
ACADM_DIM_EDIT
 70
     0
  0
APPID
  5
203F
330
9
100
AcDbSymbolTableRecord
100
AcDbRegAppTableRecord
  2
AMDT_DM_ADJ
 70
     0
  0
APPID
  5
2086
330
9
100
AcDbSymbolTableRecord
100
AcDbRegAppTableRecord
  2
GENIUS_GENOBJ-N-CRS_13
 70
     0
  0
APPID
  5
2405
330
9
100
AcDbSymbolTableRecord
100
AcDbRegAppTableRecord
  2
ACAD_PSEXT
 70
     0
  0
APPID
  5
26DD
330
9
100
AcDbSymbolTableRecord
100
AcDbRegAppTableRecord
  2
GENIUS_GENCEN_19
 70
     0
  0
APPID
  5
26FC
330
9
100
AcDbSymbolTableRecord
100
AcDbRegAppTableRecord
  2
ACAD_EXEMPT_FROM_CAD_STANDARDS
 70
     0
  0
APPID
  5
2AE3
330
9
100
AcDbSymbolTableRecord
100
AcDbRegAppTableRecord
  2
ACAD_DSTYLE_DIMINSPECT
 70
     0
  0
APPID
  5
2F6F
330
9
100
AcDbSymbolTableRecord
100
AcDbRegAppTableRecord
  2
ACAD_DSTYLE_DIMJAG
 70
     0
  0
APPID
  5
2F70
330
9
100
AcDbSymbolTableRecord
100
AcDbRegAppTableRecord
  2
ACAD_DSTYLE_DIMBREAK
 70
     0
  0
APPID
  5
30A0
330
9
100
AcDbSymbolTableRecord
100
AcDbRegAppTableRecord
  2
AcAecLayerStandard
 70
     0
  0
APPID
  5
339A
330
9
100
AcDbSymbolTableRecord
100
AcDbRegAppTableRecord
  2
ACAD_MLEADERVER
 70
     0
  0
APPID
  5
42CD
330
9
100
AcDbSymbolTableRecord
100
AcDbRegAppTableRecord
  2
ACAD_DSTYLE_DIMARC_LENGTH_SYMBOL
 70
     0
  0
ENDTAB
  0
TABLE
  2
DIMSTYLE
  5
A
330
0
100
AcDbSymbolTable
 70
    11
100
AcDbDimStyleTable
 71
     2
340
8F
340
27
  0
DIMSTYLE
105
27
330
A
100
AcDbSymbolTableRecord
100
AcDbDimStyleTableRecord
  2
ISO-25
 70
     0
 41
2.5
 42
0.625
 43
3.75
 44
1.25
 73
     0
 74
     0
 77
     1
 78
     8
140
2.5
141
2.5
143
0.03937007874016
147
0.625
171
     3
172
     1
271
     2
272
     2
274
     3
283
     0
284
     8
340
11
  0
DIMSTYLE
105
8F
330
A
100
AcDbSymbolTableRecord
100
AcDbDimStyleTableRecord
  2
AM_JIS
 70
     0
  4
"
 40
0.5
 41
2.5
 42
1.0
 43
10.0
 44
1.0
 47
0.1
 48
0.1
 73
     0
 74
     0
 77
     3
 78
     8
 79
     2
140
3.5
141
0.0
143
0.0393701
146
0.71
147
1.5
172
     1
176
   256
177
   256
178
     2
271
     2
272
     3
274
     4
283
     0
340
11
341
84
342
84
343
84
344
84
371
    -1
372
    -1
  0
DIMSTYLE
105
90
330
A
100
AcDbSymbolTableRecord
100
AcDbDimStyleTableRecord
  2
AM_JIS$3
 70
     0
  4
"
 40
0.5
 41
2.5
 42
1.0
 43
10.0
 44
1.0
 47
0.1
 48
0.1
 73
     0
 77
     3
 78
     8
 79
     2
140
3.5
141
0.0
143
0.0393701
146
0.71
147
1.5
176
   256
177
   256
178
     2
271
     2
272
     3
274
     4
283
     0
288
     1
289
     0
340
11
341
84
342
84
343
84
344
84
371
    -1
372
    -1
  0
DIMSTYLE
105
91
330
A
100
AcDbSymbolTableRecord
100
AcDbDimStyleTableRecord
  2
AM_JIS$4
 70
     0
  4
"
 40
0.5
 41
2.5
 42
1.0
 43
10.0
 44
1.0
 47
0.1
 48
0.1
 73
     0
 77
     3
 78
     8
 79
     2
140
3.5
141
0.0
143
0.0393701
146
0.71
147
1.5
176
   256
177
   256
178
     2
271
     2
272
     3
274
     4
283
     0
288
     1
289
     0
340
11
341
84
342
84
343
84
344
84
371
    -1
372
    -1
  0
DIMSTYLE
105
92
330
A
100
AcDbSymbolTableRecord
100
AcDbDimStyleTableRecord
  2
AM_JIS$6
 70
     0
  4
"
 40
0.5
 41
2.5
 42
1.0
 43
10.0
 44
1.0
 47
0.1
 48
0.1
 73
     0
 74
     0
 78
     8
 79
     2
140
3.5
141
0.0
143
0.0393701
146
0.71
147
1.5
172
     1
176
   256
177
   256
178
     2
271
     2
272
     3
274
     4
283
     0
340
11
341
84
342
84
343
84
344
84
371
    -1
372
    -1
  0
DIMSTYLE
105
93
330
A
100
AcDbSymbolTableRecord
100
AcDbDimStyleTableRecord
  2
AM_JIS$7
 70
     0
  4
"
 40
0.5
 41
2.5
 42
1.0
 43
10.0
 44
1.0
 47
0.1
 48
0.1
 73
     0
 74
     0
 77
     3
 78
     8
 79
     2
140
5.0
141
0.0
143
0.0393701
146
0.71
147
1.5
172
     1
176
   256
177
   256
178
     2
271
     2
272
     3
274
     4
283
     0
340
11
341
84
342
84
343
84
344
84
371
    -1
372
    -1
  0
DIMSTYLE
105
94
330
A
100
AcDbSymbolTableRecord
100
AcDbDimStyleTableRecord
  2
AM_JIS$SF
 70
     0
  4
"
 40
0.5
 41
2.5
 42
1.0
 43
10.0
 44
1.0
 47
0.1
 48
0.1
 73
     0
 74
     0
 75
     1
 76
     1
 77
     3
 78
     8
 79
     2
140
3.5
141
0.0
143
0.0393701
146
0.71
147
1.5
172
     1
176
   256
177
   256
178
     2
271
     2
272
     3
274
     4
283
     0
340
11
341
84
342
84
343
84
344
84
371
    -1
372
    -1
  0
DIMSTYLE
105
95
330
A
100
AcDbSymbolTableRecord
100
AcDbDimStyleTableRecord
  2
AM_JIS$SH
 70
     0
  4
"
 40
0.5
 41
2.5
 42
1.0
 43
10.0
 44
1.0
 47
0.1
 48
0.1
 73
     0
 74
     0
 75
     1
 76
     1
 77
     3
 78
     8
 79
     2
140
3.5
141
0.0
143
0.0393701
144
2.0
146
0.71
147
1.5
172
     1
173
     1
176
   256
177
   256
178
     2
271
     2
272
     3
274
     4
283
     0
340
11
341
84
342
84
343
8A
344
84
371
    -1
372
    -1
  0
DIMSTYLE
105
2084
330
A
100
AcDbSymbolTableRecord
100
AcDbDimStyleTableRecord
  2
AM_ANSI
 70
     0
  4
mm
 40
0.5
 41
0.1
 42
0.05
 43
0.5
 44
0.1
 47
0.1
 48
0.1
 78
     7
 79
     2
140
0.12
141
0.0
146
0.71
147
0.06
176
   256
177
   256
178
     2
274
     4
284
     7
340
11
371
    -1
372
    -1
  0
DIMSTYLE
105
2085
330
A
100
AcDbSymbolTableRecord
100
AcDbDimStyleTableRecord
  2
AM_JIS$0
 70
     0
  4
"
 40
0.5
 41
2.5
 42
1.0
 43
10.0
 44
1.0
 47
0.1
 48
0.1
 73
     0
 74
     0
 77
     3
 78
     8
 79
     2
140
3.5
141
0.0
143
0.0393701
146
0.71
147
1.5
172
     1
176
   256
177
   256
178
     2
271
     2
272
     3
274
     4
283
     0
340
11
341
84
342
84
343
84
344
84
371
    -1
372
    -1
  0
DIMSTYLE
105
41EF
330
A
100
AcDbSymbolTableRecord
100
AcDbDimStyleTableRecord
  2
AM_JIS$2
 70
     0
  4
"
 40
0.5
 41
2.5
 42
1.0
 43
10.0
 44
1.0
 47
0.1
 48
0.1
 73
     0
 74
     0
 77
     3
 78
     8
 79
     2
140
3.5
141
0.0
143
0.0393701
146
0.71
147
1.5
172
     1
176
   256
177
   256
178
     2
271
     2
272
     3
274
     4
283
     0
284
     8
340
11
341
84
342
84
343
84
344
84
371
    -1
372
    -1
1001
ACAD_DSTYLE_DIMARC_LENGTH_SYMBOL
1070
   379
1070
     1
  0
ENDTAB
  0
TABLE
  2
BLOCK_RECORD
  5
1
330
0
100
AcDbSymbolTable
 70
    12
  0
BLOCK_RECORD
  5
1F
102
{ACAD_XDICTIONARY
360
C9
102
}
330
1
100
AcDbSymbolTableRecord
100
AcDbBlockTableRecord
  2
*Model_Space
340
22
  0
BLOCK_RECORD
  5
1B
330
1
100
AcDbSymbolTableRecord
100
AcDbBlockTableRecord
  2
*Paper_Space
340
1E
  0
BLOCK_RECORD
  5
23
330
1
100
AcDbSymbolTableRecord
100
AcDbBlockTableRecord
  2
*Paper_Space0
340
26
  0
BLOCK_RECORD
  5
84
330
1
100
AcDbSymbolTableRecord
100
AcDbBlockTableRecord
  2
_Open30
340
0
  0
BLOCK_RECORD
  5
8A
330
1
100
AcDbSymbolTableRecord
100
AcDbBlockTableRecord
  2
GENAXEH
340
0
  0
BLOCK_RECORD
  5
135C
330
1
100
AcDbSymbolTableRecord
100
AcDbBlockTableRecord
  2
GENDOT
340
0
  0
BLOCK_RECORD
  5
1472
330
1
100
AcDbSymbolTableRecord
100
AcDbBlockTableRecord
  2
AA-3-BW
340
0
  0
BLOCK_RECORD
  5
148A
330
1
100
AcDbSymbolTableRecord
100
AcDbBlockTableRecord
  2
A$C2D292097
340
0
  0
BLOCK_RECORD
  5
14A7
330
1
100
AcDbSymbolTableRecord
100
AcDbBlockTableRecord
  2
ASO
340
0
  0
BLOCK_RECORD
  5
22C4
102
{ACAD_XDICTIONARY
360
22F5
102
}
330
1
100
AcDbSymbolTableRecord
100
AcDbBlockTableRecord
  2
ASO-A
340
0
  0
BLOCK_RECORD
  5
294C
330
1
100
AcDbSymbolTableRecord
100
AcDbBlockTableRecord
  2
_None
340
0
  0
BLOCK_RECORD
  5
4315
102
{ACAD_XDICTIONARY
360
431D
102
}
330
1
100
AcDbSymbolTableRecord
100
AcDbBlockTableRecord
  2
A$C713743F4
340
0
1001
ACAD
1000
DesignCenter Data
1002
{
1070
     1
1070
     4
1002
}
  0
ENDTAB
  0
ENDSEC
  0
SECTION
  2
BLOCKS
  0
BLOCK
  5
20
330
1F
100
AcDbEntity
  8
0
100
AcDbBlockBegin
  2
*Model_Space
 70
     0
 10
0.0
 20
0.0
 30
0.0
  3
*Model_Space
  1

  0
ENDBLK
  5
21
330
1F
100
AcDbEntity
  8
0
100
AcDbBlockEnd
  0
BLOCK
  5
1C
330
1B
100
AcDbEntity
 67
     1
  8
0
100
AcDbBlockBegin
  2
*Paper_Space
 70
     0
 10
0.0
 20
0.0
 30
0.0
  3
*Paper_Space
  1

  0
ENDBLK
  5
1D
330
1B
100
AcDbEntity
 67
     1
  8
0
100
AcDbBlockEnd
  0
BLOCK
  5
24
330
23
100
AcDbEntity
 67
     1
  8
0
100
AcDbBlockBegin
  2
*Paper_Space0
 70
     0
 10
0.0
 20
0.0
 30
0.0
  3
*Paper_Space0
  1

  0
ENDBLK
  5
25
330
23
100
AcDbEntity
 67
     1
  8
0
100
AcDbBlockEnd
  0
BLOCK
  5
88
330
84
100
AcDbEntity
  8
0
100
AcDbBlockBegin
  2
_Open30
 70
     0
 10
0.0
 20
0.0
 30
0.0
  3
_Open30
  1

  0
LINE
  5
85
330
84
100
AcDbEntity
  8
0
 62
     0
370
    -2
100
AcDbLine
 10
-1.0
 20
0.26794919
 30
0.0
 11
0.0
 21
0.0
 31
0.0
  0
LINE
  5
86
330
84
100
AcDbEntity
  8
0
 62
     0
370
    -2
100
AcDbLine
 10
0.0
 20
0.0
 30
0.0
 11
-1.0
 21
-0.26794919
 31
0.0
  0
LINE
  5
87
330
84
100
AcDbEntity
  8
0
 62
     0
370
    -2
100
AcDbLine
 10
0.0
 20
0.0
 30
0.0
 11
-1.0
 21
0.0
 31
0.0
  0
ENDBLK
  5
89
330
84
100
AcDbEntity
  8
0
100
AcDbBlockEnd
  0
BLOCK
  5
8C
330
8A
100
AcDbEntity
  8
0
100
AcDbBlockBegin
  2
GENAXEH
 70
     0
 10
0.0
 20
0.0
 30
0.0
  3
GENAXEH
  1

  0
LINE
  5
8B
330
8A
100
AcDbEntity
  8
0
100
AcDbLine
 10
-1.0
 20
0.0
 30
0.0
 11
1.0
 21
0.0
 31
0.0
  0
ENDBLK
  5
8D
330
8A
100
AcDbEntity
  8
0
100
AcDbBlockEnd
  0
BLOCK
  5
135F
330
135C
100
AcDbEntity
  8
0
100
AcDbBlockBegin
  2
GENDOT
 70
     0
 10
0.0
 20
0.0
 30
0.0
  3
GENDOT
  1

  0
LINE
  5
135D
330
135C
100
AcDbEntity
  8
0
100
AcDbLine
 10
0.0
 20
0.0
 30
0.0
 11
-1.0
 21
0.0
 31
0.0
  0
LWPOLYLINE
  5
135E
330
135C
100
AcDbEntity
  8
0
100
AcDbPolyline
 90
        2
 70
     1
 43
0.25
 10
-0.125
 20
0.0
 42
1.0
 10
0.125
 20
0.0
 42
1.0
  0
ENDBLK
  5
1360
330
135C
100
AcDbEntity
  8
0
100
AcDbBlockEnd
  0
BLOCK
  5
1480
330
1472
100
AcDbEntity
  8
0
100
AcDbBlockBegin
  2
AA-3-BW
 70
     0
 10
0.0
 20
0.0
 30
0.0
  3
AA-3-BW
  1

  0
LWPOLYLINE
  5
1473
330
1472
100
AcDbEntity
  8
AM_BOR
 62
   231
100
AcDbPolyline
 90
        4
 70
     1
 43
0.0
 10
11.31798825946299
 20
285.680442839147
 10
11.31798825946292
 20
11.31955716085312
 10
408.7322739737486
 20
11.31955716085296
 10
408.7322739737486
 20
285.680442839147
1001
GENIUS_GENREC_14
1002
{
1000
PYDIR
1011
408.7322739737486
1021
285.680442839147
1031
0.0
1002
}
1002
{
1000
PXDIR
1011
11.31798825946292
1021
11.31955716085312
1031
0.0
1002
}
1002
{
1000
PORI
1011
11.31798825946299
1021
285.680442839147
1031
0.0
1002
}
1002
{
1000
PINS
1011
11.31798825946299
1021
285.680442839147
1031
0.0
1002
}
1002
{
1000
HVAL
1000
281
1002
}
1002
{
1000
H
1070
     2
1002
}
1002
{
1000
WVAL
1000
183
1002
}
1002
{
1000
W
1070
     2
1002
}
1002
{
1000
C
1070
     1
1002
}
1001
GENIUS_GENODEF_13
1002
{
1000
HIER
1070
     0
1002
}
1002
{
1000
MANEDIT
1070
     0
1002
}
1002
{
1000
NOSEL
1070
     0
1002
}
1002
{
1000
BEHIND
1070
     0
1002
}
1002
{
1000
REACTOR
1002
}
1001
GENIUS_GENOBJ-N-REC_13
1002
{
1000
OWNER
1000
GEN
1002
}
  0
TEXT
  5
1474
330
1472
100
AcDbEntity
  8
AM_BOR
 60
     1
100
AcDbText
 10
420.0428571428571
 20
296.9999999999998
 30
0.0
 40
5.0
  1
!GENTITLE-MAX
100
AcDbText
  0
LINE
  5
1475
330
1472
100
AcDbEntity
  8
AM_BOR
100
AcDbLine
 10
0.0000000000000799
 20
297.0
 30
0.0
 11
0.0000000000000799
 21
275.7857142857142
 31
0.0
1001
GENIUS_GENREC_14
1002
{
1000
PYDIR
1011
420.0428571428571
1021
296.9999999999998
1031
0.0
1002
}
1002
{
1000
PXDIR
1011
0.0
1021
0.0
1031
0.0
1002
}
1002
{
1000
PORI
1011
0.0000000000000799
1021
297.0
1031
0.0
1002
}
1002
{
1000
PINS
1011
0.0000000000000799
1021
297.0
1031
0.0
1002
}
1002
{
1000
HVAL
1000
297
1002
}
1002
{
1000
H
1070
     2
1002
}
1002
{
1000
WVAL
1000
210
1002
}
1002
{
1000
W
1070
     2
1002
}
1002
{
1000
C
1070
     1
1002
}
1001
GENIUS_GENODEF_13
1002
{
1000
HIER
1070
     0
1002
}
1002
{
1000
MANEDIT
1070
     0
1002
}
1002
{
1000
NOSEL
1070
     0
1002
}
1002
{
1000
BEHIND
1070
     0
1002
}
1002
{
1000
REACTOR
1002
}
1001
GENIUS_GENOBJ-N-REC_13
1002
{
1000
OWNER
1000
GEN
1002
}
  0
LINE
  5
1476
330
1472
100
AcDbEntity
  8
AM_BOR
100
AcDbLine
 10
0.0
 20
0.0
 30
0.0
 11
21.21428571428571
 21
0.0
 31
0.0
1001
GENIUS_GENREC_14
1002
{
1000
PYDIR
1011
420.0428571428571
1021
296.9999999999998
1031
0.0
1002
}
1002
{
1000
PXDIR
1011
0.0
1021
0.0
1031
0.0
1002
}
1002
{
1000
PORI
1011
0.0000000000000799
1021
297.0
1031
0.0
1002
}
1002
{
1000
PINS
1011
0.0000000000000799
1021
297.0
1031
0.0
1002
}
1002
{
1000
HVAL
1000
297
1002
}
1002
{
1000
H
1070
     2
1002
}
1002
{
1000
WVAL
1000
210
1002
}
1002
{
1000
W
1070
     2
1002
}
1002
{
1000
C
1070
     1
1002
}
1001
GENIUS_GENODEF_13
1002
{
1000
HIER
1070
     0
1002
}
1002
{
1000
MANEDIT
1070
     0
1002
}
1002
{
1000
NOSEL
1070
     0
1002
}
1002
{
1000
BEHIND
1070
     0
1002
}
1002
{
1000
REACTOR
1002
}
1001
GENIUS_GENOBJ-N-REC_13
1002
{
1000
OWNER
1000
GEN
1002
}
  0
LINE
  5
1477
330
1472
100
AcDbEntity
  8
AM_BOR
100
AcDbLine
 10
420.0428571428571
 20
-0.0000000000000799
 30
0.0
 11
420.0428571428571
 21
21.21428571428563
 31
0.0
1001
GENIUS_GENREC_14
1002
{
1000
PYDIR
1011
420.0428571428571
1021
296.9999999999998
1031
0.0
1002
}
1002
{
1000
PXDIR
1011
0.0
1021
0.0
1031
0.0
1002
}
1002
{
1000
PORI
1011
0.0000000000000799
1021
297.0
1031
0.0
1002
}
1002
{
1000
PINS
1011
0.0000000000000799
1021
297.0
1031
0.0
1002
}
1002
{
1000
HVAL
1000
297
1002
}
1002
{
1000
H
1070
     2
1002
}
1002
{
1000
WVAL
1000
210
1002
}
1002
{
1000
W
1070
     2
1002
}
1002
{
1000
C
1070
     1
1002
}
1001
GENIUS_GENODEF_13
1002
{
1000
HIER
1070
     0
1002
}
1002
{
1000
MANEDIT
1070
     0
1002
}
1002
{
1000
NOSEL
1070
     0
1002
}
1002
{
1000
BEHIND
1070
     0
1002
}
1002
{
1000
REACTOR
1002
}
1001
GENIUS_GENOBJ-N-REC_13
1002
{
1000
OWNER
1000
GEN
1002
}
  0
LINE
  5
1478
330
1472
100
AcDbEntity
  8
AM_BOR
100
AcDbLine
 10
420.0428571428571
 20
296.9999999999998
 30
0.0
 11
398.8285714285715
 21
296.9999999999998
 31
0.0
1001
GENIUS_GENREC_14
1002
{
1000
PYDIR
1011
420.0428571428571
1021
296.9999999999998
1031
0.0
1002
}
1002
{
1000
PXDIR
1011
0.0
1021
0.0
1031
0.0
1002
}
1002
{
1000
PORI
1011
0.0000000000000799
1021
297.0
1031
0.0
1002
}
1002
{
1000
PINS
1011
0.0000000000000799
1021
297.0
1031
0.0
1002
}
1002
{
1000
HVAL
1000
297
1002
}
1002
{
1000
H
1070
     2
1002
}
1002
{
1000
WVAL
1000
210
1002
}
1002
{
1000
W
1070
     2
1002
}
1002
{
1000
C
1070
     1
1002
}
1001
GENIUS_GENODEF_13
1002
{
1000
HIER
1070
     0
1002
}
1002
{
1000
MANEDIT
1070
     0
1002
}
1002
{
1000
NOSEL
1070
     0
1002
}
1002
{
1000
BEHIND
1070
     0
1002
}
1002
{
1000
REACTOR
1002
}
1001
GENIUS_GENOBJ-N-REC_13
1002
{
1000
OWNER
1000
GEN
1002
}
  0
LINE
  5
1479
330
1472
100
AcDbEntity
  8
AM_BOR
100
AcDbLine
 10
21.2142857142858
 20
297.0
 30
0.0
 11
0.0000000000000799
 21
297.0
 31
0.0
1001
GENIUS_GENREC_14
1002
{
1000
PYDIR
1011
420.0428571428571
1021
296.9999999999998
1031
0.0
1002
}
1002
{
1000
PXDIR
1011
0.0
1021
0.0
1031
0.0
1002
}
1002
{
1000
PORI
1011
0.0000000000000799
1021
297.0
1031
0.0
1002
}
1002
{
1000
PINS
1011
0.0000000000000799
1021
297.0
1031
0.0
1002
}
1002
{
1000
HVAL
1000
297
1002
}
1002
{
1000
H
1070
     2
1002
}
1002
{
1000
WVAL
1000
210
1002
}
1002
{
1000
W
1070
     2
1002
}
1002
{
1000
C
1070
     1
1002
}
1001
GENIUS_GENODEF_13
1002
{
1000
HIER
1070
     0
1002
}
1002
{
1000
MANEDIT
1070
     0
1002
}
1002
{
1000
NOSEL
1070
     0
1002
}
1002
{
1000
BEHIND
1070
     0
1002
}
1002
{
1000
REACTOR
1002
}
1001
GENIUS_GENOBJ-N-REC_13
1002
{
1000
OWNER
1000
GEN
1002
}
  0
LINE
  5
147A
330
1472
100
AcDbEntity
  8
AM_BOR
100
AcDbLine
 10
420.0428571428571
 20
275.7857142857141
 30
0.0
 11
420.0428571428571
 21
296.9999999999998
 31
0.0
1001
GENIUS_GENREC_14
1002
{
1000
PYDIR
1011
420.0428571428571
1021
296.9999999999998
1031
0.0
1002
}
1002
{
1000
PXDIR
1011
0.0
1021
0.0
1031
0.0
1002
}
1002
{
1000
PORI
1011
0.0000000000000799
1021
297.0
1031
0.0
1002
}
1002
{
1000
PINS
1011
0.0000000000000799
1021
297.0
1031
0.0
1002
}
1002
{
1000
HVAL
1000
297
1002
}
1002
{
1000
H
1070
     2
1002
}
1002
{
1000
WVAL
1000
210
1002
}
1002
{
1000
W
1070
     2
1002
}
1002
{
1000
C
1070
     1
1002
}
1001
GENIUS_GENODEF_13
1002
{
1000
HIER
1070
     0
1002
}
1002
{
1000
MANEDIT
1070
     0
1002
}
1002
{
1000
NOSEL
1070
     0
1002
}
1002
{
1000
BEHIND
1070
     0
1002
}
1002
{
1000
REACTOR
1002
}
1001
GENIUS_GENOBJ-N-REC_13
1002
{
1000
OWNER
1000
GEN
1002
}
  0
LINE
  5
147B
330
1472
100
AcDbEntity
  8
AM_BOR
100
AcDbLine
 10
398.8285714285715
 20
-0.0000000000000799
 30
0.0
 11
420.0428571428571
 21
-0.0000000000000799
 31
0.0
1001
GENIUS_GENREC_14
1002
{
1000
PYDIR
1011
420.0428571428571
1021
296.9999999999998
1031
0.0
1002
}
1002
{
1000
PXDIR
1011
0.0
1021
0.0
1031
0.0
1002
}
1002
{
1000
PORI
1011
0.0000000000000799
1021
297.0
1031
0.0
1002
}
1002
{
1000
PINS
1011
0.0000000000000799
1021
297.0
1031
0.0
1002
}
1002
{
1000
HVAL
1000
297
1002
}
1002
{
1000
H
1070
     2
1002
}
1002
{
1000
WVAL
1000
210
1002
}
1002
{
1000
W
1070
     2
1002
}
1002
{
1000
C
1070
     1
1002
}
1001
GENIUS_GENODEF_13
1002
{
1000
HIER
1070
     0
1002
}
1002
{
1000
MANEDIT
1070
     0
1002
}
1002
{
1000
NOSEL
1070
     0
1002
}
1002
{
1000
BEHIND
1070
     0
1002
}
1002
{
1000
REACTOR
1002
}
1001
GENIUS_GENOBJ-N-REC_13
1002
{
1000
OWNER
1000
GEN
1002
}
  0
LINE
  5
147C
330
1472
100
AcDbEntity
  8
AM_BOR
100
AcDbLine
 10
0.0
 20
21.21428571428571
 30
0.0
 11
0.0
 21
0.0
 31
0.0
1001
GENIUS_GENREC_14
1002
{
1000
PYDIR
1011
420.0428571428571
1021
296.9999999999998
1031
0.0
1002
}
1002
{
1000
PXDIR
1011
0.0
1021
0.0
1031
0.0
1002
}
1002
{
1000
PORI
1011
0.0000000000000799
1021
297.0
1031
0.0
1002
}
1002
{
1000
PINS
1011
0.0000000000000799
1021
297.0
1031
0.0
1002
}
1002
{
1000
HVAL
1000
297
1002
}
1002
{
1000
H
1070
     2
1002
}
1002
{
1000
WVAL
1000
210
1002
}
1002
{
1000
W
1070
     2
1002
}
1002
{
1000
C
1070
     1
1002
}
1001
GENIUS_GENODEF_13
1002
{
1000
HIER
1070
     0
1002
}
1002
{
1000
MANEDIT
1070
     0
1002
}
1002
{
1000
NOSEL
1070
     0
1002
}
1002
{
1000
BEHIND
1070
     0
1002
}
1002
{
1000
REACTOR
1002
}
1001
GENIUS_GENOBJ-N-REC_13
1002
{
1000
OWNER
1000
GEN
1002
}
  0
TEXT
  5
147D
330
1472
100
AcDbEntity
  8
AM_0
 60
     1
100
AcDbText
 10
408.7322739737486
 20
285.680442839147
 30
0.0
 40
5.0
  1
!GENTITLE-RU
100
AcDbText
  0
TEXT
  5
147E
330
1472
100
AcDbEntity
  8
AM_0
 60
     1
100
AcDbText
 10
16.00523592247285
 20
16.0074545709034
 30
0.0
 40
5.0
  1
!GENTITLE-LL
100
AcDbText
  0
TEXT
  5
147F
330
1472
100
AcDbEntity
  8
AM_0
 60
     1
100
AcDbText
 10
408.7322739737486
 20
11.31955716085296
 30
0.0
 40
5.0
  1
!GENTITLE-INSERT
100
AcDbText
  0
ENDBLK
  5
1481
330
1472
100
AcDbEntity
  8
0
100
AcDbBlockEnd
  0
BLOCK
  5
149A
330
148A
100
AcDbEntity
  8
0
100
AcDbBlockBegin
  2
A$C2D292097
 70
     0
 10
0.0
 20
0.0
 30
0.0
  3
A$C2D292097
  1

  0
TEXT
  5
148B
330
148A
100
AcDbEntity
  8
0
100
AcDbText
 10
197.1044423511698
 20
31.0035981017752
 30
0.0
 40
10.0
  1
ASOH   CO.LTD
 41
5.0
  7
ｽﾀｲﾙ1
100
AcDbText
  0
TEXT
  5
148C
330
148A
100
AcDbEntity
  8
0
100
AcDbText
 10
127.3589261501835
 20
61.98001452360745
 30
0.0
 40
66.93693195207612
  1
アソー株式会社
  7
ｽﾀｲﾙ1
100
AcDbText
  0
HATCH
  5
148D
330
148A
100
AcDbEntity
  8
AM_8
100
AcDbHatch
 10
0.0
 20
0.0
 30
0.0
210
0.0
220
0.0
230
1.0
  2
SOLID
 70
     1
 71
     0
 91
        1
 92
        1
 93
       10
 72
     1
 10
26.27998696211468
 20
119.622038302041
 11
19.72254667781421
 21
94.20654351522143
 72
     1
 10
19.72254667781422
 20
94.20654351522143
 11
20.10217910550261
 21
94.65251979790156
 72
     3
 10
29.97494128357687
 20
79.68778553387966
 11
0.2402016329913215
 21
19.99855752736967
 40
0.7499999999999996
 50
-34.10238568201522
 51
52.41091053102508
 73
     0
 72
     1
 10
43.0844862433824
 20
89.53104876041368
 11
63.55518980891033
 21
40.6543652059048
 72
     3
 10
76.66473476871587
 20
50.49762843243886
 11
0.2402016329913143
 21
19.99855752736967
 40
0.7499999999999999
 50
127.589089468975
 51
243.9002512902304
 73
     1
 72
     1
 10
90.66060611817196
 20
43.43151697692579
 11
98.94218718925374
 21
72.13430932636422
 72
     1
 10
98.94218718925376
 20
72.13430932636422
 11
97.4258024259505
 21
70.16225780455534
 72
     3
 10
86.98981389832653
 20
84.43075959876276
 11
-0.2402016329912594
 21
-19.99855752736953
 40
0.7499999999999996
 50
-36.86989764584386
 51
52.41091053102518
 73
     0
 72
     1
 10
73.88026893852099
 20
74.58749637222874
 11
53.57102076277776
 21
123.0786824781806
 72
     3
 10
40.46147580297221
 20
113.2354192516466
 11
-0.2402016329912809
 21
-19.99855752736966
 40
0.7500000000000002
 50
127.5890894689749
 51
246.4437724078177
 73
     1
 97
        0
 75
     0
 76
     1
 98
        1
 10
-11.02788873631791
 20
-99.90118815091953
1001
GENIUS_GENODEF_13
1002
{
1000
HIER
1070
     0
1002
}
1002
{
1000
MANEDIT
1070
     0
1002
}
1002
{
1000
NOSEL
1070
     0
1002
}
1002
{
1000
BEHIND
1070
     0
1002
}
1002
{
1000
REACTOR
1002
}
1001
GENIUS_GENOBJ-N-HTC_13
1002
{
1000
OWNER
1000
GEN
1002
}
1001
GENIUS_GENHATCH_13
1002
{
1000
DATA
1040
0.0
1042
0.9999999999999998
1000
SOLID
1070
     0
1011
65.16661907668134
1021
74.10910423558471
1031
0.0
1002
}
1002
{
1000
UCS
1010
0.0
1020
0.0
1030
0.0
1010
1.0
1020
0.0
1030
0.0
1010
0.0
1020
1.0
1030
0.0
1002
}
  0
HATCH
  5
148E
330
148A
100
AcDbEntity
  8
AM_8
100
AcDbHatch
 10
0.0
 20
0.0
 30
0.0
210
0.0
220
0.0
230
1.0
  2
SOLID
 70
     1
 71
     0
 91
        1
 92
        1
 93
        2
 72
     2
 10
27.87973327687144
 20
49.81037059826576
 40
18.33631541869489
 50
10.7710123686058
 51
355.3294096482469
 73
     1
 72
     2
 10
27.87973327687144
 20
49.81037059826576
 40
18.33631541869488
 50
355.3294096482469
 51
370.7710123686058
 73
     1
 97
        0
 75
     0
 76
     1
 98
        1
 10
-11.02788873631791
 20
-99.90118815091953
1001
GENIUS_GENODEF_13
1002
{
1000
HIER
1070
     0
1002
}
1002
{
1000
MANEDIT
1070
     0
1002
}
1002
{
1000
NOSEL
1070
     0
1002
}
1002
{
1000
BEHIND
1070
     0
1002
}
1002
{
1000
REACTOR
1002
}
1001
GENIUS_GENOBJ-N-HTC_13
1002
{
1000
OWNER
1000
GEN
1002
}
1001
GENIUS_GENHATCH_13
1002
{
1000
DATA
1040
0.0
1042
0.9999999999999998
1000
SOLID
1070
     0
1011
30.27624113759819
1021
49.61458016509695
1031
0.0
1002
}
1002
{
1000
UCS
1010
0.0
1020
0.0
1030
0.0
1010
1.0
1020
0.0
1030
0.0
1010
0.0
1020
1.0
1030
0.0
1002
}
  0
CIRCLE
  5
148F
330
148A
100
AcDbEntity
  8
0
100
AcDbCircle
 10
27.87973327687145
 20
49.81037059826573
 30
0.0
 40
18.33631541869488
  0
LINE
  5
1490
330
148A
100
AcDbEntity
  8
0
100
AcDbLine
 10
98.94218718925376
 20
72.13430932636422
 30
0.0
 11
90.66060611817196
 21
43.43151697692576
 31
0.0
  0
LINE
  5
1491
330
148A
100
AcDbEntity
  8
0
100
AcDbLine
 10
43.0844862433824
 20
89.5310487604137
 30
0.0
 11
63.55518980891034
 21
40.6543652059048
 31
0.0
  0
ELLIPSE
  5
1492
330
148A
100
AcDbEntity
  8
0
100
AcDbEllipse
 10
76.66473476871587
 20
50.49762843243886
 30
0.0
 11
0.2402016329913116
 21
19.99855752736953
 31
0.0
210
0.0
220
0.0
230
0.9999999999999998
 40
0.7499999999999999
 41
2.094395102393195
 42
4.360282821964076
1001
GENIUS_GENODEF_13
1002
{
1000
HIER
1070
     0
1002
}
1002
{
1000
MANEDIT
1070
     0
1002
}
1002
{
1000
NOSEL
1070
     0
1002
}
1002
{
1000
BEHIND
1070
     0
1002
}
1002
{
1000
REACTOR
1002
}
1001
GENIUS_GENOBJ-N-FIL_13
1002
{
1000
OWNER
1000
GEN
1002
}
  0
ELLIPSE
  5
1493
330
148A
100
AcDbEntity
  8
0
100
AcDbEllipse
 10
86.98981389832653
 20
84.43075959876276
 30
0.0
 11
0.2402016329912594
 21
19.99855752736953
 31
0.0
210
0.0
220
0.0
230
1.0
 40
0.7499999999999996
 41
2.094395102393192
 42
3.926990816987234
1001
GENIUS_GENODEF_13
1002
{
1000
HIER
1070
     0
1002
}
1002
{
1000
MANEDIT
1070
     0
1002
}
1002
{
1000
NOSEL
1070
     0
1002
}
1002
{
1000
BEHIND
1070
     0
1002
}
1002
{
1000
REACTOR
1002
}
1001
GENIUS_GENOBJ-N-FIL_13
1002
{
1000
OWNER
1000
GEN
1002
}
  0
ELLIPSE
  5
1494
330
148A
100
AcDbEntity
  8
0
100
AcDbEllipse
 10
29.97494128357687
 20
79.68778553387966
 30
0.0
 11
0.2402016329913188
 21
19.99855752736953
 31
0.0
210
0.0
220
0.0
230
0.9999999999999998
 40
0.7499999999999996
 41
-1.047197551196598
 42
0.7343684516294112
1001
GENIUS_GENODEF_13
1002
{
1000
HIER
1070
     0
1002
}
1002
{
1000
MANEDIT
1070
     0
1002
}
1002
{
1000
NOSEL
1070
     0
1002
}
1002
{
1000
BEHIND
1070
     0
1002
}
1002
{
1000
REACTOR
1002
}
1001
GENIUS_GENOBJ-N-FIL_13
1002
{
1000
OWNER
1000
GEN
1002
}
  0
ELLIPSE
  5
1495
330
148A
100
AcDbEntity
  8
0
100
AcDbEllipse
 10
40.46147580297221
 20
113.2354192516466
 30
0.0
 11
0.2402016329912781
 21
19.99855752736952
 31
0.0
210
0.0
220
0.0
230
0.9999999999999996
 40
0.75
 41
-1.047197551196599
 42
1.254770269777095
1001
GENIUS_GENODEF_13
1002
{
1000
HIER
1070
     0
1002
}
1002
{
1000
MANEDIT
1070
     0
1002
}
1002
{
1000
NOSEL
1070
     0
1002
}
1002
{
1000
BEHIND
1070
     0
1002
}
1002
{
1000
REACTOR
1002
}
1001
GENIUS_GENOBJ-N-FIL_13
1002
{
1000
OWNER
1000
GEN
1002
}
  0
LINE
  5
1496
330
148A
100
AcDbEntity
  8
0
100
AcDbLine
 10
73.88026893852099
 20
74.58749637222874
 30
0.0
 11
53.57102076277774
 21
123.0786824781806
 31
0.0
  0
LINE
  5
1497
330
148A
100
AcDbEntity
  8
0
100
AcDbLine
 10
26.27998696211472
 20
119.6220383020412
 30
0.0
 11
19.72254667781422
 21
94.20654351522143
 31
0.0
  0
LINE
  5
1498
330
148A
100
AcDbEntity
  8
0
100
AcDbLine
 10
19.72254667781422
 20
94.20654351522143
 30
0.0
 11
20.1021791055026
 21
94.65251979790158
 31
0.0
  0
LINE
  5
1499
330
148A
100
AcDbEntity
  8
0
100
AcDbLine
 10
98.94218718925372
 20
72.13430932636422
 30
0.0
 11
97.42580242595048
 21
70.16225780455531
 31
0.0
  0
ENDBLK
  5
149B
330
148A
100
AcDbEntity
  8
0
100
AcDbBlockEnd
  0
BLOCK
  5
14D5
330
14A7
100
AcDbEntity
  8
0
100
AcDbBlockBegin
  2
ASO
 70
     2
 10
0.0
 20
0.0
 30
0.0
  3
ASO
  1

  0
LINE
  5
14A8
330
14A7
100
AcDbEntity
  8
AM_BOR
 62
   211
100
AcDbLine
 10
-110.0
 20
0.0
 30
0.0
 11
0.0
 21
0.0
 31
0.0
1001
GENIUS_GENREC_14
1002
{
1000
PYDIR
1011
-110.0
1021
40.0
1031
0.0
1002
}
1002
{
1000
PXDIR
1011
0.0
1021
0.0
1031
0.0
1002
}
1002
{
1000
PORI
1011
-110.0
1021
0.0
1031
0.0
1002
}
1002
{
1000
PINS
1011
-110.0
1021
0.0
1031
0.0
1002
}
1002
{
1000
HVAL
1000
40
1002
}
1002
{
1000
H
1070
     2
1002
}
1002
{
1000
WVAL
1000
110
1002
}
1002
{
1000
W
1070
     2
1002
}
1002
{
1000
C
1070
     1
1002
}
1001
GENIUS_GENODEF_13
1002
{
1000
HIER
1070
     0
1002
}
1002
{
1000
MANEDIT
1070
     0
1002
}
1002
{
1000
NOSEL
1070
     0
1002
}
1002
{
1000
BEHIND
1070
     0
1002
}
1002
{
1000
REACTOR
1002
}
1001
GENIUS_GENOBJ-N-REC_13
1002
{
1000
OWNER
1000
GEN
1002
}
  0
LINE
  5
14A9
330
14A7
100
AcDbEntity
  8
AM_BOR
 62
   211
100
AcDbLine
 10
0.0
 20
0.0
 30
0.0
 11
0.0
 21
40.0
 31
0.0
1001
GENIUS_GENREC_14
1002
{
1000
PYDIR
1011
-110.0
1021
40.0
1031
0.0
1002
}
1002
{
1000
PXDIR
1011
0.0
1021
0.0
1031
0.0
1002
}
1002
{
1000
PORI
1011
-110.0
1021
0.0
1031
0.0
1002
}
1002
{
1000
PINS
1011
-110.0
1021
0.0
1031
0.0
1002
}
1002
{
1000
HVAL
1000
40
1002
}
1002
{
1000
H
1070
     2
1002
}
1002
{
1000
WVAL
1000
110
1002
}
1002
{
1000
W
1070
     2
1002
}
1002
{
1000
C
1070
     1
1002
}
1001
GENIUS_GENODEF_13
1002
{
1000
HIER
1070
     0
1002
}
1002
{
1000
MANEDIT
1070
     0
1002
}
1002
{
1000
NOSEL
1070
     0
1002
}
1002
{
1000
BEHIND
1070
     0
1002
}
1002
{
1000
REACTOR
1002
}
1001
GENIUS_GENOBJ-N-REC_13
1002
{
1000
OWNER
1000
GEN
1002
}
  0
LINE
  5
14AA
330
14A7
100
AcDbEntity
  8
AM_BOR
 62
   211
100
AcDbLine
 10
0.0
 20
40.0
 30
0.0
 11
-110.0
 21
40.00000000000001
 31
0.0
1001
GENIUS_GENREC_14
1002
{
1000
PYDIR
1011
-110.0
1021
40.0
1031
0.0
1002
}
1002
{
1000
PXDIR
1011
0.0
1021
0.0
1031
0.0
1002
}
1002
{
1000
PORI
1011
-110.0
1021
0.0
1031
0.0
1002
}
1002
{
1000
PINS
1011
-110.0
1021
0.0
1031
0.0
1002
}
1002
{
1000
HVAL
1000
40
1002
}
1002
{
1000
H
1070
     2
1002
}
1002
{
1000
WVAL
1000
110
1002
}
1002
{
1000
W
1070
     2
1002
}
1002
{
1000
C
1070
     1
1002
}
1001
GENIUS_GENODEF_13
1002
{
1000
HIER
1070
     0
1002
}
1002
{
1000
MANEDIT
1070
     0
1002
}
1002
{
1000
NOSEL
1070
     0
1002
}
1002
{
1000
BEHIND
1070
     0
1002
}
1002
{
1000
REACTOR
1002
}
1001
GENIUS_GENOBJ-N-REC_13
1002
{
1000
OWNER
1000
GEN
1002
}
  0
LINE
  5
14AB
330
14A7
100
AcDbEntity
  8
AM_BOR
 62
   211
100
AcDbLine
 10
-110.0
 20
40.00000000000001
 30
0.0
 11
-110.0
 21
0.0
 31
0.0
1001
GENIUS_GENREC_14
1002
{
1000
PYDIR
1011
-110.0
1021
40.0
1031
0.0
1002
}
1002
{
1000
PXDIR
1011
0.0
1021
0.0
1031
0.0
1002
}
1002
{
1000
PORI
1011
-110.0
1021
0.0
1031
0.0
1002
}
1002
{
1000
PINS
1011
-110.0
1021
0.0
1031
0.0
1002
}
1002
{
1000
HVAL
1000
40
1002
}
1002
{
1000
H
1070
     2
1002
}
1002
{
1000
WVAL
1000
110
1002
}
1002
{
1000
W
1070
     2
1002
}
1002
{
1000
C
1070
     1
1002
}
1001
GENIUS_GENODEF_13
1002
{
1000
HIER
1070
     0
1002
}
1002
{
1000
MANEDIT
1070
     0
1002
}
1002
{
1000
NOSEL
1070
     0
1002
}
1002
{
1000
BEHIND
1070
     0
1002
}
1002
{
1000
REACTOR
1002
}
1001
GENIUS_GENOBJ-N-REC_13
1002
{
1000
OWNER
1000
GEN
1002
}
  0
LINE
  5
14AC
330
14A7
100
AcDbEntity
  8
AM_BOR
 62
     5
100
AcDbLine
 10
-60.0
 20
9.999999999999992
 30
0.0
 11
0.0
 21
10.0
 31
0.0
1001
GENIUS_GENREC_14
1002
{
1000
PYDIR
1011
-110.0
1021
40.0
1031
0.0
1002
}
1002
{
1000
PXDIR
1011
0.0
1021
0.0
1031
0.0
1002
}
1002
{
1000
PORI
1011
-110.0
1021
0.0
1031
0.0
1002
}
1002
{
1000
PINS
1011
-110.0
1021
0.0
1031
0.0
1002
}
1002
{
1000
HVAL
1000
40
1002
}
1002
{
1000
H
1070
     2
1002
}
1002
{
1000
WVAL
1000
110
1002
}
1002
{
1000
W
1070
     2
1002
}
1002
{
1000
C
1070
     1
1002
}
  0
LINE
  5
14AD
330
14A7
100
AcDbEntity
  8
AM_BOR
 62
     5
100
AcDbLine
 10
-110.0
 20
19.0
 30
0.0
 11
0.0
 21
19.0
 31
0.0
1001
GENIUS_GENREC_14
1002
{
1000
PYDIR
1011
-110.0
1021
40.0
1031
0.0
1002
}
1002
{
1000
PXDIR
1011
0.0
1021
0.0
1031
0.0
1002
}
1002
{
1000
PORI
1011
-110.0
1021
0.0
1031
0.0
1002
}
1002
{
1000
PINS
1011
-110.0
1021
0.0
1031
0.0
1002
}
1002
{
1000
HVAL
1000
40
1002
}
1002
{
1000
H
1070
     2
1002
}
1002
{
1000
WVAL
1000
110
1002
}
1002
{
1000
W
1070
     2
1002
}
1002
{
1000
C
1070
     1
1002
}
1001
GENIUS_GENODEF_13
1002
{
1000
HIER
1070
     0
1002
}
1002
{
1000
MANEDIT
1070
     0
1002
}
1002
{
1000
NOSEL
1070
     0
1002
}
1002
{
1000
BEHIND
1070
     0
1002
}
1002
{
1000
REACTOR
1002
}
1001
GENIUS_GENOBJ-N-REC_13
1002
{
1000
OWNER
1000
GEN
1002
}
  0
LINE
  5
14AE
330
14A7
100
AcDbEntity
  8
AM_BOR
 62
     5
100
AcDbLine
 10
-110.0
 20
26.0
 30
0.0
 11
0.0
 21
26.0
 31
0.0
1001
GENIUS_GENREC_14
1002
{
1000
PYDIR
1011
-110.0
1021
40.0
1031
0.0
1002
}
1002
{
1000
PXDIR
1011
0.0
1021
0.0
1031
0.0
1002
}
1002
{
1000
PORI
1011
-110.0
1021
0.0
1031
0.0
1002
}
1002
{
1000
PINS
1011
-110.0
1021
0.0
1031
0.0
1002
}
1002
{
1000
HVAL
1000
40
1002
}
1002
{
1000
H
1070
     2
1002
}
1002
{
1000
WVAL
1000
110
1002
}
1002
{
1000
W
1070
     2
1002
}
1002
{
1000
C
1070
     1
1002
}
1001
GENIUS_GENODEF_13
1002
{
1000
HIER
1070
     0
1002
}
1002
{
1000
MANEDIT
1070
     0
1002
}
1002
{
1000
NOSEL
1070
     0
1002
}
1002
{
1000
BEHIND
1070
     0
1002
}
1002
{
1000
REACTOR
1002
}
1001
GENIUS_GENOBJ-N-REC_13
1002
{
1000
OWNER
1000
GEN
1002
}
  0
LINE
  5
14AF
330
14A7
100
AcDbEntity
  8
AM_BOR
 62
     5
100
AcDbLine
 10
-110.0
 20
33.0
 30
0.0
 11
0.0
 21
33.0
 31
0.0
1001
GENIUS_GENREC_14
1002
{
1000
PYDIR
1011
-110.0
1021
40.0
1031
0.0
1002
}
1002
{
1000
PXDIR
1011
0.0
1021
0.0
1031
0.0
1002
}
1002
{
1000
PORI
1011
-110.0
1021
0.0
1031
0.0
1002
}
1002
{
1000
PINS
1011
-110.0
1021
0.0
1031
0.0
1002
}
1002
{
1000
HVAL
1000
40
1002
}
1002
{
1000
H
1070
     2
1002
}
1002
{
1000
WVAL
1000
110
1002
}
1002
{
1000
W
1070
     2
1002
}
1002
{
1000
C
1070
     1
1002
}
1001
GENIUS_GENODEF_13
1002
{
1000
HIER
1070
     0
1002
}
1002
{
1000
MANEDIT
1070
     0
1002
}
1002
{
1000
NOSEL
1070
     0
1002
}
1002
{
1000
BEHIND
1070
     0
1002
}
1002
{
1000
REACTOR
1002
}
1001
GENIUS_GENOBJ-N-REC_13
1002
{
1000
OWNER
1000
GEN
1002
}
  0
LINE
  5
14B0
330
14A7
100
AcDbEntity
  8
AM_BOR
 62
     5
100
AcDbLine
 10
-85.0
 20
33.0
 30
0.0
 11
-85.0
 21
18.99999999999998
 31
0.0
1001
GENIUS_GENREC_14
1002
{
1000
PYDIR
1011
-110.0
1021
40.0
1031
0.0
1002
}
1002
{
1000
PXDIR
1011
0.0
1021
0.0
1031
0.0
1002
}
1002
{
1000
PORI
1011
-110.0
1021
0.0
1031
0.0
1002
}
1002
{
1000
PINS
1011
-110.0
1021
0.0
1031
0.0
1002
}
1002
{
1000
HVAL
1000
40
1002
}
1002
{
1000
H
1070
     2
1002
}
1002
{
1000
WVAL
1000
110
1002
}
1002
{
1000
W
1070
     2
1002
}
1002
{
1000
C
1070
     1
1002
}
1001
GENIUS_GENODEF_13
1002
{
1000
HIER
1070
     0
1002
}
1002
{
1000
MANEDIT
1070
     0
1002
}
1002
{
1000
NOSEL
1070
     0
1002
}
1002
{
1000
BEHIND
1070
     0
1002
}
1002
{
1000
REACTOR
1002
}
1001
GENIUS_GENOBJ-N-REC_13
1002
{
1000
OWNER
1000
GEN
1002
}
  0
LINE
  5
14B1
330
14A7
100
AcDbEntity
  8
AM_BOR
 62
     5
100
AcDbLine
 10
-60.0
 20
40.00000000000001
 30
0.0
 11
-60.0
 21
0.0
 31
0.0
1001
GENIUS_GENREC_14
1002
{
1000
PYDIR
1011
-110.0
1021
40.0
1031
0.0
1002
}
1002
{
1000
PXDIR
1011
0.0
1021
0.0
1031
0.0
1002
}
1002
{
1000
PORI
1011
-110.0
1021
0.0
1031
0.0
1002
}
1002
{
1000
PINS
1011
-110.0
1021
0.0
1031
0.0
1002
}
1002
{
1000
HVAL
1000
40
1002
}
1002
{
1000
H
1070
     2
1002
}
1002
{
1000
WVAL
1000
110
1002
}
1002
{
1000
W
1070
     2
1002
}
1002
{
1000
C
1070
     1
1002
}
1001
GENIUS_GENODEF_13
1002
{
1000
HIER
1070
     0
1002
}
1002
{
1000
MANEDIT
1070
     0
1002
}
1002
{
1000
NOSEL
1070
     0
1002
}
1002
{
1000
BEHIND
1070
     0
1002
}
1002
{
1000
REACTOR
1002
}
1001
GENIUS_GENOBJ-N-REC_13
1002
{
1000
OWNER
1000
GEN
1002
}
  0
LINE
  5
14B2
330
14A7
100
AcDbEntity
  8
AM_BOR
 62
     5
100
AcDbLine
 10
-20.0
 20
33.0
 30
0.0
 11
-20.0
 21
40.0
 31
0.0
1001
GENIUS_GENREC_14
1002
{
1000
PYDIR
1011
-110.0
1021
40.0
1031
0.0
1002
}
1002
{
1000
PXDIR
1011
0.0
1021
0.0
1031
0.0
1002
}
1002
{
1000
PORI
1011
-110.0
1021
0.0
1031
0.0
1002
}
1002
{
1000
PINS
1011
-110.0
1021
0.0
1031
0.0
1002
}
1002
{
1000
HVAL
1000
40
1002
}
1002
{
1000
H
1070
     2
1002
}
1002
{
1000
WVAL
1000
110
1002
}
1002
{
1000
W
1070
     2
1002
}
1002
{
1000
C
1070
     1
1002
}
1001
GENIUS_GENODEF_13
1002
{
1000
HIER
1070
     0
1002
}
1002
{
1000
MANEDIT
1070
     0
1002
}
1002
{
1000
NOSEL
1070
     0
1002
}
1002
{
1000
BEHIND
1070
     0
1002
}
1002
{
1000
REACTOR
1002
}
1001
GENIUS_GENOBJ-N-REC_13
1002
{
1000
OWNER
1000
GEN
1002
}
  0
LINE
  5
14B3
330
14A7
100
AcDbEntity
  8
AM_BOR
 62
     5
100
AcDbLine
 10
-40.0
 20
33.0
 30
0.0
 11
-40.0
 21
40.0
 31
0.0
1001
GENIUS_GENREC_14
1002
{
1000
PYDIR
1011
-110.0
1021
40.0
1031
0.0
1002
}
1002
{
1000
PXDIR
1011
0.0
1021
0.0
1031
0.0
1002
}
1002
{
1000
PORI
1011
-110.0
1021
0.0
1031
0.0
1002
}
1002
{
1000
PINS
1011
-110.0
1021
0.0
1031
0.0
1002
}
1002
{
1000
HVAL
1000
40
1002
}
1002
{
1000
H
1070
     2
1002
}
1002
{
1000
WVAL
1000
110
1002
}
1002
{
1000
W
1070
     2
1002
}
1002
{
1000
C
1070
     1
1002
}
1001
GENIUS_GENODEF_13
1002
{
1000
HIER
1070
     0
1002
}
1002
{
1000
MANEDIT
1070
     0
1002
}
1002
{
1000
NOSEL
1070
     0
1002
}
1002
{
1000
BEHIND
1070
     0
1002
}
1002
{
1000
REACTOR
1002
}
1001
GENIUS_GENOBJ-N-REC_13
1002
{
1000
OWNER
1000
GEN
1002
}
  0
LINE
  5
14B4
330
14A7
100
AcDbEntity
  8
AM_BOR
 62
     5
100
AcDbLine
 10
-80.0
 20
33.0
 30
0.0
 11
-80.0
 21
40.0
 31
0.0
1001
GENIUS_GENREC_14
1002
{
1000
PYDIR
1011
-110.0
1021
40.0
1031
0.0
1002
}
1002
{
1000
PXDIR
1011
0.0
1021
0.0
1031
0.0
1002
}
1002
{
1000
PORI
1011
-110.0
1021
0.0
1031
0.0
1002
}
1002
{
1000
PINS
1011
-110.0
1021
0.0
1031
0.0
1002
}
1002
{
1000
HVAL
1000
40
1002
}
1002
{
1000
H
1070
     2
1002
}
1002
{
1000
WVAL
1000
110
1002
}
1002
{
1000
W
1070
     2
1002
}
1002
{
1000
C
1070
     1
1002
}
1001
GENIUS_GENODEF_13
1002
{
1000
HIER
1070
     0
1002
}
1002
{
1000
MANEDIT
1070
     0
1002
}
1002
{
1000
NOSEL
1070
     0
1002
}
1002
{
1000
BEHIND
1070
     0
1002
}
1002
{
1000
REACTOR
1002
}
1001
GENIUS_GENOBJ-N-REC_13
1002
{
1000
OWNER
1000
GEN
1002
}
  0
TEXT
  5
14B5
330
14A7
100
AcDbEntity
  8
AM_BOR
 62
     2
100
AcDbText
 10
-57.4
 20
35.0
 30
0.0
 40
3.0
  1
単位 ｍｍ
 72
     4
 11
-50.0
 21
36.5
 31
0.0
100
AcDbText
  0
TEXT
  5
14B6
330
14A7
100
AcDbEntity
  8
AM_BOR
 62
     2
100
AcDbText
 10
-39.0
 20
35.0
 30
0.0
 40
3.0
  1
尺度
 41
0.9
 11
-39.0
 21
36.5
 31
0.0
100
AcDbText
 73
     2
  0
TEXT
  5
14B7
330
14A7
100
AcDbEntity
  8
AM_BOR
 62
     2
100
AcDbText
 10
-19.0
 20
35.0
 30
0.0
 40
3.0
  1
日付
 41
0.9
 11
-19.0
 21
36.5
 31
0.0
100
AcDbText
 73
     2
  0
TEXT
  5
14B8
330
14A7
100
AcDbEntity
  8
AM_BOR
 62
     2
100
AcDbText
 10
-76.79999999999999
 20
34.99999999999999
 30
0.0
 40
3.0
  1
第３角法
 72
     4
 11
-70.0
 21
36.49999999999999
 31
0.0
100
AcDbText
  0
TEXT
  5
14B9
330
14A7
100
AcDbEntity
  8
AM_BOR
 62
     2
100
AcDbText
 10
-59.0
 20
29.5
 30
0.0
 40
3.0
  1
材 質
 11
-59.0
 21
31.0
 31
0.0
100
AcDbText
 73
     2
  0
TEXT
  5
14BA
330
14A7
100
AcDbEntity
  8
AM_BOR
 62
     2
100
AcDbText
 10
-59.0
 20
22.5
 30
0.0
 40
3.0
  1
備 考
 11
-59.0
 21
24.0
 31
0.0
100
AcDbText
 73
     2
  0
TEXT
  5
14BB
330
14A7
100
AcDbEntity
  8
AM_BOR
 62
     2
100
AcDbText
 10
-59.0
 20
15.5
 30
0.0
 40
3.0
  1
品 名
 11
-59.0
 21
17.0
 31
0.0
100
AcDbText
 73
     2
  0
TEXT
  5
14BC
330
14A7
100
AcDbEntity
  8
AM_BOR
 62
     2
100
AcDbText
 10
-59.0
 20
6.499999999999992
 30
0.0
 40
3.0
  1
図 番
 11
-59.0
 21
7.999999999999992
 31
0.0
100
AcDbText
 73
     2
  0
TEXT
  5
14BD
330
14A7
100
AcDbEntity
  8
AM_BOR
 62
     2
100
AcDbText
 10
-109.0
 20
29.5
 30
0.0
 40
3.0
  1
承認
 11
-109.0
 21
31.0
 31
0.0
100
AcDbText
 73
     2
  0
TEXT
  5
14BE
330
14A7
100
AcDbEntity
  8
AM_BOR
 62
     2
100
AcDbText
 10
-109.0
 20
22.5
 30
0.0
 40
3.0
  1
設計
 11
-109.0
 21
24.0
 31
0.0
100
AcDbText
 73
     2
  0
TEXT
  5
14BF
330
14A7
100
AcDbEntity
  8
AM_BOR
 62
     2
100
AcDbText
 10
-84.0
 20
22.5
 30
0.0
 40
3.0
  1
製図
 11
-84.0
 21
24.0
 31
0.0
100
AcDbText
 73
     2
  0
TEXT
  5
14C0
330
14A7
100
AcDbEntity
  8
AM_BOR
 62
     2
100
AcDbText
 10
-84.0
 20
29.5
 30
0.0
 40
3.0
  1
検図
 11
-84.0
 21
31.0
 31
0.0
100
AcDbText
 73
     2
  0
ATTDEF
  5
14C1
330
14A7
100
AcDbEntity
  8
AM_BOR
100
AcDbText
 10
-49.48020001333898
 20
12.75
 30
0.0
 40
3.5
  1

 11
-49.48020001333898
 21
14.5
 31
0.0
100
AcDbAttributeDefinition
  3
品名
  2
HINMEI{14}
 70
     0
 74
     2
  0
ATTDEF
  5
14C2
330
14A7
100
AcDbEntity
  8
AM_BOR
100
AcDbText
 10
-49.48020001333898
 20
3.249999999999992
 30
0.0
 40
3.5
  1

 11
-49.48020001333898
 21
4.999999999999992
 31
0.0
100
AcDbAttributeDefinition
  3
図番
  2
ZUBAN{14}
 70
     0
 74
     2
  0
ATTDEF
  5
14C3
330
14A7
100
AcDbEntity
  8
AM_BOR
 62
     2
100
AcDbText
 10
-11.91705654530994
 20
35.0
 30
0.0
 40
3.0
  1

 41
0.8
 11
-11.91705654530994
 21
36.5
 31
0.0
100
AcDbAttributeDefinition
  3
日付
  2
GEN-TITLE-DAT{3.5}
 70
     0
 74
     2
  0
ATTDEF
  5
14C4
330
14A7
100
AcDbEntity
  8
AM_BOR
 62
     2
100
AcDbText
 10
-71.63012018472975
 20
20.00000000000001
 30
0.0
 40
3.0
  1
水 田
 72
     4
 11
-67.63012018472974
 21
21.50000000000002
 31
0.0
100
AcDbAttributeDefinition
  3
製図
  2
SEIZU
 70
     0
  0
ATTDEF
  5
14C5
330
14A7
100
AcDbEntity
  8
AM_BOR
 62
     2
100
AcDbText
 10
-31.91705654530995
 20
35.0
 30
0.0
 40
3.0
  1

 11
-31.91705654530995
 21
36.5
 31
0.0
100
AcDbAttributeDefinition
  3
尺度
  2
GEN-TITLE-SCA
 70
     0
 74
     2
  0
LINE
  5
14C6
330
14A7
100
AcDbEntity
  8
0
100
AcDbLine
 10
-106.9502221859465
 20
14.71456568209314
 30
0.0
 11
-107.7139711131768
 21
11.16237652835879
 31
0.0
  0
LINE
  5
14C7
330
14A7
100
AcDbEntity
  8
0
100
AcDbLine
 10
-107.7139711131768
 20
11.16237652835879
 30
0.0
 11
-107.6697551010107
 21
11.22470827233807
 31
0.0
  0
ELLIPSE
  5
14C8
330
14A7
100
AcDbEntity
  8
0
100
AcDbEllipse
 10
-106.5198686826232
 20
9.133166589319488
 30
0.0
 11
0.0200858413762701
 21
2.795177724472429
 31
0.0
210
0.0
220
0.0
230
1.0
 40
0.6250197778053533
 41
-1.051714224928873
 42
0.7298517778971401
1001
GENIUS_GENODEF_13
1002
{
1000
HIER
1070
     0
1002
}
1002
{
1000
MANEDIT
1070
     0
1002
}
1002
{
1000
NOSEL
1070
     0
1002
}
1002
{
1000
BEHIND
1070
     0
1002
}
1002
{
1000
REACTOR
1002
}
1001
GENIUS_GENOBJ-N-FIL_13
1002
{
1000
OWNER
1000
GEN
1002
}
  0
ELLIPSE
  5
14C9
330
14A7
100
AcDbEntity
  8
0
100
AcDbEllipse
 10
-105.2984958385996
 20
13.8219417489321
 30
0.0
 11
0.0200858413762916
 21
2.795177724472415
 31
0.0
210
0.0
220
0.0
230
1.0
 40
0.6250197778053527
 41
-1.051714224928867
 42
1.250253596044828
1001
GENIUS_GENODEF_13
1002
{
1000
HIER
1070
     0
1002
}
1002
{
1000
MANEDIT
1070
     0
1002
}
1002
{
1000
NOSEL
1070
     0
1002
}
1002
{
1000
BEHIND
1070
     0
1002
}
1002
{
1000
REACTOR
1002
}
1001
GENIUS_GENOBJ-N-FIL_13
1002
{
1000
OWNER
1000
GEN
1002
}
  0
LINE
  5
14CA
330
14A7
100
AcDbEntity
  8
0
100
AcDbLine
 10
-98.48721298302093
 20
8.077457208786752
 30
0.0
 11
-99.45177360188811
 21
4.065819878065248
 31
0.0
  0
ELLIPSE
  5
14CB
330
14A7
100
AcDbEntity
  8
0
100
AcDbEllipse
 10
-101.0818809708247
 20
5.053412867376919
 30
0.0
 11
0.0200858413762853
 21
2.795177724472413
 31
0.0
210
0.0
220
0.0
230
1.0
 40
0.6250197778053547
 41
2.089878428660925
 42
4.355766148231805
1001
GENIUS_GENODEF_13
1002
{
1000
HIER
1070
     0
1002
}
1002
{
1000
MANEDIT
1070
     0
1002
}
1002
{
1000
NOSEL
1070
     0
1002
}
1002
{
1000
BEHIND
1070
     0
1002
}
1002
{
1000
REACTOR
1002
}
1001
GENIUS_GENOBJ-N-FIL_13
1002
{
1000
OWNER
1000
GEN
1002
}
  0
LINE
  5
14CC
330
14A7
100
AcDbEntity
  8
0
100
AcDbLine
 10
-98.48721298302093
 20
8.077457208786752
 30
0.0
 11
-98.66382720839389
 21
7.801834007856294
 31
0.0
  0
ELLIPSE
  5
14CD
330
14A7
100
AcDbEntity
  8
0
100
AcDbEllipse
 10
-99.87931293102301
 20
9.796066964505511
 30
0.0
 11
0.0200858413762724
 21
2.795177724472415
 31
0.0
210
0.0
220
0.0
230
0.9999999999999998
 40
0.6250197778053552
 41
2.08987842866092
 42
3.922474143254961
1001
GENIUS_GENODEF_13
1002
{
1000
HIER
1070
     0
1002
}
1002
{
1000
MANEDIT
1070
     0
1002
}
1002
{
1000
NOSEL
1070
     0
1002
}
1002
{
1000
BEHIND
1070
     0
1002
}
1002
{
1000
REACTOR
1002
}
1001
GENIUS_GENOBJ-N-FIL_13
1002
{
1000
OWNER
1000
GEN
1002
}
  0
HATCH
  5
14CE
330
14A7
100
AcDbEntity
  8
AM_8
100
AcDbHatch
 10
0.0
 20
0.0
 30
0.0
210
0.0
220
0.0
230
1.0
  2
SOLID
 70
     1
 71
     0
 91
        1
 92
        1
 93
        2
 72
     3
 10
-106.7638987916396
 20
4.957358478318376
 11
0.0000000000000547
 21
2.56276973145977
 40
0.8333333333333941
 50
-77.14069946214277
 51
264.4007371808275
 73
     1
 72
     3
 10
-106.7638987916396
 20
4.957358478318376
 11
-0.0000000000003928
 21
2.562769731461267
 40
0.8333333333328997
 50
264.4007371808174
 51
282.8593005378472
 73
     1
 97
        0
 75
     0
 76
     1
 98
        1
 10
65.20293740923941
 20
-32.16820874956388
1001
GENIUS_GENODEF_13
1002
{
1000
HIER
1070
     0
1002
}
1002
{
1000
MANEDIT
1070
     0
1002
}
1002
{
1000
NOSEL
1070
     0
1002
}
1002
{
1000
BEHIND
1070
     0
1002
}
1002
{
1000
REACTOR
1002
}
1001
GENIUS_GENOBJ-N-HTC_13
1002
{
1000
OWNER
1000
GEN
1002
}
1001
GENIUS_GENHATCH_13
1002
{
1000
DATA
1040
0.0
1042
0.0015799698758396
1000
SOLID
1070
     0
1011
70.0136537122014
1021
-14.7540192633455
1031
0.0
1002
}
1002
{
1000
UCS
1010
0.0
1020
0.0
1030
0.0
1010
1.0
1020
0.0
1030
0.0
1010
0.0
1020
1.0
1030
0.0
1002
}
  0
ELLIPSE
  5
14CF
330
14A7
100
AcDbEntity
  8
0
100
AcDbEllipse
 10
-106.7638987916396
 20
4.957358478318417
 30
0.0
 11
0.0000000000000006
 21
2.562769731459943
 31
0.0
210
0.0
220
0.0
230
1.0
 40
0.8333333333333353
 41
-1.570796326794896
 42
4.712388980384689
  0
HATCH
  5
14D0
330
14A7
100
AcDbEntity
  8
AM_8
100
AcDbHatch
 10
0.0
 20
0.0
 30
0.0
210
0.0
220
0.0
230
1.0
  2
SOLID
 70
     1
 71
     0
 91
        1
 92
        1
 93
       10
 72
     1
 10
-106.9502221859465
 20
14.71456568209311
 11
-107.7139711131768
 21
11.16237652835879
 72
     1
 10
-107.7139711131768
 20
11.16237652835879
 11
-107.6697551010108
 21
11.22470827233809
 72
     3
 10
-106.5198686826232
 20
9.133166589319488
 11
0.0200858413762859
 21
2.795177724472421
 40
0.6250197778053525
 50
-29.21280058452436
 51
47.56891328106517
 73
     0
 72
     1
 10
-104.9929922696577
 20
10.5089073790986
 11
-102.6087573837903
 21
3.677672077597827
 72
     3
 10
-101.0818809708247
 20
5.053412867376919
 11
0.0200858413762844
 21
2.79517772447242
 40
0.625019777805353
 50
132.4310867189347
 51
239.202331800838
 73
     1
 72
     1
 10
-99.45177360188809
 20
4.065819878065248
 11
-98.48721298302093
 21
8.077457208786761
 72
     1
 10
-98.48721298302095
 20
8.077457208786752
 11
-98.66382720839393
 21
7.801834007856288
 72
     3
 10
-99.87931293102301
 20
9.796066964505511
 11
0.0200858413762811
 21
2.795177724472416
 40
0.6250197778053536
 50
148.2259629226598
 51
227.5689132810653
 73
     0
 72
     1
 10
-101.4061893439886
 20
8.420326174726406
 11
-103.771619425634
 21
15.19768253871121
 72
     3
 10
-105.2984958385996
 20
13.8219417489321
 11
0.02008584137625
 21
2.795177724472417
 40
0.6250197778053583
 50
-47.56891328106589
 51
62.02409398278944
 73
     1
 97
        0
 75
     0
 76
     1
 98
        1
 10
65.20293740923941
 20
-32.16820874956388
1001
GENIUS_GENODEF_13
1002
{
1000
HIER
1070
     0
1002
}
1002
{
1000
MANEDIT
1070
     0
1002
}
1002
{
1000
NOSEL
1070
     0
1002
}
1002
{
1000
BEHIND
1070
     0
1002
}
1002
{
1000
REACTOR
1002
}
1001
GENIUS_GENOBJ-N-HTC_13
1002
{
1000
OWNER
1000
GEN
1002
}
1001
GENIUS_GENHATCH_13
1002
{
1000
DATA
1040
0.0
1042
0.0015799698758396
1000
SOLID
1070
     0
1011
74.07735655451816
1021
-11.90112763631223
1031
0.0
1002
}
1002
{
1000
UCS
1010
0.0
1020
0.0
1030
0.0
1010
1.0
1020
0.0
1030
0.0
1010
0.0
1020
1.0
1030
0.0
1002
}
  0
LINE
  5
14D1
330
14A7
100
AcDbEntity
  8
0
100
AcDbLine
 10
-104.9929922696577
 20
10.5089073790986
 30
0.0
 11
-102.6087573837903
 21
3.677672077597847
 31
0.0
  0
LINE
  5
14D2
330
14A7
100
AcDbEntity
  8
0
100
AcDbLine
 10
-101.4061893439886
 20
8.420326174726406
 30
0.0
 11
-103.771619425634
 21
15.1976825387112
 31
0.0
  0
TEXT
  5
14D3
330
14A7
100
AcDbEntity
  8
0
100
AcDbText
 10
-92.04358977334541
 20
2.736280326823534
 30
0.0
 40
1.397647058823528
  1
ASOH   CO.LTD
 41
2.222222222222219
  7
ｽﾀｲﾙ1
100
AcDbText
  0
TEXT
  5
14D4
330
14A7
100
AcDbEntity
  8
0
100
AcDbText
 10
-96.37601713265375
 20
7.065690057310197
 30
0.0
 40
9.355420606948992
  1
アソー株式会社
 41
0.4444444444444381
  7
ｽﾀｲﾙ1
100
AcDbText
  0
ENDBLK
  5
14D6
330
14A7
100
AcDbEntity
  8
0
100
AcDbBlockEnd
  0
BLOCK
  5
22F6
330
22C4
100
AcDbEntity
  8
0
100
AcDbBlockBegin
  2
ASO-A
 70
     2
 10
0.0
 20
0.0
 30
0.0
  3
ASO-A
  1

  0
LINE
  5
22C5
330
22C4
100
AcDbEntity
  8
AM_BOR
 62
   211
100
AcDbLine
 10
-110.0
 20
0.0
 30
0.0
 11
0.0
 21
0.0
 31
0.0
1001
GENIUS_GENREC_14
1002
{
1000
PYDIR
1011
-110.0
1021
40.0
1031
0.0
1002
}
1002
{
1000
PXDIR
1011
0.0
1021
0.0
1031
0.0
1002
}
1002
{
1000
PORI
1011
-110.0
1021
0.0
1031
0.0
1002
}
1002
{
1000
PINS
1011
-110.0
1021
0.0
1031
0.0
1002
}
1002
{
1000
HVAL
1000
40
1002
}
1002
{
1000
H
1070
     2
1002
}
1002
{
1000
WVAL
1000
110
1002
}
1002
{
1000
W
1070
     2
1002
}
1002
{
1000
C
1070
     1
1002
}
1001
GENIUS_GENODEF_13
1002
{
1000
HIER
1070
     0
1002
}
1002
{
1000
MANEDIT
1070
     0
1002
}
1002
{
1000
NOSEL
1070
     0
1002
}
1002
{
1000
BEHIND
1070
     0
1002
}
1002
{
1000
REACTOR
1002
}
1001
GENIUS_GENOBJ-N-REC_13
1002
{
1000
OWNER
1000
GEN
1002
}
  0
LINE
  5
22C6
330
22C4
100
AcDbEntity
  8
AM_BOR
 62
   211
100
AcDbLine
 10
0.0
 20
0.0
 30
0.0
 11
0.0
 21
40.0
 31
0.0
1001
GENIUS_GENREC_14
1002
{
1000
PYDIR
1011
-110.0
1021
40.0
1031
0.0
1002
}
1002
{
1000
PXDIR
1011
0.0
1021
0.0
1031
0.0
1002
}
1002
{
1000
PORI
1011
-110.0
1021
0.0
1031
0.0
1002
}
1002
{
1000
PINS
1011
-110.0
1021
0.0
1031
0.0
1002
}
1002
{
1000
HVAL
1000
40
1002
}
1002
{
1000
H
1070
     2
1002
}
1002
{
1000
WVAL
1000
110
1002
}
1002
{
1000
W
1070
     2
1002
}
1002
{
1000
C
1070
     1
1002
}
1001
GENIUS_GENODEF_13
1002
{
1000
HIER
1070
     0
1002
}
1002
{
1000
MANEDIT
1070
     0
1002
}
1002
{
1000
NOSEL
1070
     0
1002
}
1002
{
1000
BEHIND
1070
     0
1002
}
1002
{
1000
REACTOR
1002
}
1001
GENIUS_GENOBJ-N-REC_13
1002
{
1000
OWNER
1000
GEN
1002
}
  0
LINE
  5
22C7
330
22C4
100
AcDbEntity
  8
AM_BOR
 62
   211
100
AcDbLine
 10
0.0
 20
40.0
 30
0.0
 11
-110.0
 21
40.00000000000001
 31
0.0
1001
GENIUS_GENREC_14
1002
{
1000
PYDIR
1011
-110.0
1021
40.0
1031
0.0
1002
}
1002
{
1000
PXDIR
1011
0.0
1021
0.0
1031
0.0
1002
}
1002
{
1000
PORI
1011
-110.0
1021
0.0
1031
0.0
1002
}
1002
{
1000
PINS
1011
-110.0
1021
0.0
1031
0.0
1002
}
1002
{
1000
HVAL
1000
40
1002
}
1002
{
1000
H
1070
     2
1002
}
1002
{
1000
WVAL
1000
110
1002
}
1002
{
1000
W
1070
     2
1002
}
1002
{
1000
C
1070
     1
1002
}
1001
GENIUS_GENODEF_13
1002
{
1000
HIER
1070
     0
1002
}
1002
{
1000
MANEDIT
1070
     0
1002
}
1002
{
1000
NOSEL
1070
     0
1002
}
1002
{
1000
BEHIND
1070
     0
1002
}
1002
{
1000
REACTOR
1002
}
1001
GENIUS_GENOBJ-N-REC_13
1002
{
1000
OWNER
1000
GEN
1002
}
  0
LINE
  5
22C8
330
22C4
100
AcDbEntity
  8
AM_BOR
 62
   211
100
AcDbLine
 10
-110.0
 20
40.00000000000001
 30
0.0
 11
-110.0
 21
0.0
 31
0.0
1001
GENIUS_GENREC_14
1002
{
1000
PYDIR
1011
-110.0
1021
40.0
1031
0.0
1002
}
1002
{
1000
PXDIR
1011
0.0
1021
0.0
1031
0.0
1002
}
1002
{
1000
PORI
1011
-110.0
1021
0.0
1031
0.0
1002
}
1002
{
1000
PINS
1011
-110.0
1021
0.0
1031
0.0
1002
}
1002
{
1000
HVAL
1000
40
1002
}
1002
{
1000
H
1070
     2
1002
}
1002
{
1000
WVAL
1000
110
1002
}
1002
{
1000
W
1070
     2
1002
}
1002
{
1000
C
1070
     1
1002
}
1001
GENIUS_GENODEF_13
1002
{
1000
HIER
1070
     0
1002
}
1002
{
1000
MANEDIT
1070
     0
1002
}
1002
{
1000
NOSEL
1070
     0
1002
}
1002
{
1000
BEHIND
1070
     0
1002
}
1002
{
1000
REACTOR
1002
}
1001
GENIUS_GENOBJ-N-REC_13
1002
{
1000
OWNER
1000
GEN
1002
}
  0
LINE
  5
22C9
330
22C4
100
AcDbEntity
  8
AM_BOR
 62
     5
100
AcDbLine
 10
-60.0
 20
9.999999999999992
 30
0.0
 11
0.0
 21
10.0
 31
0.0
1001
GENIUS_GENREC_14
1002
{
1000
PYDIR
1011
-110.0
1021
40.0
1031
0.0
1002
}
1002
{
1000
PXDIR
1011
0.0
1021
0.0
1031
0.0
1002
}
1002
{
1000
PORI
1011
-110.0
1021
0.0
1031
0.0
1002
}
1002
{
1000
PINS
1011
-110.0
1021
0.0
1031
0.0
1002
}
1002
{
1000
HVAL
1000
40
1002
}
1002
{
1000
H
1070
     2
1002
}
1002
{
1000
WVAL
1000
110
1002
}
1002
{
1000
W
1070
     2
1002
}
1002
{
1000
C
1070
     1
1002
}
  0
LINE
  5
22CA
330
22C4
100
AcDbEntity
  8
AM_BOR
 62
     5
100
AcDbLine
 10
-110.0
 20
19.0
 30
0.0
 11
0.0
 21
19.0
 31
0.0
1001
GENIUS_GENREC_14
1002
{
1000
PYDIR
1011
-110.0
1021
40.0
1031
0.0
1002
}
1002
{
1000
PXDIR
1011
0.0
1021
0.0
1031
0.0
1002
}
1002
{
1000
PORI
1011
-110.0
1021
0.0
1031
0.0
1002
}
1002
{
1000
PINS
1011
-110.0
1021
0.0
1031
0.0
1002
}
1002
{
1000
HVAL
1000
40
1002
}
1002
{
1000
H
1070
     2
1002
}
1002
{
1000
WVAL
1000
110
1002
}
1002
{
1000
W
1070
     2
1002
}
1002
{
1000
C
1070
     1
1002
}
1001
GENIUS_GENODEF_13
1002
{
1000
HIER
1070
     0
1002
}
1002
{
1000
MANEDIT
1070
     0
1002
}
1002
{
1000
NOSEL
1070
     0
1002
}
1002
{
1000
BEHIND
1070
     0
1002
}
1002
{
1000
REACTOR
1002
}
1001
GENIUS_GENOBJ-N-REC_13
1002
{
1000
OWNER
1000
GEN
1002
}
  0
LINE
  5
22CB
330
22C4
100
AcDbEntity
  8
AM_BOR
 62
     5
100
AcDbLine
 10
-110.0
 20
26.0
 30
0.0
 11
0.0
 21
26.0
 31
0.0
1001
GENIUS_GENREC_14
1002
{
1000
PYDIR
1011
-110.0
1021
40.0
1031
0.0
1002
}
1002
{
1000
PXDIR
1011
0.0
1021
0.0
1031
0.0
1002
}
1002
{
1000
PORI
1011
-110.0
1021
0.0
1031
0.0
1002
}
1002
{
1000
PINS
1011
-110.0
1021
0.0
1031
0.0
1002
}
1002
{
1000
HVAL
1000
40
1002
}
1002
{
1000
H
1070
     2
1002
}
1002
{
1000
WVAL
1000
110
1002
}
1002
{
1000
W
1070
     2
1002
}
1002
{
1000
C
1070
     1
1002
}
1001
GENIUS_GENODEF_13
1002
{
1000
HIER
1070
     0
1002
}
1002
{
1000
MANEDIT
1070
     0
1002
}
1002
{
1000
NOSEL
1070
     0
1002
}
1002
{
1000
BEHIND
1070
     0
1002
}
1002
{
1000
REACTOR
1002
}
1001
GENIUS_GENOBJ-N-REC_13
1002
{
1000
OWNER
1000
GEN
1002
}
  0
LINE
  5
22CC
330
22C4
100
AcDbEntity
  8
AM_BOR
 62
     5
100
AcDbLine
 10
-110.0
 20
33.0
 30
0.0
 11
0.0
 21
33.0
 31
0.0
1001
GENIUS_GENREC_14
1002
{
1000
PYDIR
1011
-110.0
1021
40.0
1031
0.0
1002
}
1002
{
1000
PXDIR
1011
0.0
1021
0.0
1031
0.0
1002
}
1002
{
1000
PORI
1011
-110.0
1021
0.0
1031
0.0
1002
}
1002
{
1000
PINS
1011
-110.0
1021
0.0
1031
0.0
1002
}
1002
{
1000
HVAL
1000
40
1002
}
1002
{
1000
H
1070
     2
1002
}
1002
{
1000
WVAL
1000
110
1002
}
1002
{
1000
W
1070
     2
1002
}
1002
{
1000
C
1070
     1
1002
}
1001
GENIUS_GENODEF_13
1002
{
1000
HIER
1070
     0
1002
}
1002
{
1000
MANEDIT
1070
     0
1002
}
1002
{
1000
NOSEL
1070
     0
1002
}
1002
{
1000
BEHIND
1070
     0
1002
}
1002
{
1000
REACTOR
1002
}
1001
GENIUS_GENOBJ-N-REC_13
1002
{
1000
OWNER
1000
GEN
1002
}
  0
LINE
  5
22CD
330
22C4
100
AcDbEntity
  8
AM_BOR
 62
     5
100
AcDbLine
 10
-85.0
 20
33.0
 30
0.0
 11
-85.0
 21
18.99999999999998
 31
0.0
1001
GENIUS_GENREC_14
1002
{
1000
PYDIR
1011
-110.0
1021
40.0
1031
0.0
1002
}
1002
{
1000
PXDIR
1011
0.0
1021
0.0
1031
0.0
1002
}
1002
{
1000
PORI
1011
-110.0
1021
0.0
1031
0.0
1002
}
1002
{
1000
PINS
1011
-110.0
1021
0.0
1031
0.0
1002
}
1002
{
1000
HVAL
1000
40
1002
}
1002
{
1000
H
1070
     2
1002
}
1002
{
1000
WVAL
1000
110
1002
}
1002
{
1000
W
1070
     2
1002
}
1002
{
1000
C
1070
     1
1002
}
1001
GENIUS_GENODEF_13
1002
{
1000
HIER
1070
     0
1002
}
1002
{
1000
MANEDIT
1070
     0
1002
}
1002
{
1000
NOSEL
1070
     0
1002
}
1002
{
1000
BEHIND
1070
     0
1002
}
1002
{
1000
REACTOR
1002
}
1001
GENIUS_GENOBJ-N-REC_13
1002
{
1000
OWNER
1000
GEN
1002
}
  0
LINE
  5
22CE
330
22C4
100
AcDbEntity
  8
AM_BOR
 62
     5
100
AcDbLine
 10
-60.0
 20
40.00000000000001
 30
0.0
 11
-60.0
 21
0.0
 31
0.0
1001
GENIUS_GENREC_14
1002
{
1000
PYDIR
1011
-110.0
1021
40.0
1031
0.0
1002
}
1002
{
1000
PXDIR
1011
0.0
1021
0.0
1031
0.0
1002
}
1002
{
1000
PORI
1011
-110.0
1021
0.0
1031
0.0
1002
}
1002
{
1000
PINS
1011
-110.0
1021
0.0
1031
0.0
1002
}
1002
{
1000
HVAL
1000
40
1002
}
1002
{
1000
H
1070
     2
1002
}
1002
{
1000
WVAL
1000
110
1002
}
1002
{
1000
W
1070
     2
1002
}
1002
{
1000
C
1070
     1
1002
}
1001
GENIUS_GENODEF_13
1002
{
1000
HIER
1070
     0
1002
}
1002
{
1000
MANEDIT
1070
     0
1002
}
1002
{
1000
NOSEL
1070
     0
1002
}
1002
{
1000
BEHIND
1070
     0
1002
}
1002
{
1000
REACTOR
1002
}
1001
GENIUS_GENOBJ-N-REC_13
1002
{
1000
OWNER
1000
GEN
1002
}
  0
LINE
  5
22CF
330
22C4
100
AcDbEntity
  8
AM_BOR
 62
     5
100
AcDbLine
 10
-20.0
 20
33.0
 30
0.0
 11
-20.0
 21
40.0
 31
0.0
1001
GENIUS_GENREC_14
1002
{
1000
PYDIR
1011
-110.0
1021
40.0
1031
0.0
1002
}
1002
{
1000
PXDIR
1011
0.0
1021
0.0
1031
0.0
1002
}
1002
{
1000
PORI
1011
-110.0
1021
0.0
1031
0.0
1002
}
1002
{
1000
PINS
1011
-110.0
1021
0.0
1031
0.0
1002
}
1002
{
1000
HVAL
1000
40
1002
}
1002
{
1000
H
1070
     2
1002
}
1002
{
1000
WVAL
1000
110
1002
}
1002
{
1000
W
1070
     2
1002
}
1002
{
1000
C
1070
     1
1002
}
1001
GENIUS_GENODEF_13
1002
{
1000
HIER
1070
     0
1002
}
1002
{
1000
MANEDIT
1070
     0
1002
}
1002
{
1000
NOSEL
1070
     0
1002
}
1002
{
1000
BEHIND
1070
     0
1002
}
1002
{
1000
REACTOR
1002
}
1001
GENIUS_GENOBJ-N-REC_13
1002
{
1000
OWNER
1000
GEN
1002
}
  0
LINE
  5
22D0
330
22C4
100
AcDbEntity
  8
AM_BOR
 62
     5
100
AcDbLine
 10
-40.0
 20
33.0
 30
0.0
 11
-40.0
 21
40.0
 31
0.0
1001
GENIUS_GENREC_14
1002
{
1000
PYDIR
1011
-110.0
1021
40.0
1031
0.0
1002
}
1002
{
1000
PXDIR
1011
0.0
1021
0.0
1031
0.0
1002
}
1002
{
1000
PORI
1011
-110.0
1021
0.0
1031
0.0
1002
}
1002
{
1000
PINS
1011
-110.0
1021
0.0
1031
0.0
1002
}
1002
{
1000
HVAL
1000
40
1002
}
1002
{
1000
H
1070
     2
1002
}
1002
{
1000
WVAL
1000
110
1002
}
1002
{
1000
W
1070
     2
1002
}
1002
{
1000
C
1070
     1
1002
}
1001
GENIUS_GENODEF_13
1002
{
1000
HIER
1070
     0
1002
}
1002
{
1000
MANEDIT
1070
     0
1002
}
1002
{
1000
NOSEL
1070
     0
1002
}
1002
{
1000
BEHIND
1070
     0
1002
}
1002
{
1000
REACTOR
1002
}
1001
GENIUS_GENOBJ-N-REC_13
1002
{
1000
OWNER
1000
GEN
1002
}
  0
LINE
  5
22D1
330
22C4
100
AcDbEntity
  8
AM_BOR
 62
     5
100
AcDbLine
 10
-80.0
 20
33.0
 30
0.0
 11
-80.0
 21
40.0
 31
0.0
1001
GENIUS_GENREC_14
1002
{
1000
PYDIR
1011
-110.0
1021
40.0
1031
0.0
1002
}
1002
{
1000
PXDIR
1011
0.0
1021
0.0
1031
0.0
1002
}
1002
{
1000
PORI
1011
-110.0
1021
0.0
1031
0.0
1002
}
1002
{
1000
PINS
1011
-110.0
1021
0.0
1031
0.0
1002
}
1002
{
1000
HVAL
1000
40
1002
}
1002
{
1000
H
1070
     2
1002
}
1002
{
1000
WVAL
1000
110
1002
}
1002
{
1000
W
1070
     2
1002
}
1002
{
1000
C
1070
     1
1002
}
1001
GENIUS_GENODEF_13
1002
{
1000
HIER
1070
     0
1002
}
1002
{
1000
MANEDIT
1070
     0
1002
}
1002
{
1000
NOSEL
1070
     0
1002
}
1002
{
1000
BEHIND
1070
     0
1002
}
1002
{
1000
REACTOR
1002
}
1001
GENIUS_GENOBJ-N-REC_13
1002
{
1000
OWNER
1000
GEN
1002
}
  0
TEXT
  5
22D2
330
22C4
100
AcDbEntity
  8
AM_BOR
 62
     2
100
AcDbText
 10
-57.4
 20
35.0
 30
0.0
 40
3.0
  1
単位 ｍｍ
 72
     4
 11
-50.0
 21
36.5
 31
0.0
100
AcDbText
  0
TEXT
  5
22D3
330
22C4
100
AcDbEntity
  8
AM_BOR
 62
     2
100
AcDbText
 10
-39.0
 20
35.0
 30
0.0
 40
3.0
  1
尺度
 41
0.9
 11
-39.0
 21
36.5
 31
0.0
100
AcDbText
 73
     2
  0
TEXT
  5
22D4
330
22C4
100
AcDbEntity
  8
AM_BOR
 62
     2
100
AcDbText
 10
-19.0
 20
35.0
 30
0.0
 40
3.0
  1
日付
 41
0.9
 11
-19.0
 21
36.5
 31
0.0
100
AcDbText
 73
     2
  0
TEXT
  5
22D5
330
22C4
100
AcDbEntity
  8
AM_BOR
 62
     2
100
AcDbText
 10
-76.79999999999999
 20
34.99999999999999
 30
0.0
 40
3.0
  1
第３角法
 72
     4
 11
-70.0
 21
36.49999999999999
 31
0.0
100
AcDbText
  0
TEXT
  5
22D6
330
22C4
100
AcDbEntity
  8
AM_BOR
 62
     2
100
AcDbText
 10
-59.0
 20
29.5
 30
0.0
 40
3.0
  1
材 質
 11
-59.0
 21
31.0
 31
0.0
100
AcDbText
 73
     2
  0
TEXT
  5
22D7
330
22C4
100
AcDbEntity
  8
AM_BOR
 62
     2
100
AcDbText
 10
-59.0
 20
22.5
 30
0.0
 40
3.0
  1
備 考
 11
-59.0
 21
24.0
 31
0.0
100
AcDbText
 73
     2
  0
TEXT
  5
22D8
330
22C4
100
AcDbEntity
  8
AM_BOR
 62
     2
100
AcDbText
 10
-59.0
 20
15.5
 30
0.0
 40
3.0
  1
品 名
 11
-59.0
 21
17.0
 31
0.0
100
AcDbText
 73
     2
  0
TEXT
  5
22D9
330
22C4
100
AcDbEntity
  8
AM_BOR
 62
     2
100
AcDbText
 10
-59.0
 20
6.499999999999992
 30
0.0
 40
3.0
  1
図 番
 11
-59.0
 21
7.999999999999992
 31
0.0
100
AcDbText
 73
     2
  0
TEXT
  5
22DA
330
22C4
100
AcDbEntity
  8
AM_BOR
 62
     2
100
AcDbText
 10
-109.0
 20
29.5
 30
0.0
 40
3.0
  1
承認
 11
-109.0
 21
31.0
 31
0.0
100
AcDbText
 73
     2
  0
TEXT
  5
22DB
330
22C4
100
AcDbEntity
  8
AM_BOR
 62
     2
100
AcDbText
 10
-109.0
 20
22.5
 30
0.0
 40
3.0
  1
設計
 11
-109.0
 21
24.0
 31
0.0
100
AcDbText
 73
     2
  0
TEXT
  5
22DC
330
22C4
100
AcDbEntity
  8
AM_BOR
 62
     2
100
AcDbText
 10
-84.0
 20
22.5
 30
0.0
 40
3.0
  1
製図
 11
-84.0
 21
24.0
 31
0.0
100
AcDbText
 73
     2
  0
TEXT
  5
22DD
330
22C4
100
AcDbEntity
  8
AM_BOR
 62
     2
100
AcDbText
 10
-84.0
 20
29.5
 30
0.0
 40
3.0
  1
検図
 11
-84.0
 21
31.0
 31
0.0
100
AcDbText
 73
     2
  0
ATTDEF
  5
22DE
330
22C4
100
AcDbEntity
  8
AM_BOR
100
AcDbText
 10
-49.48020001333898
 20
12.75
 30
0.0
 40
3.5
  1

 11
-49.48020001333898
 21
14.5
 31
0.0
100
AcDbAttributeDefinition
  3
品名
  2
HINMEI{13}
 70
     0
 74
     2
  0
ATTDEF
  5
22DF
330
22C4
100
AcDbEntity
  8
AM_BOR
100
AcDbText
 10
-49.48020001333898
 20
3.249999999999992
 30
0.0
 40
3.5
  1

 11
-49.48020001333898
 21
4.999999999999992
 31
0.0
100
AcDbAttributeDefinition
  3
図番
  2
ZUBAN{14}
 70
     0
 74
     2
  0
ATTDEF
  5
22E0
330
22C4
100
AcDbEntity
  8
AM_BOR
 62
     2
100
AcDbText
 10
-11.91705654530994
 20
35.0
 30
0.0
 40
3.0
  1

 41
0.8
 11
-11.91705654530994
 21
36.5
 31
0.0
100
AcDbAttributeDefinition
  3
日付
  2
GEN-TITLE-DAT{3.5}
 70
     0
 74
     2
  0
ATTDEF
  5
22E1
330
22C4
100
AcDbEntity
  8
AM_BOR
 62
     2
100
AcDbText
 10
-71.63012018472975
 20
20.00000000000001
 30
0.0
 40
3.0
  1
水 田
 72
     4
 11
-67.63012018472974
 21
21.50000000000002
 31
0.0
100
AcDbAttributeDefinition
  3
製図
  2
SEIZU
 70
     0
  0
ATTDEF
  5
22E2
330
22C4
100
AcDbEntity
  8
AM_BOR
 62
     2
100
AcDbText
 10
-31.91705654530995
 20
35.0
 30
0.0
 40
3.0
  1

 11
-31.91705654530995
 21
36.5
 31
0.0
100
AcDbAttributeDefinition
  3
尺度
  2
GEN-TITLE-SCA
 70
     0
 74
     2
  0
LINE
  5
22E3
330
22C4
100
AcDbEntity
  8
0
100
AcDbLine
 10
-106.9502221859465
 20
14.71456568209314
 30
0.0
 11
-107.7139711131768
 21
11.16237652835879
 31
0.0
  0
LINE
  5
22E4
330
22C4
100
AcDbEntity
  8
0
100
AcDbLine
 10
-107.7139711131768
 20
11.16237652835879
 30
0.0
 11
-107.6697551010107
 21
11.22470827233807
 31
0.0
  0
ELLIPSE
  5
22E5
330
22C4
100
AcDbEntity
  8
0
100
AcDbEllipse
 10
-106.5198686826232
 20
9.133166589319488
 30
0.0
 11
0.0200858413762701
 21
2.795177724472429
 31
0.0
210
0.0
220
0.0
230
0.9999999999999998
 40
0.6250197778053533
 41
-1.051714224928873
 42
0.7298517778971401
1001
GENIUS_GENODEF_13
1002
{
1000
HIER
1070
     0
1002
}
1002
{
1000
MANEDIT
1070
     0
1002
}
1002
{
1000
NOSEL
1070
     0
1002
}
1002
{
1000
BEHIND
1070
     0
1002
}
1002
{
1000
REACTOR
1002
}
1001
GENIUS_GENOBJ-N-FIL_13
1002
{
1000
OWNER
1000
GEN
1002
}
  0
ELLIPSE
  5
22E6
330
22C4
100
AcDbEntity
  8
0
100
AcDbEllipse
 10
-105.2984958385996
 20
13.8219417489321
 30
0.0
 11
0.0200858413762916
 21
2.795177724472415
 31
0.0
210
0.0
220
0.0
230
1.0
 40
0.6250197778053527
 41
-1.051714224928867
 42
1.250253596044828
1001
GENIUS_GENODEF_13
1002
{
1000
HIER
1070
     0
1002
}
1002
{
1000
MANEDIT
1070
     0
1002
}
1002
{
1000
NOSEL
1070
     0
1002
}
1002
{
1000
BEHIND
1070
     0
1002
}
1002
{
1000
REACTOR
1002
}
1001
GENIUS_GENOBJ-N-FIL_13
1002
{
1000
OWNER
1000
GEN
1002
}
  0
LINE
  5
22E7
330
22C4
100
AcDbEntity
  8
0
100
AcDbLine
 10
-98.48721298302093
 20
8.077457208786752
 30
0.0
 11
-99.45177360188811
 21
4.065819878065248
 31
0.0
  0
ELLIPSE
  5
22E8
330
22C4
100
AcDbEntity
  8
0
100
AcDbEllipse
 10
-101.0818809708247
 20
5.053412867376919
 30
0.0
 11
0.0200858413762853
 21
2.795177724472413
 31
0.0
210
0.0
220
0.0
230
1.0
 40
0.6250197778053547
 41
2.089878428660925
 42
4.355766148231805
1001
GENIUS_GENODEF_13
1002
{
1000
HIER
1070
     0
1002
}
1002
{
1000
MANEDIT
1070
     0
1002
}
1002
{
1000
NOSEL
1070
     0
1002
}
1002
{
1000
BEHIND
1070
     0
1002
}
1002
{
1000
REACTOR
1002
}
1001
GENIUS_GENOBJ-N-FIL_13
1002
{
1000
OWNER
1000
GEN
1002
}
  0
LINE
  5
22E9
330
22C4
100
AcDbEntity
  8
0
100
AcDbLine
 10
-98.48721298302093
 20
8.077457208786752
 30
0.0
 11
-98.66382720839389
 21
7.801834007856294
 31
0.0
  0
ELLIPSE
  5
22EA
330
22C4
100
AcDbEntity
  8
0
100
AcDbEllipse
 10
-99.87931293102301
 20
9.796066964505511
 30
0.0
 11
0.0200858413762724
 21
2.795177724472415
 31
0.0
210
0.0
220
0.0
230
0.9999999999999998
 40
0.6250197778053552
 41
2.08987842866092
 42
3.922474143254961
1001
GENIUS_GENODEF_13
1002
{
1000
HIER
1070
     0
1002
}
1002
{
1000
MANEDIT
1070
     0
1002
}
1002
{
1000
NOSEL
1070
     0
1002
}
1002
{
1000
BEHIND
1070
     0
1002
}
1002
{
1000
REACTOR
1002
}
1001
GENIUS_GENOBJ-N-FIL_13
1002
{
1000
OWNER
1000
GEN
1002
}
  0
HATCH
  5
22EB
330
22C4
100
AcDbEntity
  8
AM_8
100
AcDbHatch
 10
0.0
 20
0.0
 30
0.0
210
0.0
220
0.0
230
1.0
  2
SOLID
 70
     1
 71
     0
 91
        1
 92
        1
 93
        2
 72
     3
 10
-106.7638987916396
 20
4.957358478318376
 11
0.0000000000000547
 21
2.56276973145977
 40
0.8333333333333941
 50
-77.14069946214277
 51
264.4007371808275
 73
     1
 72
     3
 10
-106.7638987916396
 20
4.957358478318376
 11
-0.0000000000003928
 21
2.562769731461267
 40
0.8333333333328997
 50
264.4007371808174
 51
282.8593005378472
 73
     1
 97
        0
 75
     0
 76
     1
 98
        1
 10
65.20293740923941
 20
-32.16820874956388
1001
GENIUS_GENODEF_13
1002
{
1000
HIER
1070
     0
1002
}
1002
{
1000
MANEDIT
1070
     0
1002
}
1002
{
1000
NOSEL
1070
     0
1002
}
1002
{
1000
BEHIND
1070
     0
1002
}
1002
{
1000
REACTOR
1002
}
1001
GENIUS_GENOBJ-N-HTC_13
1002
{
1000
OWNER
1000
GEN
1002
}
1001
GENIUS_GENHATCH_13
1002
{
1000
DATA
1040
0.0
1042
0.0015799698758396
1000
SOLID
1070
     0
1011
70.0136537122014
1021
-14.7540192633455
1031
0.0
1002
}
1002
{
1000
UCS
1010
0.0
1020
0.0
1030
0.0
1010
1.0
1020
0.0
1030
0.0
1010
0.0
1020
1.0
1030
0.0
1002
}
  0
ELLIPSE
  5
22EC
330
22C4
100
AcDbEntity
  8
0
100
AcDbEllipse
 10
-106.7638987916396
 20
4.957358478318417
 30
0.0
 11
0.0000000000000006
 21
2.562769731459943
 31
0.0
210
0.0
220
0.0
230
1.0
 40
0.8333333333333353
 41
-1.570796326794896
 42
4.712388980384689
  0
HATCH
  5
22ED
330
22C4
100
AcDbEntity
  8
AM_8
100
AcDbHatch
 10
0.0
 20
0.0
 30
0.0
210
0.0
220
0.0
230
1.0
  2
SOLID
 70
     1
 71
     0
 91
        1
 92
        1
 93
       10
 72
     1
 10
-106.9502221859465
 20
14.71456568209311
 11
-107.7139711131768
 21
11.16237652835879
 72
     1
 10
-107.7139711131768
 20
11.16237652835879
 11
-107.6697551010108
 21
11.22470827233809
 72
     3
 10
-106.5198686826232
 20
9.133166589319488
 11
0.0200858413762859
 21
2.795177724472421
 40
0.6250197778053525
 50
-29.21280058452436
 51
47.56891328106517
 73
     0
 72
     1
 10
-104.9929922696577
 20
10.5089073790986
 11
-102.6087573837903
 21
3.677672077597827
 72
     3
 10
-101.0818809708247
 20
5.053412867376919
 11
0.0200858413762844
 21
2.79517772447242
 40
0.625019777805353
 50
132.4310867189347
 51
239.202331800838
 73
     1
 72
     1
 10
-99.45177360188809
 20
4.065819878065248
 11
-98.48721298302093
 21
8.077457208786761
 72
     1
 10
-98.48721298302095
 20
8.077457208786752
 11
-98.66382720839393
 21
7.801834007856288
 72
     3
 10
-99.87931293102301
 20
9.796066964505511
 11
0.0200858413762811
 21
2.795177724472416
 40
0.6250197778053536
 50
148.2259629226598
 51
227.5689132810653
 73
     0
 72
     1
 10
-101.4061893439886
 20
8.420326174726406
 11
-103.771619425634
 21
15.19768253871121
 72
     3
 10
-105.2984958385996
 20
13.8219417489321
 11
0.02008584137625
 21
2.795177724472417
 40
0.6250197778053583
 50
-47.56891328106589
 51
62.02409398278944
 73
     1
 97
        0
 75
     0
 76
     1
 98
        1
 10
65.20293740923941
 20
-32.16820874956388
1001
GENIUS_GENODEF_13
1002
{
1000
HIER
1070
     0
1002
}
1002
{
1000
MANEDIT
1070
     0
1002
}
1002
{
1000
NOSEL
1070
     0
1002
}
1002
{
1000
BEHIND
1070
     0
1002
}
1002
{
1000
REACTOR
1002
}
1001
GENIUS_GENOBJ-N-HTC_13
1002
{
1000
OWNER
1000
GEN
1002
}
1001
GENIUS_GENHATCH_13
1002
{
1000
DATA
1040
0.0
1042
0.0015799698758396
1000
SOLID
1070
     0
1011
74.07735655451816
1021
-11.90112763631223
1031
0.0
1002
}
1002
{
1000
UCS
1010
0.0
1020
0.0
1030
0.0
1010
1.0
1020
0.0
1030
0.0
1010
0.0
1020
1.0
1030
0.0
1002
}
  0
LINE
  5
22EE
330
22C4
100
AcDbEntity
  8
0
100
AcDbLine
 10
-104.9929922696577
 20
10.5089073790986
 30
0.0
 11
-102.6087573837903
 21
3.677672077597847
 31
0.0
  0
LINE
  5
22EF
330
22C4
100
AcDbEntity
  8
0
100
AcDbLine
 10
-101.4061893439886
 20
8.420326174726406
 30
0.0
 11
-103.771619425634
 21
15.1976825387112
 31
0.0
  0
TEXT
  5
22F0
330
22C4
100
AcDbEntity
  8
0
100
AcDbText
 10
-92.04358977334541
 20
2.736280326823534
 30
0.0
 40
1.397647058823528
  1
ASOH   CO.LTD
 41
2.222222222222219
  7
ｽﾀｲﾙ1
100
AcDbText
  0
TEXT
  5
22F1
330
22C4
100
AcDbEntity
  8
0
100
AcDbText
 10
-96.37601713265375
 20
7.065690057310197
 30
0.0
 40
9.355420606948992
  1
アソー株式会社
 41
0.4444444444444381
  7
ｽﾀｲﾙ1
100
AcDbText
  0
ATTDEF
  5
22F2
330
22C4
100
AcDbEntity
  8
AM_BOR
 62
     2
100
AcDbText
 10
-98.50320560717072
 20
20.29902073441097
 30
0.0
 40
3.0
  1
水 田
 72
     4
 11
-94.50320560717072
 21
21.79902073441097
 31
0.0
100
AcDbAttributeDefinition
  3
設計
  2
SEKEI
 70
     0
  0
ATTDEF
  5
22F3
330
22C4
100
AcDbEntity
  8
AM_BOR
 62
     2
100
AcDbText
 10
-97.04186970375872
 20
27.05583171251668
 30
0.0
 40
3.0
  1
樫井
 72
     4
 11
-93.8418697037587
 21
28.55583171251668
 31
0.0
100
AcDbAttributeDefinition
  3
承認
  2
SYOUNIN
 70
     0
  0
ATTDEF
  5
22F4
330
22C4
100
AcDbEntity
  8
AM_BOR
 62
     2
100
AcDbText
 10
-72.04186970375871
 20
27.05583171251667
 30
0.0
 40
3.0
  1
樫井
 72
     4
 11
-68.8418697037587
 21
28.55583171251667
 31
0.0
100
AcDbAttributeDefinition
  3
検図
  2
KENZU
 70
     0
  0
ENDBLK
  5
22F7
330
22C4
100
AcDbEntity
  8
0
100
AcDbBlockEnd
  0
BLOCK
  5
294D
330
294C
100
AcDbEntity
  8
0
100
AcDbBlockBegin
  2
_None
 70
     0
 10
0.0
 20
0.0
 30
0.0
  3
_None
  1

  0
ENDBLK
  5
294E
330
294C
100
AcDbEntity
  8
0
100
AcDbBlockEnd
  0
BLOCK
  5
431F
330
4315
100
AcDbEntity
  8
0
100
AcDbBlockBegin
  2
A$C713743F4
 70
     0
 10
0.0
 20
0.0
 30
0.0
  3
A$C713743F4
  1

  0
ARC
  5
4316
330
4315
100
AcDbEntity
  8
AM_0
100
AcDbCircle
 10
-9.000000000000284
 20
13.0
 30
0.0
 40
7.0
100
AcDbArc
 50
270.0
 51
294.7003883268381
  0
LINE
  5
4317
330
4315
100
AcDbEntity
  8
AM_0
 62
     0
100
AcDbLine
 10
-9.000000000000284
 20
6.0
 30
0.0
 11
-9.000000000000284
 21
-6.0
 31
0.0
  0
LINE
  5
4318
330
4315
100
AcDbEntity
  8
AM_0
 62
     0
100
AcDbLine
 10
8.999999999999715
 20
6.0
 30
0.0
 11
8.999999999999715
 21
-6.0
 31
0.0
  0
ARC
  5
4319
330
4315
100
AcDbEntity
  8
AM_0
100
AcDbCircle
 10
8.999999999999829
 20
13.0
 30
0.0
 40
7.0
100
AcDbArc
 50
245.2996116731619
 51
270.0
  0
ARC
  5
431A
330
4315
100
AcDbEntity
  8
AM_0
100
AcDbCircle
 10
-9.000000000000284
 20
-13.0
 30
0.0
 40
7.0
100
AcDbArc
 50
65.29961167316193
 51
90.0
  0
ARC
  5
431B
330
4315
100
AcDbEntity
  8
AM_0
100
AcDbCircle
 10
8.999999999999829
 20
-13.0
 30
0.0
 40
7.0
100
AcDbArc
 50
90.0
 51
114.700388326838
  0
ARC
  5
431C
330
4315
100
AcDbEntity
  8
AM_0
100
AcDbCircle
 10
-0.0000000000002274
 20
-6.500000000001023
 30
0.0
 40
4.0
100
AcDbArc
 50
205.9444797723482
 51
334.0555202276517
  0
ENDBLK
  5
4320
330
4315
100
AcDbEntity
  8
0
100
AcDbBlockEnd
  0
ENDSEC
  0
SECTION
  2
ENTITIES
  0
LINE
  5
412
330
1F
100
AcDbEntity
  8
AM_7
100
AcDbLine
 10
188.0634852962779
 20
286.0336787893956
 30
0.0
 11
188.063485296278
 21
343.8245141003483
 31
0.0
1001
GENIUS_GENODEF_13
1002
{
1000
HIER
1070
     0
1002
}
1002
{
1000
MANEDIT
1070
     0
1002
}
1002
{
1000
NOSEL
1070
     0
1002
}
1002
{
1000
BEHIND
1070
     0
1002
}
1002
{
1000
REACTOR
1002
}
1001
GENIUS_GENOBJ-N-CEN_13
1002
{
1000
OWNER
1000
GEN
1002
}
  0
LINE
  5
52A
330
1F
100
AcDbEntity
  8
0
100
AcDbLine
 10
185.063485296278
 20
327.7086924603795
 30
0.0
 11
185.063485296278
 21
322.5773860088827
 31
0.0
  0
LINE
  5
C7F
330
1F
100
AcDbEntity
  8
AM_4
100
AcDbLine
 10
212.5578187569569
 20
290.785439296418
 30
0.0
 11
202.9475295458331
 21
290.4851177585697
 31
0.0
  0
LINE
  5
C80
330
1F
100
AcDbEntity
  8
0
100
AcDbLine
 10
213.0634852962778
 20
291.0773860090151
 30
0.0
 11
210.9895758626117
 21
289.8800138392129
 31
0.0
  0
LINE
  5
C81
330
1F
100
AcDbEntity
  8
0
100
AcDbLine
 10
210.9895758626117
 20
289.8800138392129
 30
0.0
 11
210.9895758626116
 21
290.7364317059697
 31
0.0
  0
LINE
  5
C82
330
1F
100
AcDbEntity
  8
0
100
AcDbLine
 10
210.9895758626118
 20
289.880013839213
 30
0.0
 11
202.0634852962779
 21
289.6010735090144
 31
0.0
  0
LINE
  5
C83
330
1F
100
AcDbEntity
  8
AM_4
100
AcDbLine
 10
202.0634852962779
 20
289.6010735090144
 30
0.0
 11
202.9475295458331
 21
290.4851177585697
 31
0.0
  0
LINE
  5
C84
330
1F
100
AcDbEntity
  8
0
100
AcDbLine
 10
202.9475295458331
 20
290.4851177585697
 30
0.0
 11
202.9475295458332
 21
289.628699891813
 31
0.0
  0
LINE
  5
C86
330
1F
100
AcDbEntity
  8
AM_4
100
AcDbLine
 10
212.557818756956
 20
305.3693327216121
 30
0.0
 11
202.9475295458324
 21
305.6696542594592
 31
0.0
  0
LINE
  5
C87
330
1F
100
AcDbEntity
  8
0
100
AcDbLine
 10
210.9895758626107
 20
306.274758178817
 30
0.0
 11
202.063485296277
 21
306.5536985090144
 31
0.0
  0
LINE
  5
C88
330
1F
100
AcDbEntity
  8
0
100
AcDbLine
 10
210.9895758626107
 20
306.274758178817
 30
0.0
 11
210.9895758626108
 21
305.4183403120604
 31
0.0
  0
LINE
  5
C89
330
1F
100
AcDbEntity
  8
0
100
AcDbLine
 10
213.0634852962771
 20
305.0773860090151
 30
0.0
 11
210.9895758626107
 21
306.274758178817
 31
0.0
  0
LINE
  5
C8A
330
1F
100
AcDbEntity
  8
0
100
AcDbLine
 10
202.9475295458324
 20
305.6696542594592
 30
0.0
 11
202.9475295458324
 21
306.5260721262159
 31
0.0
  0
LINE
  5
C8B
330
1F
100
AcDbEntity
  8
AM_4
100
AcDbLine
 10
202.063485296277
 20
306.5536985090144
 30
0.0
 11
202.9475295458323
 21
305.6696542594592
 31
0.0
  0
LINE
  5
C8D
330
1F
100
AcDbEntity
  8
0
100
AcDbLine
 10
213.0634852962771
 20
305.077386009015
 30
0.0
 11
213.0634852962778
 21
291.0773860090151
 31
0.0
  0
TEXT
  5
216A
330
1F
100
AcDbEntity
  8
0
100
AcDbText
 10
196.0750134680508
 20
361.3019096461017
 30
0.0
 40
3.0
  1
▲
 50
180.0
 41
0.5
  7
ｽﾀｲﾙ1
100
AcDbText
  0
TEXT
  5
216B
330
1F
100
AcDbEntity
  8
0
100
AcDbText
 10
180.2052586988753
 20
365.1177266236285
 30
0.0
 40
3.0
  1
▲
 41
0.5
  7
ｽﾀｲﾙ1
100
AcDbText
  0
TEXT
  5
216C
330
1F
100
AcDbEntity
  8
0
100
AcDbText
 10
179.1299846014647
 20
361.9606589265385
 30
0.0
 40
3.0
  1
clccolo
 41
1.5
  7
ｽﾀｲﾙ1
100
AcDbText
  0
ARC
  5
216D
330
1F
100
AcDbEntity
  8
0
100
AcDbCircle
 10
199.272244244568
 20
367.3379967779461
 30
0.0
 40
0.5
100
AcDbArc
 50
20.92267102050603
 51
89.94427401306012
1001
GENIUS_GENODEF_13
1002
{
1000
HIER
1070
     0
1002
}
1002
{
1000
MANEDIT
1070
     0
1002
}
1002
{
1000
NOSEL
1070
     0
1002
}
1002
{
1000
BEHIND
1070
     0
1002
}
1002
{
1000
REACTOR
1002
}
1001
GENIUS_GENOBJ-N-FIL_13
1002
{
1000
OWNER
1000
GEN
1002
}
  0
ARC
  5
216E
330
1F
100
AcDbEntity
  8
0
100
AcDbCircle
 10
199.6503928892803
 20
366.1741749195099
 30
0.0
 40
0.5
100
AcDbArc
 50
306.0557259869374
 51
15.07732897949233
1001
GENIUS_GENODEF_13
1002
{
1000
HIER
1070
     0
1002
}
1002
{
1000
MANEDIT
1070
     0
1002
}
1002
{
1000
NOSEL
1070
     0
1002
}
1002
{
1000
BEHIND
1070
     0
1002
}
1002
{
1000
REACTOR
1002
}
1001
GENIUS_GENOBJ-N-FIL_13
1002
{
1000
OWNER
1000
GEN
1002
}
  0
ARC
  5
216F
330
1F
100
AcDbEntity
  8
0
100
AcDbCircle
 10
199.6503928892804
 20
359.9312357299227
 30
0.0
 40
0.5
100
AcDbArc
 50
344.9226710205077
 51
53.94427401306518
1001
GENIUS_GENODEF_13
1002
{
1000
HIER
1070
     0
1002
}
1002
{
1000
MANEDIT
1070
     0
1002
}
1002
{
1000
NOSEL
1070
     0
1002
}
1002
{
1000
BEHIND
1070
     0
1002
}
1002
{
1000
REACTOR
1002
}
1001
GENIUS_GENOBJ-N-FIL_13
1002
{
1000
OWNER
1000
GEN
1002
}
  0
ARC
  5
2170
330
1F
100
AcDbEntity
  8
0
100
AcDbCircle
 10
199.272244244568
 20
358.7674138714864
 30
0.0
 40
0.5
100
AcDbArc
 50
270.0557259869399
 51
339.0773289794939
1001
GENIUS_GENODEF_13
1002
{
1000
HIER
1070
     0
1002
}
1002
{
1000
MANEDIT
1070
     0
1002
}
1002
{
1000
NOSEL
1070
     0
1002
}
1002
{
1000
BEHIND
1070
     0
1002
}
1002
{
1000
REACTOR
1002
}
1001
GENIUS_GENOBJ-N-FIL_13
1002
{
1000
OWNER
1000
GEN
1002
}
  0
ARC
  5
2171
330
1F
100
AcDbEntity
  8
0
100
AcDbCircle
 10
195.6027366579699
 20
353.716769972261
 30
0.0
 40
0.5
100
AcDbArc
 50
308.9226710205066
 51
17.94427401306131
1001
GENIUS_GENODEF_13
1002
{
1000
HIER
1070
     0
1002
}
1002
{
1000
MANEDIT
1070
     0
1002
}
1002
{
1000
NOSEL
1070
     0
1002
}
1002
{
1000
BEHIND
1070
     0
1002
}
1002
{
1000
REACTOR
1002
}
1001
GENIUS_GENOBJ-N-FIL_13
1002
{
1000
OWNER
1000
GEN
1002
}
  0
ARC
  5
2172
330
1F
100
AcDbEntity
  8
0
100
AcDbCircle
 10
194.6127306533134
 20
352.9974885068974
 30
0.0
 40
0.5
100
AcDbArc
 50
234.0557259869376
 51
303.0773289794927
1001
GENIUS_GENODEF_13
1002
{
1000
HIER
1070
     0
1002
}
1002
{
1000
MANEDIT
1070
     0
1002
}
1002
{
1000
NOSEL
1070
     0
1002
}
1002
{
1000
BEHIND
1070
     0
1002
}
1002
{
1000
REACTOR
1002
}
1001
GENIUS_GENOBJ-N-FIL_13
1002
{
1000
OWNER
1000
GEN
1002
}
  0
ARC
  5
2173
330
1F
100
AcDbEntity
  8
0
100
AcDbCircle
 10
188.6753426562221
 20
351.0683142024656
 30
0.0
 40
0.5
100
AcDbArc
 50
272.9226710205083
 51
341.9442740130647
1001
GENIUS_GENODEF_13
1002
{
1000
HIER
1070
     0
1002
}
1002
{
1000
MANEDIT
1070
     0
1002
}
1002
{
1000
NOSEL
1070
     0
1002
}
1002
{
1000
BEHIND
1070
     0
1002
}
1002
{
1000
REACTOR
1002
}
1001
GENIUS_GENOBJ-N-FIL_13
1002
{
1000
OWNER
1000
GEN
1002
}
  0
ARC
  5
2174
330
1F
100
AcDbEntity
  8
0
100
AcDbCircle
 10
187.4516279363336
 20
351.0683142024656
 30
0.0
 40
0.5
100
AcDbArc
 50
198.0557259869353
 51
267.0773289794916
1001
GENIUS_GENODEF_13
1002
{
1000
HIER
1070
     0
1002
}
1002
{
1000
MANEDIT
1070
     0
1002
}
1002
{
1000
NOSEL
1070
     0
1002
}
1002
{
1000
BEHIND
1070
     0
1002
}
1002
{
1000
REACTOR
1002
}
1001
GENIUS_GENOBJ-N-FIL_13
1002
{
1000
OWNER
1000
GEN
1002
}
  0
ARC
  5
2175
330
1F
100
AcDbEntity
  8
0
100
AcDbCircle
 10
181.5142399392423
 20
352.9974885068974
 30
0.0
 40
0.5
100
AcDbArc
 50
236.9226710205073
 51
305.9442740130624
1001
GENIUS_GENODEF_13
1002
{
1000
HIER
1070
     0
1002
}
1002
{
1000
MANEDIT
1070
     0
1002
}
1002
{
1000
NOSEL
1070
     0
1002
}
1002
{
1000
BEHIND
1070
     0
1002
}
1002
{
1000
REACTOR
1002
}
1001
GENIUS_GENOBJ-N-FIL_13
1002
{
1000
OWNER
1000
GEN
1002
}
  0
ARC
  5
2176
330
1F
100
AcDbEntity
  8
0
100
AcDbCircle
 10
180.5242339345857
 20
353.716769972261
 30
0.0
 40
0.5
100
AcDbArc
 50
162.0557259869387
 51
231.0773289794934
1001
GENIUS_GENODEF_13
1002
{
1000
HIER
1070
     0
1002
}
1002
{
1000
MANEDIT
1070
     0
1002
}
1002
{
1000
NOSEL
1070
     0
1002
}
1002
{
1000
BEHIND
1070
     0
1002
}
1002
{
1000
REACTOR
1002
}
1001
GENIUS_GENOBJ-N-FIL_13
1002
{
1000
OWNER
1000
GEN
1002
}
  0
ARC
  5
2177
330
1F
100
AcDbEntity
  8
0
100
AcDbCircle
 10
176.8547263479877
 20
358.7674138714864
 30
0.0
 40
0.5
100
AcDbArc
 50
200.922671020506
 51
269.9442740130601
1001
GENIUS_GENODEF_13
1002
{
1000
HIER
1070
     0
1002
}
1002
{
1000
MANEDIT
1070
     0
1002
}
1002
{
1000
NOSEL
1070
     0
1002
}
1002
{
1000
BEHIND
1070
     0
1002
}
1002
{
1000
REACTOR
1002
}
1001
GENIUS_GENOBJ-N-FIL_13
1002
{
1000
OWNER
1000
GEN
1002
}
  0
ARC
  5
2178
330
1F
100
AcDbEntity
  8
0
100
AcDbCircle
 10
176.4765777032753
 20
359.9312357299227
 30
0.0
 40
0.5
100
AcDbArc
 50
126.0557259869347
 51
195.0773289794923
1001
GENIUS_GENODEF_13
1002
{
1000
HIER
1070
     0
1002
}
1002
{
1000
MANEDIT
1070
     0
1002
}
1002
{
1000
NOSEL
1070
     0
1002
}
1002
{
1000
BEHIND
1070
     0
1002
}
1002
{
1000
REACTOR
1002
}
1001
GENIUS_GENOBJ-N-FIL_13
1002
{
1000
OWNER
1000
GEN
1002
}
  0
ARC
  5
2179
330
1F
100
AcDbEntity
  8
0
100
AcDbCircle
 10
176.4765777032754
 20
366.1741749195099
 30
0.0
 40
0.5
100
AcDbArc
 50
164.9226710205076
 51
233.9442740130626
1001
GENIUS_GENODEF_13
1002
{
1000
HIER
1070
     0
1002
}
1002
{
1000
MANEDIT
1070
     0
1002
}
1002
{
1000
NOSEL
1070
     0
1002
}
1002
{
1000
BEHIND
1070
     0
1002
}
1002
{
1000
REACTOR
1002
}
1001
GENIUS_GENOBJ-N-FIL_13
1002
{
1000
OWNER
1000
GEN
1002
}
  0
ARC
  5
217A
330
1F
100
AcDbEntity
  8
0
100
AcDbCircle
 10
176.8547263479877
 20
367.3379967779461
 30
0.0
 40
0.5
100
AcDbArc
 50
90.05572598693987
 51
159.077328979494
1001
GENIUS_GENODEF_13
1002
{
1000
HIER
1070
     0
1002
}
1002
{
1000
MANEDIT
1070
     0
1002
}
1002
{
1000
NOSEL
1070
     0
1002
}
1002
{
1000
BEHIND
1070
     0
1002
}
1002
{
1000
REACTOR
1002
}
1001
GENIUS_GENOBJ-N-FIL_13
1002
{
1000
OWNER
1000
GEN
1002
}
  0
ARC
  5
217B
330
1F
100
AcDbEntity
  8
0
100
AcDbCircle
 10
180.5242339345857
 20
372.3886406771715
 30
0.0
 40
0.5
100
AcDbArc
 50
128.9226710205066
 51
197.9442740130613
1001
GENIUS_GENODEF_13
1002
{
1000
HIER
1070
     0
1002
}
1002
{
1000
MANEDIT
1070
     0
1002
}
1002
{
1000
NOSEL
1070
     0
1002
}
1002
{
1000
BEHIND
1070
     0
1002
}
1002
{
1000
REACTOR
1002
}
1001
GENIUS_GENOBJ-N-FIL_13
1002
{
1000
OWNER
1000
GEN
1002
}
  0
ARC
  5
217C
330
1F
100
AcDbEntity
  8
0
100
AcDbCircle
 10
181.5142399392423
 20
373.1079221425352
 30
0.0
 40
0.5
100
AcDbArc
 50
54.05572598693761
 51
123.0773289794926
1001
GENIUS_GENODEF_13
1002
{
1000
HIER
1070
     0
1002
}
1002
{
1000
MANEDIT
1070
     0
1002
}
1002
{
1000
NOSEL
1070
     0
1002
}
1002
{
1000
BEHIND
1070
     0
1002
}
1002
{
1000
REACTOR
1002
}
1001
GENIUS_GENOBJ-N-FIL_13
1002
{
1000
OWNER
1000
GEN
1002
}
  0
ARC
  5
217D
330
1F
100
AcDbEntity
  8
0
100
AcDbCircle
 10
187.4516279363336
 20
375.037096446967
 30
0.0
 40
0.5
100
AcDbArc
 50
92.92267102050828
 51
161.9442740130646
1001
GENIUS_GENODEF_13
1002
{
1000
HIER
1070
     0
1002
}
1002
{
1000
MANEDIT
1070
     0
1002
}
1002
{
1000
NOSEL
1070
     0
1002
}
1002
{
1000
BEHIND
1070
     0
1002
}
1002
{
1000
REACTOR
1002
}
1001
GENIUS_GENOBJ-N-FIL_13
1002
{
1000
OWNER
1000
GEN
1002
}
  0
ARC
  5
217E
330
1F
100
AcDbEntity
  8
0
100
AcDbCircle
 10
188.6753426562221
 20
375.037096446967
 30
0.0
 40
0.5
100
AcDbArc
 50
18.05572598693531
 51
87.07732897949171
1001
GENIUS_GENODEF_13
1002
{
1000
HIER
1070
     0
1002
}
1002
{
1000
MANEDIT
1070
     0
1002
}
1002
{
1000
NOSEL
1070
     0
1002
}
1002
{
1000
BEHIND
1070
     0
1002
}
1002
{
1000
REACTOR
1002
}
1001
GENIUS_GENOBJ-N-FIL_13
1002
{
1000
OWNER
1000
GEN
1002
}
  0
ARC
  5
217F
330
1F
100
AcDbEntity
  8
0
100
AcDbCircle
 10
194.6127306533134
 20
373.1079221425352
 30
0.0
 40
0.5
100
AcDbArc
 50
56.92267102050735
 51
125.9442740130623
1001
GENIUS_GENODEF_13
1002
{
1000
HIER
1070
     0
1002
}
1002
{
1000
MANEDIT
1070
     0
1002
}
1002
{
1000
NOSEL
1070
     0
1002
}
1002
{
1000
BEHIND
1070
     0
1002
}
1002
{
1000
REACTOR
1002
}
1001
GENIUS_GENOBJ-N-FIL_13
1002
{
1000
OWNER
1000
GEN
1002
}
  0
ARC
  5
2180
330
1F
100
AcDbEntity
  8
0
100
AcDbCircle
 10
195.6027366579699
 20
372.3886406771715
 30
0.0
 40
0.5
100
AcDbArc
 50
342.0557259869387
 51
51.07732897949336
1001
GENIUS_GENODEF_13
1002
{
1000
HIER
1070
     0
1002
}
1002
{
1000
MANEDIT
1070
     0
1002
}
1002
{
1000
NOSEL
1070
     0
1002
}
1002
{
1000
BEHIND
1070
     0
1002
}
1002
{
1000
REACTOR
1002
}
1001
GENIUS_GENOBJ-N-FIL_13
1002
{
1000
OWNER
1000
GEN
1002
}
  0
ARC
  5
2181
330
1F
100
AcDbEntity
  8
0
100
AcDbCircle
 10
188.0634852962778
 20
363.0527053247163
 30
0.0
 40
12.5
100
AcDbArc
 50
303.0773289794912
 51
308.9226710205078
  0
ARC
  5
2182
330
1F
100
AcDbEntity
  8
0
100
AcDbCircle
 10
188.0634852962778
 20
363.0527053247163
 30
0.0
 40
12.5
100
AcDbArc
 50
339.0773289794909
 51
344.9226710205077
  0
ARC
  5
2183
330
1F
100
AcDbEntity
  8
0
100
AcDbCircle
 10
188.0634852962778
 20
363.0527053247163
 30
0.0
 40
12.5
100
AcDbArc
 50
15.07732897949233
 51
20.92267102050904
  0
ARC
  5
2184
330
1F
100
AcDbEntity
  8
0
100
AcDbCircle
 10
188.0634852962778
 20
363.0527053247163
 30
0.0
 40
12.5
100
AcDbArc
 50
51.07732897949215
 51
56.92267102050877
  0
ARC
  5
2185
330
1F
100
AcDbEntity
  8
0
100
AcDbCircle
 10
188.0634852962778
 20
363.0527053247163
 30
0.0
 40
12.5
100
AcDbArc
 50
87.07732897949171
 51
92.92267102050828
  0
ARC
  5
2186
330
1F
100
AcDbEntity
  8
0
100
AcDbCircle
 10
188.0634852962778
 20
363.0527053247163
 30
0.0
 40
12.5
100
AcDbArc
 50
123.0773289794913
 51
128.9226710205078
  0
ARC
  5
2187
330
1F
100
AcDbEntity
  8
0
100
AcDbCircle
 10
188.0634852962778
 20
363.0527053247163
 30
0.0
 40
12.5
100
AcDbArc
 50
159.0773289794909
 51
164.9226710205076
  0
ARC
  5
2188
330
1F
100
AcDbEntity
  8
0
100
AcDbCircle
 10
188.0634852962778
 20
363.0527053247163
 30
0.0
 40
12.5
100
AcDbArc
 50
195.0773289794923
 51
200.922671020509
  0
ARC
  5
2189
330
1F
100
AcDbEntity
  8
0
100
AcDbCircle
 10
188.0634852962778
 20
363.0527053247163
 30
0.0
 40
12.5
100
AcDbArc
 50
231.0773289794921
 51
236.9226710205087
  0
ARC
  5
218A
330
1F
100
AcDbEntity
  8
0
100
AcDbCircle
 10
183.7806859557544
 20
349.8716043013623
 30
0.0
 40
3.361078814551376
100
AcDbArc
 50
18.05572598693531
 51
125.9442740130623
  0
ARC
  5
218B
330
1F
100
AcDbEntity
  8
0
100
AcDbCircle
 10
176.8509710557918
 20
354.9063368831375
 30
0.0
 40
3.361078814551376
100
AcDbArc
 50
342.0557259869357
 51
89.94427401306339
  0
ARC
  5
218C
330
1F
100
AcDbEntity
  8
0
100
AcDbCircle
 10
174.2040554963527
 20
363.0527053247163
 30
0.0
 40
3.361078814551376
100
AcDbArc
 50
306.055725986936
 51
53.94427401306264
  0
ARC
  5
218D
330
1F
100
AcDbEntity
  8
0
100
AcDbCircle
 10
176.8509710557918
 20
371.1990737662951
 30
0.0
 40
3.361078814551376
100
AcDbArc
 50
270.0557259869366
 51
17.94427401306436
  0
ARC
  5
218E
330
1F
100
AcDbEntity
  8
0
100
AcDbCircle
 10
183.7806859557544
 20
376.2338063480703
 30
0.0
 40
3.361078814551376
100
AcDbArc
 50
234.0557259869376
 51
341.9442740130647
  0
ARC
  5
218F
330
1F
100
AcDbEntity
  8
0
100
AcDbCircle
 10
199.2759995367639
 20
371.1990737662951
 30
0.0
 40
3.361078814551376
100
AcDbArc
 50
162.0557259869356
 51
269.9442740130634
  0
ARC
  5
2190
330
1F
100
AcDbEntity
  8
0
100
AcDbCircle
 10
201.9229150962031
 20
363.0527053247163
 30
0.0
 40
3.361078814551376
100
AcDbArc
 50
126.0557259869373
 51
233.9442740130639
  0
ARC
  5
2191
330
1F
100
AcDbEntity
  8
0
100
AcDbCircle
 10
199.2759995367639
 20
354.9063368831375
 30
0.0
 40
3.361078814551376
100
AcDbArc
 50
90.05572598693659
 51
197.9442740130643
  0
ARC
  5
2192
330
1F
100
AcDbEntity
  8
0
100
AcDbCircle
 10
192.3462846368013
 20
349.8716043013623
 30
0.0
 40
3.361078814551376
100
AcDbArc
 50
54.05572598693761
 51
161.9442740130646
  0
ARC
  5
2193
330
1F
100
AcDbEntity
  8
0
100
AcDbCircle
 10
192.3462846368013
 20
376.2338063480703
 30
0.0
 40
3.361078814551376
100
AcDbArc
 50
198.0557259869353
 51
305.9442740130624
  0
CIRCLE
  5
2194
330
1F
100
AcDbEntity
  8
0
100
AcDbCircle
 10
188.0634852962778
 20
363.0527053247163
 30
0.0
 40
9.0
  0
CIRCLE
  5
2195
330
1F
100
AcDbEntity
  8
0
100
AcDbCircle
 10
188.0634852962778
 20
363.0527053247163
 30
0.0
 40
10.5
  0
ARC
  5
2196
330
1F
100
AcDbEntity
  8
0
100
AcDbCircle
 10
188.0634852962778
 20
363.0527053247163
 30
0.0
 40
12.5
100
AcDbArc
 50
267.0773289794916
 51
272.9226710205083
  0
ARC
  5
259C
330
1F
100
AcDbEntity
  8
0
100
AcDbCircle
 10
178.3080171215487
 20
338.4544243916565
 30
0.0
 40
1.754268068723236
100
AcDbArc
 50
8.052279597304682
 51
171.9477204026921
  0
ARC
  5
259D
330
1F
100
AcDbEntity
  8
0
100
AcDbCircle
 10
184.3372280296992
 20
337.2339930198337
 30
0.0
 40
2.97469944054606
100
AcDbArc
 50
19.12700048611886
 51
160.8729995138811
  0
LINE
  5
259E
330
1F
100
AcDbEntity
  8
0
100
AcDbLine
 10
176.5710449643473
 20
338.7001563229333
 30
0.0
 11
176.5710449643473
 21
329.2086924603798
 31
0.0
  0
LINE
  5
25A0
330
1F
100
AcDbEntity
  8
0
100
AcDbLine
 10
181.5267480418351
 20
338.2086924603796
 30
0.0
 11
181.5267480418351
 21
329.2086924603798
 31
0.0
  0
LINE
  5
25A1
330
1F
100
AcDbEntity
  8
0
100
AcDbLine
 10
180.04498927875
 20
338.7001563229338
 30
0.0
 11
180.0449892787501
 21
329.2086924603798
 31
0.0
  0
ARC
  5
25A2
330
1F
100
AcDbEntity
  8
0
100
AcDbCircle
 10
177.5634852962779
 20
338.2086924603798
 30
0.0
 40
2.0
100
AcDbArc
 50
90.0
 51
180.0
1001
GENIUS_GENODEF_13
1002
{
1000
HIER
1070
     0
1002
}
1002
{
1000
MANEDIT
1070
     0
1002
}
1002
{
1000
NOSEL
1070
     0
1002
}
1002
{
1000
BEHIND
1070
     0
1002
}
1002
{
1000
REACTOR
1002
}
1001
GENIUS_GENOBJ-N-FIL_13
1002
{
1000
OWNER
1000
GEN
1002
}
  0
LINE
  5
25A7
330
1F
100
AcDbEntity
  8
0
100
AcDbLine
 10
177.5634852962779
 20
340.2086924603798
 30
0.0
 11
188.063485296278
 21
340.2086924603798
 31
0.0
  0
LINE
  5
25A8
330
1F
100
AcDbEntity
  8
0
100
AcDbLine
 10
177.5634852962775
 20
328.2086924603795
 30
0.0
 11
188.063485296278
 21
328.2086924603795
 31
0.0
  0
LINE
  5
25AA
330
1F
100
AcDbEntity
  8
0
100
AcDbLine
 10
176.063485296278
 20
329.2086924603794
 30
0.0
 11
188.063485296278
 21
329.2086924603798
 31
0.0
  0
LINE
  5
25AB
330
1F
100
AcDbEntity
  8
0
100
AcDbLine
 10
177.5634852962775
 20
329.2086924603795
 30
0.0
 11
177.5634852962775
 21
328.2086924603795
 31
0.0
  0
LINE
  5
25AC
330
1F
100
AcDbEntity
  8
0
100
AcDbLine
 10
175.5634852962779
 20
338.2086924603798
 30
0.0
 11
175.563485296278
 21
329.7086924603795
 31
0.0
  0
LINE
  5
25B2
330
1F
100
AcDbEntity
  8
0
100
AcDbLine
 10
178.0634852962779
 20
342.2086924603798
 30
0.0
 11
198.051207224188
 21
342.2086924603798
 31
0.0
  0
LINE
  5
25B3
330
1F
100
AcDbEntity
  8
0
100
AcDbLine
 10
177.5634852962779
 20
340.2086924603798
 30
0.0
 11
177.5634852962779
 21
341.7086924603798
 31
0.0
  0
LINE
  5
3081
330
1F
100
AcDbEntity
  8
0
 62
     0
100
AcDbLine
 10
182.52658430458
 20
322.1443733070338
 30
0.0
 11
182.5259937861364
 21
317.3755046185557
 31
0.0
  0
LINE
  5
3082
330
1F
100
AcDbEntity
  8
0
 62
     0
100
AcDbLine
 10
178.813485297203
 20
322.1443733070338
 30
0.0
 11
178.813485297203
 21
317.3764241150795
 31
0.0
  0
LINE
  5
3083
330
1F
100
AcDbEntity
  8
0
 62
     0
100
AcDbLine
 10
184.4148554168112
 20
322.1443733070338
 30
0.0
 11
184.4142648404608
 21
317.3750369777067
 31
0.0
  0
LINE
  5
3084
330
1F
100
AcDbEntity
  8
0
 62
     0
100
AcDbLine
 10
184.4142648404608
 20
317.3750369777067
 30
0.0
 11
182.5259937861363
 21
317.3755046185557
 31
0.0
  0
LINE
  5
3085
330
1F
100
AcDbEntity
  8
0
 62
     0
100
AcDbLine
 10
188.062787370031
 20
316.9411206856429
 30
0.0
 11
179.5627876315475
 21
316.9432257579444
 31
0.0
  0
LINE
  5
3086
330
1F
100
AcDbEntity
  8
0
 62
     0
100
AcDbLine
 10
180.0634852970781
 20
314.5773860096828
 30
0.0
 11
188.0634852962781
 21
314.5773860096828
 31
0.0
  0
LINE
  5
3087
330
1F
100
AcDbEntity
  8
0
 62
     0
100
AcDbLine
 10
180.0634852970781
 20
316.6547362786646
 30
0.0
 11
188.0634852962781
 21
316.6547362786646
 31
0.0
  0
ELLIPSE
  5
3088
330
1F
100
AcDbEntity
  8
0
 62
     0
100
AcDbEllipse
 10
188.0628946080364
 20
317.3741333742128
 30
0.0
 11
-3.648629767575592
 21
0.0009036034939617
 31
0.0
210
0.0
220
0.0
230
0.9999999999999998
 40
0.1186781658193883
 41
0.0
 42
1.570796326794896
  0
LINE
  5
3089
330
1F
100
AcDbEntity
  8
0
 62
     0
100
AcDbLine
 10
180.0634852970781
 20
316.6547362786646
 30
0.0
 11
180.0634852970781
 21
314.5773860096828
 31
0.0
  0
LINE
  5
308A
330
1F
100
AcDbEntity
  8
0
 62
     0
100
AcDbLine
 10
181.6049852969239
 20
313.4786445482368
 30
0.0
 11
181.0634852969781
 21
313.4786445482368
 31
0.0
  0
LINE
  5
308B
330
1F
100
AcDbEntity
  8
0
 62
     0
100
AcDbLine
 10
181.0634852969781
 20
314.5773860096828
 30
0.0
 11
181.0634852969781
 21
313.4786445482368
 31
0.0
  0
LINE
  5
308C
330
1F
100
AcDbEntity
  8
0
 62
     0
100
AcDbLine
 10
182.0634852968781
 20
312.9012942791048
 30
0.0
 11
181.0634852969781
 21
313.4786445482368
 31
0.0
  0
LINE
  5
308D
330
1F
100
AcDbEntity
  8
0
 62
     0
100
AcDbLine
 10
181.6049852969239
 20
314.5773860096828
 30
0.0
 11
181.6049852969239
 21
313.1660093775018
 31
0.0
  0
ELLIPSE
  5
308E
330
1F
100
AcDbEntity
  8
0
 62
     0
100
AcDbEllipse
 10
180.6694443393821
 20
317.3759644033719
 30
0.0
 11
-1.856549446754287
 21
0.0004597848161269
 31
0.0
210
0.0
220
0.0
230
0.9999999999999998
 40
0.2338805696726739
 41
0.7697783891174672
 42
3.141592653589793
  0
LINE
  5
308F
330
1F
100
AcDbEntity
  8
0
 62
     0
100
AcDbLine
 10
180.0634852970781
 20
316.6547362786646
 30
0.0
 11
178.813485297203
 21
317.3764241150795
 31
0.0
  0
LINE
  5
3090
330
1F
100
AcDbEntity
  8
0
 62
     0
100
AcDbLine
 10
178.8128948926278
 20
317.376424188188
 30
0.0
 11
179.5627876315475
 21
316.9432257579444
 31
0.0
  0
LINE
  5
3091
330
1F
100
AcDbEntity
  8
0
 62
     0
100
AcDbLine
 10
188.0634852962781
 20
322.5773860088827
 30
0.0
 11
179.5634852971281
 21
322.5773860088827
 31
0.0
  0
LINE
  5
3092
330
1F
100
AcDbEntity
  8
0
 62
     0
100
AcDbLine
 10
184.4148554168112
 20
322.1443733070338
 30
0.0
 11
182.5265843045799
 21
322.1443733070338
 31
0.0
  0
ELLIPSE
  5
3093
330
1F
100
AcDbEntity
  8
0
 62
     0
100
AcDbEllipse
 10
188.0634852962781
 20
322.1443733070338
 30
0.0
 11
-3.64862987946681
 21
0.0
 31
0.0
210
0.0
220
0.0
230
-1.0
 40
0.1186781658193883
 41
0.0
 42
1.570796326794896
  0
ELLIPSE
  5
3094
330
1F
100
AcDbEntity
  8
0
 62
     0
100
AcDbEllipse
 10
180.6700348008915
 20
322.1443733070338
 30
0.0
 11
-1.856549503688422
 21
0.0
 31
0.0
210
0.0
220
0.0
230
-1.0
 40
0.2338805696726739
 41
0.7697783891174672
 42
3.141592653589793
  0
LINE
  5
3095
330
1F
100
AcDbEntity
  8
0
 62
     0
100
AcDbLine
 10
178.813485297203
 20
322.1443733070338
 30
0.0
 11
179.5634852971281
 21
322.5773860088827
 31
0.0
  0
LINE
  5
3096
330
1F
100
AcDbEntity
  8
0
 62
     0
100
AcDbLine
 10
181.6049852969239
 20
313.4786445482368
 30
0.0
 11
188.0634852962779
 21
313.4786445482368
 31
0.0
  0
LINE
  5
34EB
330
1F
100
AcDbEntity
  8
0
100
AcDbLine
 10
191.0634852962779
 20
327.7086924603795
 30
0.0
 11
185.063485296278
 21
327.7086924603795
 31
0.0
  0
LINE
  5
34ED
330
1F
100
AcDbEntity
  8
0
100
AcDbLine
 10
185.5634852962779
 20
328.2086924603795
 30
0.0
 11
185.063485296278
 21
327.7086924603795
 31
0.0
1001
GENIUS_GENFIL_13
1070
     0
1040
0.5
1040
0.5
1040
0.5
1040
45.0000000000002
1000
~T
1001
GENIUS_GENOREF_13
1005
34EE
  0
POINT
  5
34EE
330
1F
100
AcDbEntity
  8
0
 60
     1
100
AcDbPoint
 10
494.794462279844
 20
80.86024713736213
 30
0.0
 50
180.0
1001
GENIUS_GENOENT_13
1002
{
1000
MYREF
1005
34EE
1002
}
1002
{
1000
GRP
1005
0
1002
}
1001
GENIUS_GENOBJ-N-CHA_13
1002
{
1000
OWNER
1000
GEN
1002
}
1001
GENIUS_GENODEF_13
1002
{
1000
HIER
1070
     1
1002
}
1002
{
1000
MANEDIT
1070
     0
1002
}
1002
{
1000
NOSEL
1070
     0
1002
}
1002
{
1000
BEHIND
1070
     0
1002
}
1002
{
1000
OTHER
1070
     0
1002
}
1002
{
1000
REACTOR
1002
}
1001
GENIUS_GENOLIS_13
1002
{
1000
ENT
1005
34ED
1002
}
  0
ARC
  5
34F6
330
1F
100
AcDbEntity
  8
0
100
AcDbCircle
 10
178.0634852962779
 20
341.7086924603798
 30
0.0
 40
0.5
100
AcDbArc
 50
90.0
 51
180.0
  0
ARC
  5
34F7
330
1F
100
AcDbEntity
  8
0
100
AcDbCircle
 10
176.063485296278
 20
329.7086924603795
 30
0.0
 40
0.5
100
AcDbArc
 50
180.0000000000007
 51
270.0000000000016
  0
LINE
  5
34F8
330
1F
100
AcDbEntity
  8
0
100
AcDbLine
 10
175.5634852962779
 20
338.2086924603798
 30
0.0
 11
176.5710449643473
 21
338.2086924603798
 31
0.0
  0
LINE
  5
34F9
330
1F
100
AcDbEntity
  8
0
100
AcDbLine
 10
180.04498927875
 20
338.2086924603798
 30
0.0
 11
181.5267480418351
 21
338.2086924603796
 31
0.0
  0
LINE
  5
395D
330
1F
100
AcDbEntity
  8
AM_7
100
AcDbLine
 10
188.0634852962778
 20
349.1557053247163
 30
0.0
 11
188.0634852962778
 21
376.9497053247162
 31
0.0
1001
GENIUS_GENODEF_13
1002
{
1000
HIER
1070
     0
1002
}
1002
{
1000
MANEDIT
1070
     0
1002
}
1002
{
1000
NOSEL
1070
     0
1002
}
1002
{
1000
BEHIND
1070
     0
1002
}
1002
{
1000
OTHER
1070
     0
1002
}
1002
{
1000
REACTOR
1002
}
1001
GENIUS_GENOBJ-N-CEN_13
1002
{
1000
OWNER
1000
GEN
1002
}
1001
GENIUS_GENCEN_19
1002
{
1040
1.397
1002
}
  0
LINE
  5
395E
330
1F
100
AcDbEntity
  8
AM_7
100
AcDbLine
 10
199.9604852962778
 20
363.0527053247163
 30
0.0
 11
176.1664852962779
 21
363.0527053247163
 31
0.0
1001
GENIUS_GENODEF_13
1002
{
1000
HIER
1070
     0
1002
}
1002
{
1000
MANEDIT
1070
     0
1002
}
1002
{
1000
NOSEL
1070
     0
1002
}
1002
{
1000
BEHIND
1070
     0
1002
}
1002
{
1000
OTHER
1070
     0
1002
}
1002
{
1000
REACTOR
1002
}
1001
GENIUS_GENOBJ-N-CEN_13
1002
{
1000
OWNER
1000
GEN
1002
}
1001
GENIUS_GENCEN_19
1002
{
1040
1.397
1002
}
  0
CIRCLE
  5
3AE5
330
1F
100
AcDbEntity
  8
0
 62
     0
100
AcDbCircle
 10
245.3372132809919
 20
298.0773860090151
 30
0.0
 40
9.0
  0
LINE
  5
3AEA
330
1F
100
AcDbEntity
  8
0
 62
     0
100
AcDbLine
 10
254.3372132809919
 20
304.0773860090151
 30
0.0
 11
254.3372132809919
 21
304.0773860090151
 31
0.0
  0
LINE
  5
3AED
330
1F
100
AcDbEntity
  8
AM_7
100
AcDbLine
 10
245.3372132809919
 20
344.4996803375985
 30
0.0
 11
245.3372132809919
 21
284.0948710469871
 31
0.0
1001
GENIUS_GENODEF_13
1002
{
1000
HIER
1070
     0
1002
}
1002
{
1000
MANEDIT
1070
     0
1002
}
1002
{
1000
NOSEL
1070
     0
1002
}
1002
{
1000
BEHIND
1070
     0
1002
}
1002
{
1000
OTHER
1070
     0
1002
}
1002
{
1000
REACTOR
1002
}
1001
GENIUS_GENOBJ-N-CEN_13
1002
{
1000
OWNER
1000
GEN
1002
}
1001
GENIUS_GENCEN_19
1002
{
1040
1.397
1002
}
  0
CIRCLE
  5
3AEF
330
1F
100
AcDbEntity
  8
AM_0
100
AcDbCircle
 10
245.3372132809919
 20
298.0773860090151
 30
0.0
 40
8.476312499999323
  0
CIRCLE
  5
3AF0
330
1F
100
AcDbEntity
  8
AM_4
100
AcDbCircle
 10
245.3372132809919
 20
298.0773860090151
 30
0.0
 40
7.291946712597052
  0
CIRCLE
  5
3AF1
330
1F
100
AcDbEntity
  8
AM_0
100
AcDbCircle
 10
245.3372132809919
 20
298.0773860090151
 30
0.0
 40
6.999999999999943
  0
CIRCLE
  5
3AF2
330
1F
100
AcDbEntity
  8
AM_0
100
AcDbCircle
 10
245.3372132809919
 20
298.0773860090151
 30
0.0
 40
5.499999999998408
  0
CIRCLE
  5
3AF3
330
1F
100
AcDbEntity
  8
AM_0
100
AcDbCircle
 10
245.3372132809919
 20
298.0773860090151
 30
0.0
 40
4.999999999998863
  0
ARC
  5
3AF4
330
1F
100
AcDbEntity
  8
AM_0
100
AcDbCircle
 10
245.3257552254273
 20
296.2827575876561
 30
0.0
 40
2.488667736418961
100
AcDbArc
 50
89.73620401989851
 51
269.4239204168451
  0
ARC
  5
3AF5
330
1F
100
AcDbEntity
  8
AM_0
100
AcDbCircle
 10
245.3494071994397
 20
296.2824073482451
 30
0.0
 40
2.488667736418961
100
AcDbArc
 50
268.879327042681
 51
88.56704343962542
  0
LINE
  5
3AF6
330
1F
100
AcDbEntity
  8
0
 62
     0
100
AcDbLine
 10
251.7957132810203
 20
313.4786445476684
 30
0.0
 11
252.3372132810226
 21
313.4786445476318
 31
0.0
  0
ARC
  5
3AF7
330
1F
100
AcDbEntity
  8
0
 62
     0
100
AcDbCircle
 10
238.8372132816136
 20
312.0352688757056
 30
0.0
 40
0.9999999999043879
100
AcDbArc
 50
0.0
 51
59.99999999999946
  0
LINE
  5
3AF8
330
1F
100
AcDbEntity
  8
0
 62
     0
100
AcDbLine
 10
251.3372132810182
 20
312.9012942784396
 30
0.0
 11
252.3372132810226
 21
313.4786445476318
 31
0.0
  0
ARC
  5
3AF9
330
1F
100
AcDbEntity
  8
0
 62
     0
100
AcDbCircle
 10
251.8372132810205
 20
312.0352688746513
 30
0.0
 40
1.000000000004388
100
AcDbArc
 50
120.0000000000005
 51
180.0
  0
LINE
  5
3AFA
330
1F
100
AcDbEntity
  8
AM_0
100
AcDbLine
 10
242.337213280992
 20
327.7086924603783
 30
0.0
 11
242.3372132809921
 21
322.5773860092276
 31
0.0
  0
LINE
  5
3AFB
330
1F
100
AcDbEntity
  8
AM_0
100
AcDbLine
 10
248.3372132809919
 20
327.7086924603783
 30
0.0
 11
248.337213280992
 21
322.5773860092276
 31
0.0
  0
ARC
  5
3AFC
330
1F
100
AcDbEntity
  8
AM_0
100
AcDbCircle
 10
245.3372132809919
 20
337.0281775866342
 30
0.0
 40
3.182186574793173
100
AcDbArc
 50
21.77582284696156
 51
158.2241771530348
  0
LINE
  5
3AFD
330
1F
100
AcDbEntity
  8
AM_0
100
AcDbLine
 10
248.2923268202086
 20
338.2086924603787
 30
0.0
 11
248.2923268202086
 21
329.2086924603787
 31
0.0
  0
LINE
  5
3AFE
330
1F
100
AcDbEntity
  8
AM_0
100
AcDbLine
 10
242.3820997417752
 20
338.2086924603785
 30
0.0
 11
242.3820997417752
 21
329.2086924603787
 31
0.0
  0
ARC
  5
3AFF
330
1F
100
AcDbEntity
  8
AM_0
100
AcDbCircle
 10
234.8372132809919
 20
338.2086924603787
 30
0.0
 40
2.0
100
AcDbArc
 50
90.0
 51
180.0
1001
GENIUS_GENODEF_13
1002
{
1000
HIER
1070
     0
1002
}
1002
{
1000
MANEDIT
1070
     0
1002
}
1002
{
1000
NOSEL
1070
     0
1002
}
1002
{
1000
BEHIND
1070
     0
1002
}
1002
{
1000
REACTOR
1002
}
1001
GENIUS_GENOBJ-N-FIL_13
1002
{
1000
OWNER
1000
GEN
1002
}
  0
LINE
  5
3B00
330
1F
100
AcDbEntity
  8
AM_0
100
AcDbLine
 10
234.8372132809919
 20
340.2086924603787
 30
0.0
 11
245.3372132809919
 21
340.2086924603787
 31
0.0
  0
LINE
  5
3B01
330
1F
100
AcDbEntity
  8
AM_0
100
AcDbLine
 10
234.8372132809915
 20
328.2086924603784
 30
0.0
 11
245.3372132809919
 21
328.2086924603784
 31
0.0
  0
LINE
  5
3B02
330
1F
100
AcDbEntity
  8
AM_0
100
AcDbLine
 10
233.337213280992
 20
329.2086924603784
 30
0.0
 11
245.3372132809919
 21
329.2086924603787
 31
0.0
  0
LINE
  5
3B03
330
1F
100
AcDbEntity
  8
AM_0
100
AcDbLine
 10
234.8372132809915
 20
329.2086924603784
 30
0.0
 11
234.8372132809915
 21
328.2086924603784
 31
0.0
  0
LINE
  5
3B04
330
1F
100
AcDbEntity
  8
AM_0
100
AcDbLine
 10
232.8372132809919
 20
338.2086924603787
 30
0.0
 11
232.837213280992
 21
329.7086924603783
 31
0.0
  0
LINE
  5
3B05
330
1F
100
AcDbEntity
  8
AM_0
100
AcDbLine
 10
235.3372132809919
 20
342.2086924603787
 30
0.0
 11
255.3372132809924
 21
342.2086924603787
 31
0.0
  0
LINE
  5
3B06
330
1F
100
AcDbEntity
  8
AM_0
100
AcDbLine
 10
234.8372132809919
 20
340.2086924603787
 30
0.0
 11
234.8372132809919
 21
341.7086924603787
 31
0.0
  0
LINE
  5
3B07
330
1F
100
AcDbEntity
  8
AM_0
100
AcDbLine
 10
242.8372132809919
 20
328.2086924603784
 30
0.0
 11
242.337213280992
 21
327.7086924603783
 31
0.0
1001
GENIUS_GENFIL_13
1070
     0
1040
0.5
1040
0.5
1040
0.5
1040
45.0000000000002
1000
~T
1001
GENIUS_GENOREF_13
1005
3B49
  0
LINE
  5
3B08
330
1F
100
AcDbEntity
  8
AM_0
100
AcDbLine
 10
242.337213280992
 20
327.7086924603783
 30
0.0
 11
248.337213280992
 21
327.7086924603783
 31
0.0
  0
ARC
  5
3B09
330
1F
100
AcDbEntity
  8
AM_0
100
AcDbCircle
 10
255.8372132809926
 20
338.2086924603793
 30
0.0
 40
2.0
100
AcDbArc
 50
0.0000000000032569
 51
90.00000000000325
1001
GENIUS_GENODEF_13
1002
{
1000
HIER
1070
     0
1002
}
1002
{
1000
MANEDIT
1070
     0
1002
}
1002
{
1000
NOSEL
1070
     0
1002
}
1002
{
1000
BEHIND
1070
     0
1002
}
1002
{
1000
REACTOR
1002
}
1001
GENIUS_GENOBJ-N-FIL_13
1002
{
1000
OWNER
1000
GEN
1002
}
  0
LINE
  5
3B0A
330
1F
100
AcDbEntity
  8
AM_0
100
AcDbLine
 10
255.8372132809925
 20
340.2086924603793
 30
0.0
 11
245.3372132809924
 21
340.2086924603787
 31
0.0
  0
LINE
  5
3B0B
330
1F
100
AcDbEntity
  8
AM_0
100
AcDbLine
 10
255.8372132809936
 20
328.2086924603789
 30
0.0
 11
245.3372132809931
 21
328.2086924603784
 31
0.0
  0
LINE
  5
3B0C
330
1F
100
AcDbEntity
  8
AM_0
100
AcDbLine
 10
257.337213280993
 20
329.208692460379
 30
0.0
 11
245.3372132809931
 21
329.2086924603787
 31
0.0
  0
LINE
  5
3B0D
330
1F
100
AcDbEntity
  8
AM_0
100
AcDbLine
 10
255.8372132809935
 20
329.2086924603789
 30
0.0
 11
255.8372132809936
 21
328.2086924603789
 31
0.0
  0
LINE
  5
3B0E
330
1F
100
AcDbEntity
  8
AM_0
100
AcDbLine
 10
257.8372132809926
 20
338.2086924603794
 30
0.0
 11
257.837213280993
 21
329.7086924603791
 31
0.0
  0
LINE
  5
3B0F
330
1F
100
AcDbEntity
  8
AM_0
100
AcDbLine
 10
255.8372132809925
 20
340.2086924603793
 30
0.0
 11
255.8372132809924
 21
341.7086924603788
 31
0.0
  0
LINE
  5
3B10
330
1F
100
AcDbEntity
  8
AM_0
100
AcDbLine
 10
247.8372132809931
 20
328.2086924603785
 30
0.0
 11
248.3372132809931
 21
327.7086924603786
 31
0.0
1001
GENIUS_GENFIL_13
1070
     0
1040
0.5
1040
0.5
1040
0.5
1040
45.0000000000002
1000
~T
1001
GENIUS_GENOREF_13
1005
3B48
  0
LINE
  5
3B11
330
1F
100
AcDbEntity
  8
AM_0
100
AcDbLine
 10
248.3372132809931
 20
327.7086924603786
 30
0.0
 11
242.3372132809931
 21
327.7086924603781
 31
0.0
  0
LINE
  5
3B12
330
1F
100
AcDbEntity
  8
AM_4
100
AcDbLine
 10
251.7957132810204
 20
314.5773860091924
 30
0.0
 11
251.7957132810204
 21
313.166009376864
 31
0.0
  0
LINE
  5
3B13
330
1F
100
AcDbEntity
  8
0
 62
     0
100
AcDbLine
 10
252.3372132810227
 20
314.5773860091924
 30
0.0
 11
252.3372132810228
 21
313.4786445476315
 31
0.0
  0
LINE
  5
3B14
330
1F
100
AcDbEntity
  8
0
 62
     0
100
AcDbLine
 10
251.7957132810204
 20
313.4786445476681
 30
0.0
 11
252.3372132810228
 21
313.4786445476315
 31
0.0
  0
LINE
  5
3B15
330
1F
100
AcDbEntity
  8
AM_0
100
AcDbLine
 10
251.7957132810204
 20
313.4786445476681
 30
0.0
 11
245.3372132809919
 21
313.478644548105
 31
0.0
  0
LINE
  5
3B16
330
1F
100
AcDbEntity
  8
0
 62
     0
100
AcDbLine
 10
238.878713281334
 20
313.4786445485423
 30
0.0
 11
238.3372132813316
 21
313.4786445485789
 31
0.0
  0
LINE
  5
3B17
330
1F
100
AcDbEntity
  8
AM_4
100
AcDbLine
 10
238.8787132814826
 20
314.5773860100663
 30
0.0
 11
238.8787132812915
 21
313.1660093777378
 31
0.0
  0
LINE
  5
3B18
330
1F
100
AcDbEntity
  8
0
 62
     0
100
AcDbLine
 10
238.3372132814802
 20
314.5773860101396
 30
0.0
 11
238.3372132813315
 21
313.4786445485786
 31
0.0
  0
LINE
  5
3B19
330
1F
100
AcDbEntity
  8
0
 62
     0
100
AcDbLine
 10
238.8787132813338
 20
313.478644548542
 30
0.0
 11
238.3372132813315
 21
313.4786445485786
 31
0.0
  0
LINE
  5
3B1A
330
1F
100
AcDbEntity
  8
AM_0
100
AcDbLine
 10
238.8787132813338
 20
313.478644548542
 30
0.0
 11
245.3372132813623
 21
313.478644548105
 31
0.0
  0
LINE
  5
3B1B
330
1F
100
AcDbEntity
  8
0
 62
     0
100
AcDbLine
 10
239.3372132804577
 20
312.9012942792515
 30
0.0
 11
238.3372132805314
 21
313.478644548579
 31
0.0
  0
LINE
  5
3B1C
330
1F
100
AcDbEntity
  8
AM_0
100
AcDbLine
 10
239.8372132815179
 20
312.0352688756765
 30
0.0
 11
250.837213281016
 21
312.0352688746513
 31
0.0
  0
LINE
  5
3B1D
330
1F
100
AcDbEntity
  8
AM_0
100
AcDbLine
 10
240.6401878449821
 20
338.2086924603787
 30
0.0
 11
240.6401878449821
 21
329.2086924603785
 31
0.0
  0
LINE
  5
3B1E
330
1F
100
AcDbEntity
  8
AM_0
100
AcDbLine
 10
235.8587136979145
 20
338.2086924603787
 30
0.0
 11
235.8587136979145
 21
329.2086924603784
 31
0.0
  0
LINE
  5
3B1F
330
1F
100
AcDbEntity
  8
AM_0
100
AcDbLine
 10
240.6401878449821
 20
340.2086924603787
 30
0.0
 11
235.8587136979145
 21
340.2086924603787
 31
0.0
  0
ARC
  5
3B20
330
1F
100
AcDbEntity
  8
AM_0
100
AcDbCircle
 10
238.2494507714483
 20
337.7797865216864
 30
0.0
 40
2.428905938692222
100
AcDbArc
 50
10.17085060932878
 51
169.8291493906712
  0
LINE
  5
3B21
330
1F
100
AcDbEntity
  8
AM_0
100
AcDbLine
 10
250.0342387170018
 20
338.2086924603787
 30
0.0
 11
250.0342387170018
 21
329.2086924603785
 31
0.0
  0
LINE
  5
3B22
330
1F
100
AcDbEntity
  8
AM_0
100
AcDbLine
 10
254.8157128640694
 20
338.2086924603787
 30
0.0
 11
254.8157128640694
 21
329.2086924603784
 31
0.0
  0
ARC
  5
3B23
330
1F
100
AcDbEntity
  8
AM_0
100
AcDbCircle
 10
252.4249757905355
 20
337.7797865216864
 30
0.0
 40
2.428905938692222
100
AcDbArc
 50
10.17085060933199
 51
169.829149390668
  0
LINE
  5
3B24
330
1F
100
AcDbEntity
  8
AM_0
100
AcDbLine
 10
250.8372132810161
 20
312.035268874651
 30
0.0
 11
250.8372132810161
 21
305.2039888365932
 31
0.0
  0
LINE
  5
3B25
330
1F
100
AcDbEntity
  8
AM_0
100
AcDbLine
 10
239.8372132809677
 20
312.035268874651
 30
0.0
 11
239.8372132809677
 21
305.2039888365932
 31
0.0
  0
MTEXT
  5
3B26
330
1F
100
AcDbEntity
  8
AM_0
100
AcDbMText
 10
228.2323656056154
 20
363.6788287513245
 30
0.0
 40
1.6
 41
32.31955848564906
 71
     1
 72
     5
  1
{\fMS PGothic|b0|i0|c128|p50;チッコロ　ストレート　CR-1310}
 73
     1
 44
1.0
1001
ACAD
1000
ACAD_MTEXT_COLUMN_INFO_BEGIN
1070
    75
1070
     2
1070
    79
1070
     0
1070
    76
1070
     1
1070
    78
1070
     0
1070
    48
1040
32.31955848564906
1070
    49
1040
8.0
1070
    50
1070
     1
1040
0.0
1000
ACAD_MTEXT_COLUMN_INFO_END
1000
MTEXTBEGIN
1070
    73
1070
     1
1070
    44
1040
1.0
1070
    74
1070
     0
1000
MTEXTEND
  0
LINE
  5
3B27
330
1F
100
AcDbEntity
  8
AM_0
100
AcDbLine
 10
245.3372132809919
 20
287.5773860090151
 30
0.0
 11
241.8372132809919
 21
287.5773860090151
 31
0.0
  0
ARC
  5
3B28
330
1F
100
AcDbEntity
  8
AM_0
100
AcDbCircle
 10
241.8372132809918
 20
288.0773860090151
 30
0.0
 40
0.5
100
AcDbArc
 50
180.0
 51
270.0
1001
GENIUS_GENODEF_13
1002
{
1000
HIER
1070
     0
1002
}
1002
{
1000
MANEDIT
1070
     0
1002
}
1002
{
1000
NOSEL
1070
     0
1002
}
1002
{
1000
BEHIND
1070
     0
1002
}
1002
{
1000
REACTOR
1002
}
1001
GENIUS_GENOBJ-N-FIL_13
1002
{
1000
OWNER
1000
GEN
1002
}
  0
LINE
  5
3B29
330
1F
100
AcDbEntity
  8
AM_0
100
AcDbLine
 10
245.3372132809919
 20
287.5773860090151
 30
0.0
 11
248.8372132809919
 21
287.5773860090151
 31
0.0
  0
LINE
  5
3B2A
330
1F
100
AcDbEntity
  8
AM_0
100
AcDbLine
 10
249.3372132809919
 20
288.0773860090151
 30
0.0
 11
249.3372132809919
 21
290.0151282607165
 31
0.0
  0
ARC
  5
3B2B
330
1F
100
AcDbEntity
  8
AM_0
100
AcDbCircle
 10
248.8372132809918
 20
288.0773860090151
 30
0.0
 40
0.5
100
AcDbArc
 50
270.0
 51
0.0
1001
GENIUS_GENODEF_13
1002
{
1000
HIER
1070
     0
1002
}
1002
{
1000
MANEDIT
1070
     0
1002
}
1002
{
1000
NOSEL
1070
     0
1002
}
1002
{
1000
BEHIND
1070
     0
1002
}
1002
{
1000
REACTOR
1002
}
1001
GENIUS_GENOBJ-N-FIL_13
1002
{
1000
OWNER
1000
GEN
1002
}
  0
LINE
  5
3B2C
330
1F
100
AcDbEntity
  8
AM_0
100
AcDbLine
 10
241.3372132809919
 20
288.0773860090151
 30
0.0
 11
241.3372132809919
 21
290.0151282607165
 31
0.0
  0
LINE
  5
3B2D
330
1F
100
AcDbEntity
  8
0
 62
     0
100
AcDbLine
 10
245.3372132809919
 20
322.5773860071085
 30
0.0
 11
237.337213281757
 21
322.5773860071084
 31
0.0
  0
LINE
  5
3B2E
330
1F
100
AcDbEntity
  8
0
 62
     0
100
AcDbLine
 10
237.337213281757
 20
316.0773860070731
 30
0.0
 11
237.337213281757
 21
314.5773860078734
 31
0.0
  0
LINE
  5
3B2F
330
1F
100
AcDbEntity
  8
0
 62
     0
100
AcDbLine
 10
237.337213281757
 20
314.5773860078734
 30
0.0
 11
245.3372132809919
 21
314.5773860070731
 31
0.0
  0
LINE
  5
3B30
330
1F
100
AcDbEntity
  8
0
 62
     0
100
AcDbLine
 10
253.337213281027
 20
314.5773860070733
 30
0.0
 11
245.3372132809919
 21
314.5773860070731
 31
0.0
  0
LINE
  5
3B31
330
1F
100
AcDbEntity
  8
0
 62
     0
100
AcDbLine
 10
253.337213281027
 20
316.0773860075351
 30
0.0
 11
253.337213281027
 21
314.5773860070733
 31
0.0
  0
LINE
  5
3B32
330
1F
100
AcDbEntity
  8
0
 62
     0
100
AcDbLine
 10
253.3372132802269
 20
322.5773860071084
 30
0.0
 11
245.3372132809919
 21
322.5773860071085
 31
0.0
  0
LINE
  5
3B33
330
1F
100
AcDbEntity
  8
AM_0
100
AcDbLine
 10
253.337213281027
 20
316.0773860064808
 30
0.0
 11
237.337213281757
 21
316.0773860070731
 31
0.0
  0
LINE
  5
3B34
330
1F
100
AcDbEntity
  8
AM_0
100
AcDbLine
 10
236.8372132809919
 20
322.1443733052576
 30
0.0
 11
237.337213281757
 21
322.5773860071084
 31
0.0
  0
ARC
  5
3B35
330
1F
100
AcDbEntity
  8
AM_0
100
AcDbCircle
 10
241.0872132809624
 20
310.0026789397921
 30
0.0
 40
12.57470706731631
100
AcDbArc
 50
74.92028252247367
 51
105.0797174772498
  0
LINE
  5
3B36
330
1F
100
AcDbEntity
  8
AM_0
100
AcDbLine
 10
244.3586832510041
 20
322.1443733052392
 30
0.0
 11
246.3157433109798
 21
322.1443733052392
 31
0.0
  0
LINE
  5
3B37
330
1F
100
AcDbEntity
  8
AM_0
100
AcDbLine
 10
244.3586832510038
 20
316.7990738428474
 30
0.0
 11
244.3586832510041
 21
322.1443733052392
 31
0.0
  0
LINE
  5
3B38
330
1F
100
AcDbEntity
  8
AM_0
100
AcDbLine
 10
246.315743311199
 20
316.7990738428475
 30
0.0
 11
246.315743311199
 21
322.1443733052392
 31
0.0
  0
LINE
  5
3B39
330
1F
100
AcDbEntity
  8
AM_0
100
AcDbLine
 10
237.8157433109798
 20
322.1443733052552
 30
0.0
 11
236.8372132809919
 21
322.1443733052552
 31
0.0
  0
LINE
  5
3B3A
330
1F
100
AcDbEntity
  8
AM_0
100
AcDbLine
 10
237.8157433109798
 20
322.1443733052552
 30
0.0
 11
237.8157433109799
 21
316.7990738428315
 31
0.0
  0
LINE
  5
3B3B
330
1F
100
AcDbEntity
  8
AM_0
100
AcDbLine
 10
236.8372132809919
 20
322.1443733052552
 30
0.0
 11
236.8372132809919
 21
316.5103987086278
 31
0.0
  0
ARC
  5
3B3C
330
1F
100
AcDbEntity
  8
AM_0
100
AcDbCircle
 10
241.0872132809624
 20
328.9407682082946
 30
0.0
 40
12.57470706731631
100
AcDbArc
 50
254.9202825227502
 51
285.0797174775264
  0
LINE
  5
3B3D
330
1F
100
AcDbEntity
  8
AM_0
100
AcDbLine
 10
237.8157433109798
 20
316.7990738428315
 30
0.0
 11
236.8372132809919
 21
316.7990738428315
 31
0.0
  0
LINE
  5
3B3E
330
1F
100
AcDbEntity
  8
AM_0
100
AcDbLine
 10
244.3586832510039
 20
316.7990738428474
 30
0.0
 11
246.315743311199
 21
316.7990738428474
 31
0.0
  0
ARC
  5
3B3F
330
1F
100
AcDbEntity
  8
AM_0
100
AcDbCircle
 10
249.5872132800906
 20
310.0026789394775
 30
0.0
 40
12.57470706731631
100
AcDbArc
 50
74.92028251850687
 51
105.079717473283
  0
LINE
  5
3B40
330
1F
100
AcDbEntity
  8
AM_0
100
AcDbLine
 10
252.858683250972
 20
322.1443733046984
 30
0.0
 11
253.8372132809598
 21
322.1443733046259
 31
0.0
  0
LINE
  5
3B41
330
1F
100
AcDbEntity
  8
AM_0
100
AcDbLine
 10
252.8586832509719
 20
322.1443733046984
 30
0.0
 11
252.8586832507954
 21
316.7990738422745
 31
0.0
  0
ARC
  5
3B42
330
1F
100
AcDbEntity
  8
AM_0
100
AcDbCircle
 10
249.5872132815355
 20
328.9407682079799
 30
0.0
 40
12.57470706731631
100
AcDbArc
 50
254.9202825182303
 51
285.0797174730065
  0
LINE
  5
3B43
330
1F
100
AcDbEntity
  8
AM_0
100
AcDbLine
 10
252.858683250619
 20
316.7990738422745
 30
0.0
 11
253.8372132806069
 21
316.7990738422021
 31
0.0
  0
LINE
  5
3B44
330
1F
100
AcDbEntity
  8
AM_0
100
AcDbLine
 10
253.8372132809919
 20
322.1443733052576
 30
0.0
 11
253.3372132802269
 21
322.5773860071084
 31
0.0
  0
LINE
  5
3B45
330
1F
100
AcDbEntity
  8
AM_0
100
AcDbLine
 10
253.8372132809919
 20
322.1443733052552
 30
0.0
 11
253.8372132809919
 21
316.5103987086278
 31
0.0
  0
LINE
  5
3B46
330
1F
100
AcDbEntity
  8
AM_0
100
AcDbLine
 10
236.8372132809919
 20
316.5103987086278
 30
0.0
 11
237.337213281757
 21
316.077386006777
 31
0.0
  0
LINE
  5
3B47
330
1F
100
AcDbEntity
  8
AM_0
100
AcDbLine
 10
253.8372132809919
 20
316.5103987086278
 30
0.0
 11
253.3372132802268
 21
316.077386006777
 31
0.0
  0
POINT
  5
3B48
330
1F
100
AcDbEntity
  8
0
 60
     1
100
AcDbPoint
 10
-54.35355702142129
 20
96.11687522784009
 30
0.0
 50
180.0000000000031
1001
GENIUS_GENOENT_13
1002
{
1000
MYREF
1005
3B48
1002
}
1002
{
1000
GRP
1005
0
1002
}
1001
GENIUS_GENOBJ-N-CHA_13
1002
{
1000
OWNER
1000
GEN
1002
}
1001
GENIUS_GENODEF_13
1002
{
1000
HIER
1070
     1
1002
}
1002
{
1000
MANEDIT
1070
     0
1002
}
1002
{
1000
NOSEL
1070
     0
1002
}
1002
{
1000
BEHIND
1070
     0
1002
}
1002
{
1000
OTHER
1070
     0
1002
}
1002
{
1000
REACTOR
1002
}
1001
GENIUS_GENOLIS_13
1002
{
1000
ENT
1005
3B10
1002
}
  0
POINT
  5
3B49
330
1F
100
AcDbEntity
  8
0
 60
     1
100
AcDbPoint
 10
515.4086407342713
 20
96.11687522785567
 30
0.0
1001
GENIUS_GENOENT_13
1002
{
1000
MYREF
1005
3B49
1002
}
1002
{
1000
GRP
1005
0
1002
}
1001
GENIUS_GENOBJ-N-CHA_13
1002
{
1000
OWNER
1000
GEN
1002
}
1001
GENIUS_GENODEF_13
1002
{
1000
HIER
1070
     1
1002
}
1002
{
1000
MANEDIT
1070
     0
1002
}
1002
{
1000
NOSEL
1070
     0
1002
}
1002
{
1000
BEHIND
1070
     0
1002
}
1002
{
1000
OTHER
1070
     0
1002
}
1002
{
1000
REACTOR
1002
}
1001
GENIUS_GENOLIS_13
1002
{
1000
ENT
1005
3B07
1002
}
  0
LINE
  5
3BB7
330
1F
100
AcDbEntity
  8
0
100
AcDbLine
 10
191.0634852962779
 20
327.7086924603795
 30
0.0
 11
191.0634852962779
 21
322.5773860088827
 31
0.0
  0
ARC
  5
3BB8
330
1F
100
AcDbEntity
  8
0
100
AcDbCircle
 10
197.8189534710072
 20
338.4544243916565
 30
0.0
 40
1.754268068723236
100
AcDbArc
 50
8.05227959730772
 51
171.9477204026952
  0
ARC
  5
3BB9
330
1F
100
AcDbEntity
  8
0
100
AcDbCircle
 10
191.7897425628567
 20
337.2339930198337
 30
0.0
 40
2.97469944054606
100
AcDbArc
 50
19.12700048611861
 51
160.8729995138811
  0
LINE
  5
3BBA
330
1F
100
AcDbEntity
  8
0
100
AcDbLine
 10
199.5559256282087
 20
338.7001563229333
 30
0.0
 11
199.5559256282087
 21
329.2086924603797
 31
0.0
  0
LINE
  5
3BBB
330
1F
100
AcDbEntity
  8
0
100
AcDbLine
 10
194.6002225507208
 20
338.2086924603796
 30
0.0
 11
194.6002225507207
 21
329.2086924603798
 31
0.0
  0
LINE
  5
3BBC
330
1F
100
AcDbEntity
  8
0
100
AcDbLine
 10
196.0819813138059
 20
338.7001563229338
 30
0.0
 11
196.0819813138058
 21
329.2086924603798
 31
0.0
  0
ARC
  5
3BBD
330
1F
100
AcDbEntity
  8
0
100
AcDbCircle
 10
198.563485296278
 20
338.2086924603797
 30
0.0
 40
2.0
100
AcDbArc
 50
359.9999999999998
 51
90.0
1001
GENIUS_GENODEF_13
1002
{
1000
HIER
1070
     0
1002
}
1002
{
1000
MANEDIT
1070
     0
1002
}
1002
{
1000
NOSEL
1070
     0
1002
}
1002
{
1000
BEHIND
1070
     0
1002
}
1002
{
1000
REACTOR
1002
}
1001
GENIUS_GENOBJ-N-FIL_13
1002
{
1000
OWNER
1000
GEN
1002
}
  0
LINE
  5
3BBE
330
1F
100
AcDbEntity
  8
0
100
AcDbLine
 10
198.563485296278
 20
340.2086924603797
 30
0.0
 11
188.063485296278
 21
340.2086924603798
 31
0.0
  0
LINE
  5
3BBF
330
1F
100
AcDbEntity
  8
0
100
AcDbLine
 10
198.5634852962784
 20
328.2086924603794
 30
0.0
 11
188.0634852962779
 21
328.2086924603795
 31
0.0
  0
LINE
  5
3BC0
330
1F
100
AcDbEntity
  8
0
100
AcDbLine
 10
200.0634852962779
 20
329.2086924603794
 30
0.0
 11
188.063485296278
 21
329.2086924603798
 31
0.0
  0
LINE
  5
3BC1
330
1F
100
AcDbEntity
  8
0
100
AcDbLine
 10
198.5634852962784
 20
329.2086924603794
 30
0.0
 11
198.5634852962784
 21
328.2086924603794
 31
0.0
  0
LINE
  5
3BC2
330
1F
100
AcDbEntity
  8
0
100
AcDbLine
 10
200.563485296278
 20
338.2086924603797
 30
0.0
 11
200.5634852962779
 21
329.7086924603794
 31
0.0
  0
ARC
  5
3BC3
330
1F
100
AcDbEntity
  8
0
100
AcDbCircle
 10
200.0634852962779
 20
329.7086924603794
 30
0.0
 40
0.5
100
AcDbArc
 50
269.9999999999968
 51
359.9999999999992
  0
LINE
  5
3BC4
330
1F
100
AcDbEntity
  8
0
100
AcDbLine
 10
198.563485296278
 20
340.2086924603797
 30
0.0
 11
198.563485296278
 21
341.7086924603797
 31
0.0
  0
ARC
  5
3BC5
330
1F
100
AcDbEntity
  8
0
100
AcDbCircle
 10
198.063485296278
 20
341.7086924603797
 30
0.0
 40
0.5
100
AcDbArc
 50
359.9999999999998
 51
90.0
  0
LINE
  5
3BC7
330
1F
100
AcDbEntity
  8
0
 62
     0
100
AcDbLine
 10
193.6003862879759
 20
322.1443733070338
 30
0.0
 11
193.6009768064195
 21
317.3755046185557
 31
0.0
  0
LINE
  5
3BC8
330
1F
100
AcDbEntity
  8
0
 62
     0
100
AcDbLine
 10
197.3134852953528
 20
322.1443733070338
 30
0.0
 11
197.3134852953528
 21
317.3764241150794
 31
0.0
  0
LINE
  5
3BC9
330
1F
100
AcDbEntity
  8
0
 62
     0
100
AcDbLine
 10
191.7121151757446
 20
322.1443733070338
 30
0.0
 11
191.7127057520951
 21
317.3750369777067
 31
0.0
  0
LINE
  5
3BCA
330
1F
100
AcDbEntity
  8
0
 62
     0
100
AcDbLine
 10
191.7127057520951
 20
317.3750369777067
 30
0.0
 11
193.6009768064195
 21
317.3755046185557
 31
0.0
  0
LINE
  5
3BCB
330
1F
100
AcDbEntity
  8
0
 62
     0
100
AcDbLine
 10
188.0641832225248
 20
316.9411206856429
 30
0.0
 11
196.5641829610083
 21
316.9432257579444
 31
0.0
  0
LINE
  5
3BCC
330
1F
100
AcDbEntity
  8
0
 62
     0
100
AcDbLine
 10
196.0634852954777
 20
314.5773860096828
 30
0.0
 11
188.0634852962778
 21
314.5773860096828
 31
0.0
  0
LINE
  5
3BCD
330
1F
100
AcDbEntity
  8
0
 62
     0
100
AcDbLine
 10
196.0634852954777
 20
316.6547362786646
 30
0.0
 11
188.0634852962778
 21
316.6547362786646
 31
0.0
  0
ELLIPSE
  5
3BCE
330
1F
100
AcDbEntity
  8
0
 62
     0
100
AcDbEllipse
 10
188.0640759845195
 20
317.3741333742128
 30
0.0
 11
3.648629767575592
 21
0.0009036034939531
 31
0.0
210
0.0
220
0.0
230
-0.9999999999999998
 40
0.1186781658193883
 41
0.0
 42
1.570796326794896
  0
LINE
  5
3BCF
330
1F
100
AcDbEntity
  8
0
 62
     0
100
AcDbLine
 10
196.0634852954777
 20
316.6547362786646
 30
0.0
 11
196.0634852954777
 21
314.5773860096828
 31
0.0
  0
LINE
  5
3BD0
330
1F
100
AcDbEntity
  8
0
 62
     0
100
AcDbLine
 10
194.5219852956319
 20
313.4786445482368
 30
0.0
 11
195.0634852955778
 21
313.4786445482368
 31
0.0
  0
LINE
  5
3BD1
330
1F
100
AcDbEntity
  8
0
 62
     0
100
AcDbLine
 10
195.0634852955778
 20
314.5773860096828
 30
0.0
 11
195.0634852955778
 21
313.4786445482368
 31
0.0
  0
LINE
  5
3BD2
330
1F
100
AcDbEntity
  8
0
 62
     0
100
AcDbLine
 10
194.0634852956778
 20
312.9012942791048
 30
0.0
 11
195.0634852955778
 21
313.4786445482368
 31
0.0
  0
LINE
  5
3BD3
330
1F
100
AcDbEntity
  8
0
 62
     0
100
AcDbLine
 10
194.5219852956319
 20
314.5773860096828
 30
0.0
 11
194.5219852956319
 21
313.1660093775018
 31
0.0
  0
ELLIPSE
  5
3BD4
330
1F
100
AcDbEntity
  8
0
 62
     0
100
AcDbEllipse
 10
195.4575262531738
 20
317.3759644033719
 30
0.0
 11
1.856549446754287
 21
0.0004597848161225
 31
0.0
210
0.0
220
0.0
230
-0.9999999999999998
 40
0.2338805696726739
 41
0.7697783891174672
 42
3.141592653589793
  0
LINE
  5
3BD5
330
1F
100
AcDbEntity
  8
0
 62
     0
100
AcDbLine
 10
196.0634852954777
 20
316.6547362786646
 30
0.0
 11
197.3134852953528
 21
317.3764241150794
 31
0.0
  0
LINE
  5
3BD6
330
1F
100
AcDbEntity
  8
0
 62
     0
100
AcDbLine
 10
197.3140756999281
 20
317.3764241881879
 30
0.0
 11
196.5641829610083
 21
316.9432257579444
 31
0.0
  0
LINE
  5
3BD7
330
1F
100
AcDbEntity
  8
0
 62
     0
100
AcDbLine
 10
188.0634852962778
 20
322.5773860088827
 30
0.0
 11
196.5634852954278
 21
322.5773860088826
 31
0.0
  0
LINE
  5
3BD8
330
1F
100
AcDbEntity
  8
0
 62
     0
100
AcDbLine
 10
191.7121151757446
 20
322.1443733070338
 30
0.0
 11
193.600386287976
 21
322.1443733070338
 31
0.0
  0
ELLIPSE
  5
3BD9
330
1F
100
AcDbEntity
  8
0
 62
     0
100
AcDbEllipse
 10
188.0634852962778
 20
322.1443733070338
 30
0.0
 11
3.64862987946681
 21
-0.0000000000000087
 31
0.0
210
0.0
220
0.0
230
1.0
 40
0.1186781658193883
 41
0.0
 42
1.570796326794896
  0
ELLIPSE
  5
3BDA
330
1F
100
AcDbEntity
  8
0
 62
     0
100
AcDbEllipse
 10
195.4569357916643
 20
322.1443733070338
 30
0.0
 11
1.856549503688422
 21
-0.0000000000000044
 31
0.0
210
0.0
220
0.0
230
1.0
 40
0.2338805696726739
 41
0.7697783891174672
 42
3.141592653589793
  0
LINE
  5
3BDB
330
1F
100
AcDbEntity
  8
0
 62
     0
100
AcDbLine
 10
197.3134852953528
 20
322.1443733070338
 30
0.0
 11
196.5634852954278
 21
322.5773860088827
 31
0.0
  0
LINE
  5
3BDC
330
1F
100
AcDbEntity
  8
0
 62
     0
100
AcDbLine
 10
194.5219852956319
 20
313.4786445482368
 30
0.0
 11
188.0634852962779
 21
313.4786445482368
 31
0.0
  0
LINE
  5
3BDE
330
1F
100
AcDbEntity
  8
0
100
AcDbLine
 10
190.5634852962779
 20
328.2086924603795
 30
0.0
 11
191.0634852962779
 21
327.7086924603795
 31
0.0
1001
GENIUS_GENFIL_13
1070
     0
1040
0.5
1040
0.5
1040
0.5
1040
45.0000000000002
1000
~T
1001
GENIUS_GENOREF_13
1005
3BE1
  0
LINE
  5
3BDF
330
1F
100
AcDbEntity
  8
0
100
AcDbLine
 10
200.563485296278
 20
338.2086924603797
 30
0.0
 11
199.5559256282087
 21
338.2086924603797
 31
0.0
  0
LINE
  5
3BE0
330
1F
100
AcDbEntity
  8
0
100
AcDbLine
 10
196.0819813138059
 20
338.2086924603798
 30
0.0
 11
194.6002225507208
 21
338.2086924603796
 31
0.0
  0
POINT
  5
3BE1
330
1F
100
AcDbEntity
  8
0
 60
     1
100
AcDbPoint
 10
-118.6674916872886
 20
80.86024713736286
 30
0.0
 50
359.9999999999998
1001
GENIUS_GENOENT_13
1002
{
1000
MYREF
1005
3BE1
1002
}
1002
{
1000
GRP
1005
0
1002
}
1001
GENIUS_GENOBJ-N-CHA_13
1002
{
1000
OWNER
1000
GEN
1002
}
1001
GENIUS_GENODEF_13
1002
{
1000
HIER
1070
     1
1002
}
1002
{
1000
MANEDIT
1070
     0
1002
}
1002
{
1000
NOSEL
1070
     0
1002
}
1002
{
1000
BEHIND
1070
     0
1002
}
1002
{
1000
OTHER
1070
     0
1002
}
1002
{
1000
REACTOR
1002
}
1001
GENIUS_GENOLIS_13
1002
{
1000
ENT
1005
3BDE
1002
}
  0
LINE
  5
3C0C
330
1F
100
AcDbEntity
  8
AM_0
100
AcDbLine
 10
202.9475295458324
 20
305.669654259459
 30
0.0
 11
202.9475295458324
 21
290.4851177585697
 31
0.0
  0
LINE
  5
3C0D
330
1F
100
AcDbEntity
  8
AM_0
100
AcDbLine
 10
210.9895758626108
 20
305.4183403120604
 30
0.0
 11
210.9895758626116
 21
290.7364317059697
 31
0.0
  0
LINE
  5
3CAC
330
1F
100
AcDbEntity
  8
AM_0
100
AcDbLine
 10
187.1477080175632
 20
338.2086924603799
 30
0.0
 11
187.1477080175632
 21
329.2086924603798
 31
0.0
  0
LINE
  5
3CAD
330
1F
100
AcDbEntity
  8
AM_0
100
AcDbLine
 10
188.9792625749927
 20
338.2086924603799
 30
0.0
 11
188.9792625749924
 21
329.2086924603797
 31
0.0
  0
LINE
  5
3CAE
330
1F
100
AcDbEntity
  8
AM_0
100
AcDbLine
 10
187.1477080175632
 20
338.2086924603787
 30
0.0
 11
188.9792625749927
 21
338.2086924603787
 31
0.0
  0
ARC
  5
3CAF
330
1F
100
AcDbEntity
  8
AM_0
100
AcDbCircle
 10
235.3372132809919
 20
341.7086924603787
 30
0.0
 40
0.5
100
AcDbArc
 50
90.0
 51
180.0
  0
ARC
  5
3CB0
330
1F
100
AcDbEntity
  8
AM_0
100
AcDbCircle
 10
255.3372132809924
 20
341.7086924603787
 30
0.0
 40
0.5
100
AcDbArc
 50
0.0000000000032569
 51
90.0
  0
ARC
  5
3CB1
330
1F
100
AcDbEntity
  8
AM_0
100
AcDbCircle
 10
257.337213280993
 20
329.7086924603791
 30
0.0
 40
0.5
100
AcDbArc
 50
270.0000000000015
 51
0.0000000000025317
  0
ARC
  5
3CB2
330
1F
100
AcDbEntity
  8
AM_0
100
AcDbCircle
 10
233.337213280992
 20
329.7086924603783
 30
0.0
 40
0.5
100
AcDbArc
 50
180.0000000000007
 51
270.0000000000016
  0
LINE
  5
3CB4
330
1F
100
AcDbEntity
  8
AM_0
100
AcDbLine
 10
232.8372132809919
 20
338.2086924603787
 30
0.0
 11
235.8587136979145
 21
338.2086924603783
 31
0.0
  0
LINE
  5
3CB5
330
1F
100
AcDbEntity
  8
AM_0
100
AcDbLine
 10
240.6401878449821
 20
338.2086924603787
 30
0.0
 11
242.3820997417752
 21
338.2086924603785
 31
0.0
  0
LINE
  5
3CB6
330
1F
100
AcDbEntity
  8
AM_0
100
AcDbLine
 10
248.2923268202086
 20
338.2086924603787
 30
0.0
 11
250.0342387170018
 21
338.2086924603787
 31
0.0
  0
LINE
  5
3CB7
330
1F
100
AcDbEntity
  8
AM_0
100
AcDbLine
 10
254.8157128640694
 20
338.2086924603787
 30
0.0
 11
257.8372132809926
 21
338.2086924603803
 31
0.0
  0
ARC
  5
3FA7
330
1F
100
AcDbEntity
  8
AM_0
100
AcDbCircle
 10
245.3372132809919
 20
298.0773860090151
 30
0.0
 40
10.2499999999992
100
AcDbArc
 50
122.4514910282824
 51
143.8706703255787
  0
POLYLINE
  5
3FAF
330
1F
100
AcDbEntity
  8
AM_0
100
AcDb2dPolyline
 66
     1
 10
0.0
 20
0.0
 30
0.0
  0
VERTEX
  5
3FB1
330
3FAF
100
AcDbEntity
  8
AM_0
100
AcDbVertex
100
AcDb2dVertex
 10
239.8372132809677
 20
307.0263151814402
 30
0.0
  0
VERTEX
  5
3FB2
330
3FAF
100
AcDbEntity
  8
AM_0
100
AcDbVertex
100
AcDb2dVertex
 10
234.8372132809919
 20
304.1395638355061
 30
0.0
  0
VERTEX
  5
3FB3
330
3FAF
100
AcDbEntity
  8
AM_0
100
AcDbVertex
100
AcDb2dVertex
 10
234.8372132809919
 20
292.015208182524
 30
0.0
  0
SEQEND
  5
3FB0
330
3FAF
100
AcDbEntity
  8
AM_0
  0
POLYLINE
  5
3FB9
330
1F
100
AcDbEntity
  8
AM_0
100
AcDb2dPolyline
 66
     1
 10
0.0
 20
0.0
 30
0.0
  0
VERTEX
  5
3FBB
330
3FB9
100
AcDbEntity
  8
AM_0
100
AcDbVertex
100
AcDb2dVertex
 10
249.3372132809919
 20
288.2624314327915
 30
0.0
  0
VERTEX
  5
3FBC
330
3FB9
100
AcDbEntity
  8
AM_0
100
AcDbVertex
100
AcDb2dVertex
 10
255.8372132809919
 20
292.015208182524
 30
0.0
  0
VERTEX
  5
3FBD
330
3FB9
100
AcDbEntity
  8
AM_0
100
AcDbVertex
100
AcDb2dVertex
 10
255.8372132809919
 20
304.1395638355061
 30
0.0
  0
VERTEX
  5
3FBE
330
3FB9
100
AcDbEntity
  8
AM_0
100
AcDbVertex
100
AcDb2dVertex
 10
250.8372132810161
 20
307.0263151814403
 30
0.0
  0
SEQEND
  5
3FBA
330
3FB9
100
AcDbEntity
  8
AM_0
  0
POLYLINE
  5
3FBF
330
1F
100
AcDbEntity
  8
AM_0
100
AcDb2dPolyline
 66
     1
 10
0.0
 20
0.0
 30
0.0
  0
VERTEX
  5
3FC1
330
3FBF
100
AcDbEntity
  8
AM_0
100
AcDbVertex
100
AcDb2dVertex
 10
234.8372132809919
 20
292.015208182524
 30
0.0
  0
VERTEX
  5
3FC2
330
3FBF
100
AcDbEntity
  8
AM_0
100
AcDbVertex
100
AcDb2dVertex
 10
241.337213280992
 20
288.2624314327915
 30
0.0
  0
SEQEND
  5
3FC0
330
3FBF
100
AcDbEntity
  8
AM_0
  0
POLYLINE
  5
3FC3
330
1F
100
AcDbEntity
  8
AM_0
100
AcDb2dPolyline
 66
     1
 10
0.0
 20
0.0
 30
0.0
  0
VERTEX
  5
3FC5
330
3FC3
100
AcDbEntity
  8
AM_0
100
AcDbVertex
100
AcDb2dVertex
 10
242.5237467604652
 20
287.5773860090151
 30
0.0
  0
VERTEX
  5
3FC6
330
3FC3
100
AcDbEntity
  8
AM_0
100
AcDbVertex
100
AcDb2dVertex
 10
245.3372132809919
 20
285.953030356033
 30
0.0
  0
VERTEX
  5
3FC7
330
3FC3
100
AcDbEntity
  8
AM_0
100
AcDbVertex
100
AcDb2dVertex
 10
248.1506798015186
 20
287.5773860090151
 30
0.0
  0
SEQEND
  5
3FC4
330
3FC3
100
AcDbEntity
  8
AM_0
  0
ARC
  5
3FC8
330
1F
100
AcDbEntity
  8
AM_0
100
AcDbCircle
 10
245.3372132809919
 20
298.0773860090151
 30
0.0
 40
10.2499999999992
100
AcDbArc
 50
36.12932967442127
 51
57.54850897171756
  0
ARC
  5
3FC9
330
1F
100
AcDbEntity
  8
AM_0
100
AcDbCircle
 10
245.3372132809919
 20
298.0773860090151
 30
0.0
 40
10.2499999999992
100
AcDbArc
 50
331.4078773590793
 51
28.5921226409207
  0
ARC
  5
3FCA
330
1F
100
AcDbEntity
  8
AM_0
100
AcDbCircle
 10
245.3372132809919
 20
298.0773860090151
 30
0.0
 40
10.2499999999992
100
AcDbArc
 50
216.1293296744213
 51
247.0303234276542
  0
ARC
  5
3FCB
330
1F
100
AcDbEntity
  8
AM_0
100
AcDbCircle
 10
245.3372132809919
 20
298.0773860090151
 30
0.0
 40
10.2499999999992
100
AcDbArc
 50
151.4078773590793
 51
208.5921226409207
  0
ARC
  5
3FCC
330
1F
100
AcDbEntity
  8
AM_0
100
AcDbCircle
 10
245.3372132809919
 20
298.0773860090151
 30
0.0
 40
10.2499999999992
100
AcDbArc
 50
292.9696765723458
 51
323.8706703255787
  0
LINE
  5
3FCD
330
1F
100
AcDbEntity
  8
AM_7
100
AcDbLine
 10
233.4402132809919
 20
298.0773860090151
 30
0.0
 11
257.2342132809919
 21
298.0773860090151
 31
0.0
1001
GENIUS_GENODEF_13
1002
{
1000
HIER
1070
     0
1002
}
1002
{
1000
MANEDIT
1070
     0
1002
}
1002
{
1000
NOSEL
1070
     0
1002
}
1002
{
1000
BEHIND
1070
     0
1002
}
1002
{
1000
OTHER
1070
     0
1002
}
1002
{
1000
REACTOR
1002
}
1001
GENIUS_GENOBJ-N-CEN_13
1002
{
1000
OWNER
1000
GEN
1002
}
1001
GENIUS_GENCEN_19
1002
{
1040
1.397
1002
}
  0
LINE
  5
4110
330
1F
100
AcDbEntity
  8
AM_4
100
AcDbLine
 10
167.5194158906964
 20
290.6023860090144
 30
0.0
 11
172.0634852962779
 21
290.6023860090143
 31
0.0
  0
LINE
  5
4111
330
1F
100
AcDbEntity
  8
0
100
AcDbLine
 10
167.5194158906964
 20
289.7463860090144
 30
0.0
 11
171.2074852962779
 21
289.7463860090143
 31
0.0
  0
ARC
  5
4117
330
1F
100
AcDbEntity
  8
0
100
AcDbCircle
 10
147.4572380642051
 20
298.0773860090145
 30
0.0
 40
20.06217782649128
100
AcDbArc
 50
342.4120462260054
 51
0.0
  0
LINE
  5
4118
330
1F
100
AcDbEntity
  8
0
100
AcDbLine
 10
167.5194158906964
 20
287.8273860090144
 30
0.0
 11
167.5194158906964
 21
298.0773860090145
 31
0.0
  0
LINE
  5
4119
330
1F
100
AcDbEntity
  8
0
100
AcDbLine
 10
152.5194158906965
 20
287.8273860090144
 30
0.0
 11
152.5194158906964
 21
298.0773860090145
 31
0.0
  0
ARC
  5
411A
330
1F
100
AcDbEntity
  8
0
100
AcDbCircle
 10
172.5815937171877
 20
298.0773860090145
 30
0.0
 40
20.06217782649128
100
AcDbArc
 50
180.0
 51
197.5879537739945
  0
LINE
  5
411B
330
1F
100
AcDbEntity
  8
AM_0
100
AcDbLine
 10
153.4572380642055
 20
292.0152081825232
 30
0.0
 11
166.5815937171873
 21
292.0152081825232
 31
0.0
  0
LINE
  5
411C
330
1F
100
AcDbEntity
  8
0
100
AcDbLine
 10
166.4372561498902
 20
285.9530303560325
 30
0.0
 11
153.6015756315027
 21
285.9530303560325
 31
0.0
  0
ARC
  5
411D
330
1F
100
AcDbEntity
  8
0
100
AcDbCircle
 10
162.1521881190077
 20
288.984119269278
 30
0.0
 40
5.367227771688691
100
AcDbArc
 50
343.1483601525451
 51
34.38424746803871
  0
LINE
  5
411E
330
1F
100
AcDbEntity
  8
0
100
AcDbLine
 10
167.5194158906964
 20
287.8273860090145
 30
0.0
 11
166.4372561498902
 21
285.9530303560325
 31
0.0
  0
ARC
  5
411F
330
1F
100
AcDbEntity
  8
0
100
AcDbCircle
 10
157.8866436623852
 20
288.984119269278
 30
0.0
 40
5.367227771688691
100
AcDbArc
 50
145.6157525319613
 51
196.8516398474549
  0
LINE
  5
4120
330
1F
100
AcDbEntity
  8
0
100
AcDbLine
 10
152.5194158906964
 20
287.8273860090145
 30
0.0
 11
153.6015756315027
 21
285.9530303560325
 31
0.0
  0
LINE
  5
413A
330
1F
100
AcDbEntity
  8
AM_0
100
AcDbLine
 10
172.0634852962779
 20
305.5523860090143
 30
0.0
 11
174.0634852962779
 21
305.5523860090143
 31
0.0
  0
LINE
  5
413B
330
1F
100
AcDbEntity
  8
AM_0
100
AcDbLine
 10
172.0634852962779
 20
290.6023860090143
 30
0.0
 11
171.2074852962779
 21
289.7463860090143
 31
0.0
  0
LINE
  5
413C
330
1F
100
AcDbEntity
  8
AM_0
100
AcDbLine
 10
171.2074852962779
 20
289.7463860090143
 30
0.0
 11
171.2074852962779
 21
290.6023860090143
 31
0.0
  0
LINE
  5
413D
330
1F
100
AcDbEntity
  8
AM_0
100
AcDbLine
 10
172.0634852962779
 20
290.6023860090143
 30
0.0
 11
174.0634852962779
 21
290.6023860090143
 31
0.0
  0
LINE
  5
4145
330
1F
100
AcDbEntity
  8
AM_4
100
AcDbLine
 10
167.5194158906962
 20
305.5523860090143
 30
0.0
 11
172.0634852962776
 21
305.5523860090144
 31
0.0
  0
LINE
  5
4146
330
1F
100
AcDbEntity
  8
0
100
AcDbLine
 10
167.5194158906962
 20
306.4083860090142
 30
0.0
 11
171.2074852962776
 21
306.4083860090144
 31
0.0
  0
ARC
  5
4147
330
1F
100
AcDbEntity
  8
0
100
AcDbCircle
 10
147.4572380642051
 20
298.0773860090134
 30
0.0
 40
20.06217782649128
100
AcDbArc
 50
0.0
 51
17.58795377399766
  0
LINE
  5
4148
330
1F
100
AcDbEntity
  8
0
100
AcDbLine
 10
167.5194158906961
 20
308.3273860090141
 30
0.0
 11
167.5194158906964
 21
298.0773860090141
 31
0.0
  0
LINE
  5
4149
330
1F
100
AcDbEntity
  8
0
100
AcDbLine
 10
152.5194158906962
 20
308.3273860090137
 30
0.0
 11
152.5194158906964
 21
298.0773860090137
 31
0.0
  0
ARC
  5
414A
330
1F
100
AcDbEntity
  8
0
100
AcDbCircle
 10
172.5815937171877
 20
298.0773860090142
 30
0.0
 40
20.06217782649128
100
AcDbArc
 50
162.4120462260088
 51
180.0
  0
LINE
  5
414B
330
1F
100
AcDbEntity
  8
AM_0
100
AcDbLine
 10
153.4572380642053
 20
304.139563835505
 30
0.0
 11
166.5815937171872
 21
304.1395638355054
 31
0.0
  0
LINE
  5
414C
330
1F
100
AcDbEntity
  8
0
100
AcDbLine
 10
166.4372561498898
 20
310.2017416619961
 30
0.0
 11
153.6015756315024
 21
310.2017416619957
 31
0.0
  0
ARC
  5
414D
330
1F
100
AcDbEntity
  8
0
100
AcDbCircle
 10
162.1521881190074
 20
307.1706527487505
 30
0.0
 40
5.367227771688691
100
AcDbArc
 50
325.6157525319621
 51
16.85163984745492
  0
LINE
  5
414E
330
1F
100
AcDbEntity
  8
0
100
AcDbLine
 10
167.5194158906961
 20
308.3273860090141
 30
0.0
 11
166.4372561498898
 21
310.2017416619961
 31
0.0
  0
ARC
  5
414F
330
1F
100
AcDbEntity
  8
0
100
AcDbCircle
 10
157.8866436623849
 20
307.1706527487503
 30
0.0
 40
5.367227771688691
100
AcDbArc
 50
163.1483601525453
 51
214.384247468039
  0
LINE
  5
4150
330
1F
100
AcDbEntity
  8
0
100
AcDbLine
 10
152.5194158906961
 20
308.3273860090137
 30
0.0
 11
153.6015756315024
 21
310.2017416619957
 31
0.0
  0
LINE
  5
4151
330
1F
100
AcDbEntity
  8
AM_0
100
AcDbLine
 10
172.0634852962776
 20
305.5523860090144
 30
0.0
 11
171.2074852962776
 21
306.4083860090144
 31
0.0
  0
LINE
  5
4152
330
1F
100
AcDbEntity
  8
AM_0
100
AcDbLine
 10
171.2074852962776
 20
306.4083860090144
 30
0.0
 11
171.2074852962776
 21
305.5523860090144
 31
0.0
  0
LINE
  5
4153
330
1F
100
AcDbEntity
  8
AM_0
100
AcDbLine
 10
171.2074852962776
 20
305.5523860090144
 30
0.0
 11
171.2074852962776
 21
290.6023860090143
 31
0.0
  0
LINE
  5
4154
330
1F
100
AcDbEntity
  8
AM_0
100
AcDbLine
 10
172.0634852962779
 20
305.5523860090143
 30
0.0
 11
172.0634852962779
 21
290.6023860090143
 31
0.0
  0
LINE
  5
4236
330
1F
100
AcDbEntity
  8
AM_0
100
AcDbLine
 10
182.563485296278
 20
312.0353020469325
 30
0.0
 11
182.563485296278
 21
309.8694006676367
 31
0.0
  0
ARC
  5
4237
330
1F
100
AcDbEntity
  8
AM_0
100
AcDbCircle
 10
181.563485296278
 20
309.8694006676367
 30
0.0
 40
1.0
100
AcDbArc
 50
283.2405199151826
 51
0.0
  0
LINE
  5
4238
330
1F
100
AcDbEntity
  8
AM_0
100
AcDbLine
 10
188.063485296278
 20
287.5773860090147
 30
0.0
 11
184.563485296278
 21
287.5773860090147
 31
0.0
  0
LINE
  5
4239
330
1F
100
AcDbEntity
  8
AM_0
100
AcDbLine
 10
184.063485296278
 20
288.0773860090147
 30
0.0
 11
184.063485296278
 21
288.0773860090147
 31
0.0
  0
ARC
  5
423A
330
1F
100
AcDbEntity
  8
AM_0
100
AcDbCircle
 10
184.5634852962779
 20
288.0773860090148
 30
0.0
 40
0.5
100
AcDbArc
 50
180.0000000000065
 51
270.0
1001
GENIUS_GENODEF_13
1002
{
1000
HIER
1070
     0
1002
}
1002
{
1000
MANEDIT
1070
     0
1002
}
1002
{
1000
NOSEL
1070
     0
1002
}
1002
{
1000
BEHIND
1070
     0
1002
}
1002
{
1000
REACTOR
1002
}
1001
GENIUS_GENOBJ-N-FIL_13
1002
{
1000
OWNER
1000
GEN
1002
}
  0
LINE
  5
423B
330
1F
100
AcDbEntity
  8
AM_0
100
AcDbLine
 10
188.063485296278
 20
287.5773860090147
 30
0.0
 11
192.0634852962778
 21
287.5773860090147
 31
0.0
  0
LINE
  5
423C
330
1F
100
AcDbEntity
  8
AM_0
100
AcDbLine
 10
174.063485296278
 20
289.0773860090147
 30
0.0
 11
183.063485296278
 21
289.0773860090147
 31
0.0
  0
LINE
  5
423D
330
1F
100
AcDbEntity
  8
AM_0
100
AcDbLine
 10
192.0634852962779
 20
287.5773860090147
 30
0.0
 11
202.063485296278
 21
289.0773860090161
 31
0.0
  0
LINE
  5
423E
330
1F
100
AcDbEntity
  8
AM_0
100
AcDbLine
 10
202.0634852962769
 20
307.0773860090147
 30
0.0
 11
194.563485296278
 21
307.0773860090147
 31
0.0
  0
ARC
  5
423F
330
1F
100
AcDbEntity
  8
AM_0
100
AcDbCircle
 10
183.063485296278
 20
288.0773860090147
 30
0.0
 40
1.0
100
AcDbArc
 50
0.0000000000065138
 51
90.0
1001
GENIUS_GENOBJ-N-FIL_13
1002
{
1000
OWNER
1000
GEN
1002
}
1001
GENIUS_GENODEF_13
1002
{
1000
HIER
1070
     0
1002
}
1002
{
1000
MANEDIT
1070
     0
1002
}
1002
{
1000
NOSEL
1070
     0
1002
}
1002
{
1000
BEHIND
1070
     0
1002
}
1002
{
1000
OTHER
1070
     0
1002
}
1002
{
1000
REACTOR
1002
}
  0
LINE
  5
4240
330
1F
100
AcDbEntity
  8
AM_0
100
AcDbLine
 10
202.063485296278
 20
298.0773860090159
 30
0.0
 11
202.063485296278
 21
289.0773860090161
 31
0.0
  0
LINE
  5
4241
330
1F
100
AcDbEntity
  8
AM_0
100
AcDbLine
 10
202.0634852962779
 20
298.0773860090159
 30
0.0
 11
202.063485296277
 21
307.0773860090147
 31
0.0
  0
LINE
  5
4242
330
1F
100
AcDbEntity
  8
AM_0
100
AcDbLine
 10
174.0634852962779
 20
298.0773860090156
 30
0.0
 11
174.063485296278
 21
289.0773860090147
 31
0.0
  0
ARC
  5
4243
330
1F
100
AcDbEntity
  8
AM_0
 62
     0
100
AcDbCircle
 10
181.5634852969282
 20
312.0352688754081
 30
0.0
 40
0.9999999998999999
100
AcDbArc
 50
0.0
 51
60.0000000000025
  0
LINE
  5
4244
330
1F
100
AcDbEntity
  8
AM_0
 62
     0
100
AcDbLine
 10
182.5634852968281
 20
312.0352688754081
 30
0.0
 11
188.063485296278
 21
312.0352688754081
 31
0.0
  0
LINE
  5
4245
330
1F
100
AcDbEntity
  8
AM_0
100
AcDbLine
 10
194.5634852962777
 20
303.077386009016
 30
0.0
 11
194.5634852962777
 21
293.0773860090164
 31
0.0
  0
ARC
  5
4246
330
1F
100
AcDbEntity
  8
AM_0
100
AcDbCircle
 10
195.5634852962777
 20
293.0773860090164
 30
0.0
 40
1.0
100
AcDbArc
 50
180.0
 51
270.0
  0
ARC
  5
4247
330
1F
100
AcDbEntity
  8
AM_0
100
AcDbCircle
 10
195.5634852962777
 20
303.077386009016
 30
0.0
 40
1.0
100
AcDbArc
 50
90.0
 51
180.0
  0
LINE
  5
4248
330
1F
100
AcDbEntity
  8
AM_0
100
AcDbLine
 10
181.5634852962777
 20
301.5773860090158
 30
0.0
 11
181.5634852962777
 21
294.5773860090158
 31
0.0
  0
LINE
  5
4249
330
1F
100
AcDbEntity
  8
AM_0
 62
     0
100
AcDbLine
 10
188.4201314904027
 20
301.2748714395749
 30
0.0
 11
189.665146677674
 21
297.4431086941769
 31
0.0
  0
LINE
  5
424A
330
1F
100
AcDbEntity
  8
AM_0
 62
     0
100
AcDbLine
 10
187.7068391032527
 20
301.2748714395749
 30
0.0
 11
186.4618239159814
 21
297.4431086941769
 31
0.0
  0
LINE
  5
424B
330
1F
100
AcDbEntity
  8
AM_0
 62
     0
100
AcDbLine
 10
187.3738432416423
 20
296.9448492806175
 30
0.0
 11
188.753127352013
 21
296.9448492806175
 31
0.0
  0
ARC
  5
424C
330
1F
100
AcDbEntity
  8
AM_0
 62
     0
100
AcDbCircle
 10
188.0634852968277
 20
293.119849281
 30
0.0
 40
2.999999999699999
100
AcDbArc
 50
55.822409278222
 51
124.177590721778
  0
ARC
  5
424D
330
1F
100
AcDbEntity
  8
AM_0
 62
     0
100
AcDbCircle
 10
188.0634852968277
 20
299.2173492803902
 30
0.0
 40
0.149999999985
100
AcDbArc
 50
17.99999999999898
 51
162.000000000001
  0
ARC
  5
424E
330
1F
100
AcDbEntity
  8
AM_0
 62
     0
100
AcDbCircle
 10
185.9271948118568
 20
296.8089900671309
 30
0.0
 40
0.3749999999625
100
AcDbArc
 50
90.0
 51
195.0000000000011
  0
LINE
  5
424F
330
1F
100
AcDbEntity
  8
AM_0
 62
     0
100
AcDbLine
 10
185.5649726270346
 20
296.7119329252272
 30
0.0
 11
185.8053236161461
 21
295.8149308222139
 31
0.0
  0
LINE
  5
4250
330
1F
100
AcDbEntity
  8
AM_0
 62
     0
100
AcDbLine
 10
185.8053236161461
 20
295.8149308222139
 30
0.0
 11
185.5649726270346
 21
296.7119329252272
 31
0.0
  0
LINE
  5
4251
330
1F
100
AcDbEntity
  8
AM_0
 62
     0
100
AcDbLine
 10
186.1051777224064
 20
297.1839900670934
 30
0.0
 11
185.9271948118568
 21
297.1839900670934
 31
0.0
  0
ARC
  5
4252
330
1F
100
AcDbEntity
  8
AM_0
 62
     0
100
AcDbCircle
 10
186.1675458009682
 20
295.9119879641177
 30
0.0
 40
0.3749999999625
100
AcDbArc
 50
194.999999999998
 51
304.1775907217779
  0
ARC
  5
4253
330
1F
100
AcDbEntity
  8
AM_0
 62
     0
100
AcDbCircle
 10
187.3738432416423
 20
297.0948492806025
 30
0.0
 40
0.149999999985
100
AcDbArc
 50
162.000000000001
 51
270.0
  0
LINE
  5
4254
330
1F
100
AcDbEntity
  8
AM_0
 62
     0
100
AcDbLine
 10
185.9271948118568
 20
297.1839900670934
 30
0.0
 11
186.1051777224064
 21
297.1839900670934
 31
0.0
  0
ARC
  5
4255
330
1F
100
AcDbEntity
  8
AM_0
 62
     0
100
AcDbCircle
 10
186.1051777224064
 20
297.5589900670559
 30
0.0
 40
0.3749999999625
100
AcDbArc
 50
270.0
 51
342.000000000001
  0
LINE
  5
4256
330
1F
100
AcDbEntity
  8
AM_0
 62
     0
100
AcDbLine
 10
185.805323616146
 20
295.8149308222139
 30
0.0
 11
185.5649726270346
 21
296.7119329252272
 31
0.0
  0
ARC
  5
4257
330
1F
100
AcDbEntity
  8
AM_0
 62
     0
100
AcDbCircle
 10
185.9271948118568
 20
296.8089900671309
 30
0.0
 40
0.3749999999625
100
AcDbArc
 50
90.0
 51
195.0000000000011
  0
LINE
  5
4258
330
1F
100
AcDbEntity
  8
AM_0
 62
     0
100
AcDbLine
 10
187.9208268193977
 20
299.2637018295419
 30
0.0
 11
187.2311847642123
 21
297.141201829754
 31
0.0
  0
LINE
  5
4259
330
1F
100
AcDbEntity
  8
AM_0
 62
     0
100
AcDbLine
 10
188.2061437742577
 20
299.2637018295419
 30
0.0
 11
188.895785829443
 21
297.141201829754
 31
0.0
  0
ARC
  5
425A
330
1F
100
AcDbEntity
  8
AM_0
 62
     0
100
AcDbCircle
 10
189.9594247926873
 20
295.9119879641177
 30
0.0
 40
0.3749999999625
100
AcDbArc
 50
235.822409278222
 51
345.000000000002
  0
ARC
  5
425B
330
1F
100
AcDbEntity
  8
AM_0
 62
     0
100
AcDbCircle
 10
190.0217928712489
 20
297.5589900670558
 30
0.0
 40
0.3749999999625
100
AcDbArc
 50
197.9999999999989
 51
270.0
  0
ARC
  5
425C
330
1F
100
AcDbEntity
  8
AM_0
 62
     0
100
AcDbCircle
 10
188.753127352013
 20
297.0948492806025
 30
0.0
 40
0.149999999985
100
AcDbArc
 50
270.0
 51
17.99999999999898
  0
LINE
  5
425D
330
1F
100
AcDbEntity
  8
AM_0
 62
     0
100
AcDbLine
 10
190.0217928712489
 20
297.1839900670934
 30
0.0
 11
190.1997757817986
 21
297.1839900670934
 31
0.0
  0
LINE
  5
425E
330
1F
100
AcDbEntity
  8
AM_0
 62
     0
100
AcDbLine
 10
190.3216469775093
 20
295.8149308222139
 30
0.0
 11
190.5619979666207
 21
296.7119329252272
 31
0.0
  0
LINE
  5
425F
330
1F
100
AcDbEntity
  8
AM_0
 62
     0
100
AcDbLine
 10
190.5619979666207
 20
296.7119329252272
 30
0.0
 11
190.3216469775093
 21
295.8149308222139
 31
0.0
  0
ARC
  5
4260
330
1F
100
AcDbEntity
  8
AM_0
 62
     0
100
AcDbCircle
 10
190.1997757817986
 20
296.8089900671309
 30
0.0
 40
0.3749999999625
100
AcDbArc
 50
344.9999999999989
 51
90.0
  0
ARC
  5
4261
330
1F
100
AcDbEntity
  8
AM_0
 62
     0
100
AcDbCircle
 10
188.0634852968277
 20
301.1589900666959
 30
0.0
 40
0.3749999999625
100
AcDbArc
 50
17.99999999999898
 51
162.000000000001
  0
LINE
  5
4262
330
1F
100
AcDbEntity
  8
AM_0
100
AcDbLine
 10
195.5634852962776
 20
304.0773860090161
 30
0.0
 11
202.0634852962772
 21
304.0773860090165
 31
0.0
  0
LINE
  5
4263
330
1F
100
AcDbEntity
  8
AM_0
100
AcDbLine
 10
195.5634852962778
 20
292.0773860090161
 30
0.0
 11
202.0634852962778
 21
292.0773860090164
 31
0.0
  0
LINE
  5
4264
330
1F
100
AcDbEntity
  8
AM_0
 62
     0
100
AcDbLine
 10
191.6739124031423
 20
303.6276797943147
 30
0.0
 11
191.6739124031424
 21
292.4633620683604
 31
0.0
  0
LINE
  5
4265
330
1F
100
AcDbEntity
  8
AM_0
 62
     0
100
AcDbLine
 10
184.453058189413
 20
303.6276797943147
 30
0.0
 11
184.4530581894129
 21
292.4633620683604
 31
0.0
  0
ARC
  5
4266
330
1F
100
AcDbEntity
  8
AM_0
 62
     0
100
AcDbCircle
 10
182.5634852962831
 20
292.4633620683604
 30
0.0
 40
1.889572893129809
100
AcDbArc
 50
310.2249957735891
 51
0.0
  0
ARC
  5
4267
330
1F
100
AcDbEntity
  8
AM_0
 62
     0
100
AcDbCircle
 10
193.5634852962722
 20
292.4633620683604
 30
0.0
 40
1.889572893129809
100
AcDbArc
 50
180.0
 51
229.775004226411
  0
ARC
  5
4268
330
1F
100
AcDbEntity
  8
AM_0
 62
     0
100
AcDbCircle
 10
182.5634852962832
 20
303.6276797943147
 30
0.0
 40
1.889572893129809
100
AcDbArc
 50
0.0
 51
90.0
  0
ARC
  5
4269
330
1F
100
AcDbEntity
  8
AM_0
 62
     0
100
AcDbCircle
 10
193.5634852962722
 20
303.6276797943147
 30
0.0
 40
1.889572893129809
100
AcDbArc
 50
90.0
 51
180.0
  0
LINE
  5
426A
330
1F
100
AcDbEntity
  8
AM_0
100
AcDbLine
 10
181.5634852962781
 20
303.077386009016
 30
0.0
 11
181.5634852962781
 21
293.0773860090164
 31
0.0
  0
ARC
  5
426B
330
1F
100
AcDbEntity
  8
AM_0
100
AcDbCircle
 10
180.5634852962781
 20
293.0773860090164
 30
0.0
 40
1.0
100
AcDbArc
 50
270.0
 51
0.0
  0
ARC
  5
426C
330
1F
100
AcDbEntity
  8
AM_0
100
AcDbCircle
 10
180.5634852962781
 20
303.077386009016
 30
0.0
 40
1.0
100
AcDbArc
 50
0.0
 51
90.0
  0
LINE
  5
426D
330
1F
100
AcDbEntity
  8
AM_0
100
AcDbLine
 10
180.5634852962782
 20
304.0773860090161
 30
0.0
 11
174.063485296278
 21
304.0773860090161
 31
0.0
  0
LINE
  5
426E
330
1F
100
AcDbEntity
  8
AM_0
100
AcDbLine
 10
180.563485296278
 20
292.0773860090161
 30
0.0
 11
174.063485296278
 21
292.0773860090167
 31
0.0
  0
ARC
  5
426F
330
1F
100
AcDbEntity
  8
AM_0
100
AcDbCircle
 10
194.5634852962782
 20
308.0773860090151
 30
0.0
 40
1.0
100
AcDbArc
 50
180.0
 51
270.0
1001
GENIUS_GENODEF_13
1002
{
1000
HIER
1070
     0
1002
}
1002
{
1000
MANEDIT
1070
     0
1002
}
1002
{
1000
NOSEL
1070
     0
1002
}
1002
{
1000
BEHIND
1070
     0
1002
}
1002
{
1000
REACTOR
1002
}
1001
GENIUS_GENOBJ-N-FIL_13
1002
{
1000
OWNER
1000
GEN
1002
}
  0
ARC
  5
4270
330
1F
100
AcDbEntity
  8
AM_0
 62
     0
100
AcDbCircle
 10
194.5634852956278
 20
312.0352688754081
 30
0.0
 40
0.9999999998999999
100
AcDbArc
 50
119.9999999999961
 51
180.0
  0
LINE
  5
4271
330
1F
100
AcDbEntity
  8
AM_0
 62
     0
100
AcDbLine
 10
193.5634852957278
 20
312.0352688754081
 30
0.0
 11
188.063485296278
 21
312.0352688754081
 31
0.0
  0
LINE
  5
4272
330
1F
100
AcDbEntity
  8
AM_0
100
AcDbLine
 10
193.5634852957278
 20
312.0352688754081
 30
0.0
 11
193.5634852962783
 21
308.0773860090151
 31
0.0
  0
LINE
  5
4273
330
1F
100
AcDbEntity
  8
AM_0
100
AcDbLine
 10
174.063485296278
 20
307.0773860090154
 30
0.0
 11
174.0634852962781
 21
298.0773860090156
 31
0.0
  0
LINE
  5
4274
330
1F
100
AcDbEntity
  8
AM_0
100
AcDbLine
 10
174.063485296278
 20
307.0773860090154
 30
0.0
 11
181.7925246300035
 21
308.8959834993032
 31
0.0
  0
ARC
  5
4323
330
1F
100
AcDbEntity
  8
AM_0
100
AcDbCircle
 10
236.3372132809916
 20
311.0773860090151
 30
0.0
 40
7.0
100
AcDbArc
 50
270.0
 51
294.7003883268381
  0
LINE
  5
4324
330
1F
100
AcDbEntity
  8
AM_0
 62
     0
100
AcDbLine
 10
236.3372132809916
 20
304.0773860090151
 30
0.0
 11
236.3372132809916
 21
292.0773860090151
 31
0.0
  0
LINE
  5
4325
330
1F
100
AcDbEntity
  8
AM_0
 62
     0
100
AcDbLine
 10
254.3372132809917
 20
304.0773860090151
 30
0.0
 11
254.3372132809917
 21
292.0773860090151
 31
0.0
  0
ARC
  5
4326
330
1F
100
AcDbEntity
  8
AM_0
100
AcDbCircle
 10
254.3372132809917
 20
311.0773860090151
 30
0.0
 40
7.0
100
AcDbArc
 50
245.2996116731619
 51
270.0
  0
ARC
  5
4327
330
1F
100
AcDbEntity
  8
AM_0
100
AcDbCircle
 10
236.3372132809916
 20
285.0773860090151
 30
0.0
 40
7.0
100
AcDbArc
 50
65.29961167316193
 51
90.0
  0
ARC
  5
4328
330
1F
100
AcDbEntity
  8
AM_0
100
AcDbCircle
 10
254.3372132809917
 20
285.0773860090151
 30
0.0
 40
7.0
100
AcDbArc
 50
90.0
 51
114.700388326838
  0
ARC
  5
4329
330
1F
100
AcDbEntity
  8
AM_0
100
AcDbCircle
 10
245.3372132809917
 20
291.5773860090141
 30
0.0
 40
4.0
100
AcDbArc
 50
205.9444797723482
 51
334.0555202276517
  0
LINE
  5
43CF
330
1F
100
AcDbEntity
  8
AM_7
100
AcDbLine
 10
214.4604852962775
 20
298.0773860090151
 30
0.0
 11
151.1224158906964
 21
298.0773860090152
 31
0.0
1001
GENIUS_GENOBJ-N-CEN_13
1002
{
1000
OWNER
1000
GEN
1002
}
1001
GENIUS_GENODEF_13
1002
{
1000
HIER
1070
     0
1002
}
1002
{
1000
MANEDIT
1070
     0
1002
}
1002
{
1000
NOSEL
1070
     0
1002
}
1002
{
1000
BEHIND
1070
     0
1002
}
1002
{
1000
OTHER
1070
     0
1002
}
1002
{
1000
REACTOR
1002
}
1001
GENIUS_GENCEN_19
1002
{
1040
1.397
1002
}
  0
ENDSEC
  0
SECTION
  2
OBJECTS
  0
DICTIONARY
  5
C
330
0
100
AcDbDictionary
281
     1
  3
ACAD_2007HEADERVARS_RT
350
447E
  3
ACAD_COLOR
350
1FD5
  3
ACAD_GROUP
350
D
  3
ACAD_LAYOUT
350
1A
  3
ACAD_MATERIAL
350
1FD4
  3
ACAD_MLEADERSTYLE
350
28E1
  3
ACAD_MLINESTYLE
350
17
  3
ACAD_PLOTSETTINGS
350
19
  3
ACAD_PLOTSTYLENAME
350
E
  3
ACAD_SCALELIST
350
28CF
  3
ACAD_TABLESTYLE
350
23D3
  3
ACAD_VISUALSTYLE
350
23C2
  3
ACDB_RECOMPOSE_DATA
350
447C
  3
AcDbVariableDictionary
350
34
  3
AcmDictionary
350
43
  3
AMG
350
2B
  3
AMGSNAPSETTINGS
350
74
  3
DWGPROPS
350
447D
  0
DICTIONARY
  5
2406
330
8
100
AcDbDictionary
280
     1
281
     1
  0
DICTIONARY
  5
2E7F
330
2
100
AcDbDictionary
280
     1
281
     1
  3
ACAD_LAYERSTATES
360
2E80
  0
DICTIONARY
  5
3322
330
10
100
AcDbDictionary
280
     1
281
     1
  3
ADSK_XREC_LAYER_RECONCILED
360
3323
  0
DICTIONARY
  5
3324
330
59
100
AcDbDictionary
280
     1
281
     1
  3
ADSK_XREC_LAYER_RECONCILED
360
3325
  0
DICTIONARY
  5
3326
330
5A
100
AcDbDictionary
280
     1
281
     1
  3
ADSK_XREC_LAYER_RECONCILED
360
3327
  0
DICTIONARY
  5
3328
330
24D
100
AcDbDictionary
280
     1
281
     1
  3
ADSK_XREC_LAYER_RECONCILED
360
3329
  0
DICTIONARY
  5
332A
330
280
100
AcDbDictionary
280
     1
281
     1
  3
ADSK_XREC_LAYER_RECONCILED
360
332B
  0
DICTIONARY
  5
332C
330
2C6
100
AcDbDictionary
280
     1
281
     1
  3
ADSK_XREC_LAYER_RECONCILED
360
332D
  0
DICTIONARY
  5
332E
330
2C7
100
AcDbDictionary
280
     1
281
     1
  3
ADSK_XREC_LAYER_RECONCILED
360
332F
  0
DICTIONARY
  5
3330
330
2C8
100
AcDbDictionary
280
     1
281
     1
  3
ADSK_XREC_LAYER_RECONCILED
360
3331
  0
DICTIONARY
  5
3332
330
2C9
100
AcDbDictionary
280
     1
281
     1
  3
ADSK_XREC_LAYER_RECONCILED
360
3333
  0
DICTIONARY
  5
3334
330
5A5
100
AcDbDictionary
280
     1
281
     1
  3
ADSK_XREC_LAYER_RECONCILED
360
3335
  0
DICTIONARY
  5
3336
330
782
100
AcDbDictionary
280
     1
281
     1
  3
ADSK_XREC_LAYER_RECONCILED
360
3337
  0
DICTIONARY
  5
3338
330
D32
100
AcDbDictionary
280
     1
281
     1
  3
ADSK_XREC_LAYER_RECONCILED
360
3339
  0
DICTIONARY
  5
333A
330
D7F
100
AcDbDictionary
280
     1
281
     1
  3
ADSK_XREC_LAYER_RECONCILED
360
333B
  0
DICTIONARY
  5
333C
330
15F9
100
AcDbDictionary
280
     1
281
     1
  3
ADSK_XREC_LAYER_RECONCILED
360
333D
  0
DICTIONARY
  5
333E
330
15FA
100
AcDbDictionary
280
     1
281
     1
  3
ADSK_XREC_LAYER_RECONCILED
360
333F
  0
DICTIONARY
  5
3340
330
15FB
100
AcDbDictionary
280
     1
281
     1
  3
ADSK_XREC_LAYER_RECONCILED
360
3341
  0
DICTIONARY
  5
3342
330
15FC
100
AcDbDictionary
280
     1
281
     1
  3
ADSK_XREC_LAYER_RECONCILED
360
3343
  0
DICTIONARY
  5
3344
330
15FD
100
AcDbDictionary
280
     1
281
     1
  3
ADSK_XREC_LAYER_RECONCILED
360
3345
  0
DICTIONARY
  5
C9
330
1F
100
AcDbDictionary
280
     1
281
     1
  3
ACAD_SORTENTS
360
248D
  0
DICTIONARY
  5
22F5
330
22C4
100
AcDbDictionary
280
     1
281
     1
  0
DICTIONARY
  5
431D
330
4315
100
AcDbDictionary
280
     1
281
     1
  3
ACAD_SORTENTS
360
431E
  0
DICTIONARY
  5
447E
102
{ACAD_REACTORS
330
C
102
}
330
C
100
AcDbDictionary
281
     1
  3
DIMARCSYM
350
447F
  0
DICTIONARY
  5
1FD5
102
{ACAD_REACTORS
330
C
102
}
330
C
100
AcDbDictionary
281
     1
  0
DICTIONARY
  5
D
102
{ACAD_REACTORS
330
C
102
}
330
C
100
AcDbDictionary
281
     1
  0
DICTIONARY
  5
1A
102
{ACAD_REACTORS
330
C
102
}
330
C
100
AcDbDictionary
281
     1
  3
Model
350
22
  3
ﾚｲｱｳﾄ1
350
1E
  3
ﾚｲｱｳﾄ2
350
26
  0
DICTIONARY
  5
1FD4
102
{ACAD_REACTORS
330
C
102
}
330
C
100
AcDbDictionary
281
     1
  3
ByBlock
350
22BE
  3
ByLayer
350
22C1
  3
Global
350
2087
  0
DICTIONARY
  5
28E1
102
{ACAD_REACTORS
330
C
102
}
330
C
100
AcDbDictionary
281
     1
  3
Standard
350
28E2
  0
DICTIONARY
  5
17
102
{ACAD_REACTORS
330
C
102
}
330
C
100
AcDbDictionary
281
     1
  3
Standard
350
18
  0
DICTIONARY
  5
19
102
{ACAD_REACTORS
330
C
102
}
330
C
100
AcDbDictionary
281
     1
  0
ACDBDICTIONARYWDFLT
  5
E
102
{ACAD_REACTORS
330
C
102
}
330
C
100
AcDbDictionary
281
     1
  3
Normal
350
F
100
AcDbDictionaryWithDefault
340
F
  0
DICTIONARY
  5
28CF
102
{ACAD_REACTORS
330
C
102
}
330
C
100
AcDbDictionary
281
     1
  3
A0
350
28D0
  3
A1
350
28D1
  3
A2
350
28D2
  3
A3
350
28D3
  3
A4
350
28D4
  3
A5
350
28D5
  3
A6
350
28D6
  3
A7
350
28D7
  3
A8
350
28D8
  3
A9
350
28D9
  3
B0
350
28DA
  3
B1
350
28DB
  3
B2
350
28DC
  3
B3
350
28DD
  3
B4
350
28DE
  3
B5
350
28DF
  3
B6
350
28E0
  0
DICTIONARY
  5
23D3
102
{ACAD_REACTORS
330
C
102
}
330
C
100
AcDbDictionary
281
     1
  3
Standard
350
23D4
  0
DICTIONARY
  5
23C2
102
{ACAD_REACTORS
330
C
102
}
330
C
100
AcDbDictionary
281
     1
  3
2dWireframe
350
23C8
  3
3D Hidden
350
23CA
  3
3dWireframe
350
23C9
  3
Basic
350
23C7
  3
Brighten
350
23CE
  3
ColorChange
350
23D2
  3
Conceptual
350
23CB
  3
Dim
350
23CD
  3
EdgeColorOff
350
28CE
  3
Facepattern
350
23D1
  3
Flat
350
23C3
  3
FlatWithEdges
350
23C4
  3
Gouraud
350
23C5
  3
GouraudWithEdges
350
23C6
  3
Hidden
350
28C6
  3
JitterOff
350
28CC
  3
Linepattern
350
23D0
  3
OverhangOff
350
28CD
  3
Realistic
350
23CC
  3
Shaded
350
28CB
  3
Shaded with edges
350
28CA
  3
Shades of Gray
350
28C7
  3
Sketchy
350
28C8
  3
Thicken
350
23CF
  3
Wireframe
350
28C5
  3
X-Ray
350
28C9
  0
XRECORD
  5
447C
102
{ACAD_REACTORS
330
C
102
}
330
C
100
AcDbXrecord
280
     1
 90
        1
330
23D4
330
3B26
  0
DICTIONARY
  5
34
102
{ACAD_REACTORS
330
C
102
}
330
C
100
AcDbDictionary
281
     1
  3
CANNOSCALE
350
339C
  3
CMLEADERSTYLE
350
339B
  3
CTABLESTYLE
350
2443
  3
DIMASSOC
350
447A
  3
INDEXCTL
350
35
  3
SORTENTS
350
4478
  3
XCLIPFRAME
350
4479
  0
DICTIONARY
  5
43
102
{ACAD_REACTORS
330
C
102
}
330
C
100
AcDbDictionary
281
     1
  3
AcmBOM
350
1553
  3
AcmStdDictionary
350
15F
  3
AMDTSECTSYM_ARROWCOLOR
350
23F4
  0
DICTIONARY
  5
2B
102
{ACAD_REACTORS
330
C
102
}
330
C
100
AcDbDictionary
281
     1
  0
DICTIONARY
  5
74
102
{ACAD_REACTORS
330
C
102
}
330
C
100
AcDbDictionary
281
     1
  0
XRECORD
  5
447D
102
{ACAD_REACTORS
330
C
102
}
330
C
100
AcDbXrecord
280
     1
  1
DWGPROPS COOKIE
  2

  3

  4

  6

  7

  8
user
  9

300
AmdtFileType=84
301
=
302
=
303
=
304
=
305
=
306
=
307
=
308
=
309
=
 40
0.3334359375
 41
2453060.746216852
 42
2456104.629109329
  1

 90
        1
  0
DICTIONARY
  5
2E80
102
{ACAD_REACTORS
330
2E7F
102
}
330
2E7F
100
AcDbDictionary
281
     1
  0
XRECORD
  5
3323
102
{ACAD_REACTORS
330
3322
102
}
330
3322
100
AcDbXrecord
280
     1
290
     1
  0
XRECORD
  5
3325
102
{ACAD_REACTORS
330
3324
102
}
330
3324
100
AcDbXrecord
280
     1
290
     1
  0
XRECORD
  5
3327
102
{ACAD_REACTORS
330
3326
102
}
330
3326
100
AcDbXrecord
280
     1
290
     1
  0
XRECORD
  5
3329
102
{ACAD_REACTORS
330
3328
102
}
330
3328
100
AcDbXrecord
280
     1
290
     1
  0
XRECORD
  5
332B
102
{ACAD_REACTORS
330
332A
102
}
330
332A
100
AcDbXrecord
280
     1
290
     1
  0
XRECORD
  5
332D
102
{ACAD_REACTORS
330
332C
102
}
330
332C
100
AcDbXrecord
280
     1
290
     1
  0
XRECORD
  5
332F
102
{ACAD_REACTORS
330
332E
102
}
330
332E
100
AcDbXrecord
280
     1
290
     1
  0
XRECORD
  5
3331
102
{ACAD_REACTORS
330
3330
102
}
330
3330
100
AcDbXrecord
280
     1
290
     1
  0
XRECORD
  5
3333
102
{ACAD_REACTORS
330
3332
102
}
330
3332
100
AcDbXrecord
280
     1
290
     1
  0
XRECORD
  5
3335
102
{ACAD_REACTORS
330
3334
102
}
330
3334
100
AcDbXrecord
280
     1
290
     1
  0
XRECORD
  5
3337
102
{ACAD_REACTORS
330
3336
102
}
330
3336
100
AcDbXrecord
280
     1
290
     1
  0
XRECORD
  5
3339
102
{ACAD_REACTORS
330
3338
102
}
330
3338
100
AcDbXrecord
280
     1
290
     1
  0
XRECORD
  5
333B
102
{ACAD_REACTORS
330
333A
102
}
330
333A
100
AcDbXrecord
280
     1
290
     1
  0
XRECORD
  5
333D
102
{ACAD_REACTORS
330
333C
102
}
330
333C
100
AcDbXrecord
280
     1
290
     1
  0
XRECORD
  5
333F
102
{ACAD_REACTORS
330
333E
102
}
330
333E
100
AcDbXrecord
280
     1
290
     1
  0
XRECORD
  5
3341
102
{ACAD_REACTORS
330
3340
102
}
330
3340
100
AcDbXrecord
280
     1
290
     1
  0
XRECORD
  5
3343
102
{ACAD_REACTORS
330
3342
102
}
330
3342
100
AcDbXrecord
280
     1
290
     1
  0
XRECORD
  5
3345
102
{ACAD_REACTORS
330
3344
102
}
330
3344
100
AcDbXrecord
280
     1
290
     1
  0
SORTENTSTABLE
  5
248D
102
{ACAD_REACTORS
330
C9
102
}
330
C9
100
AcDbSortentsTable
330
1F
331
3AEA
  5
3AF0
331
3B29
  5
3B33
331
3BC0
  5
3BCA
331
3AF2
  5
3AF8
331
3B31
  5
3B3B
331
3BC8
  5
3BD2
331
3AFA
  5
3B00
331
3B39
  5
3B43
331
3BD0
  5
3BDA
331
3CAF
  5
3B0E
331
3B02
  5
3B08
331
3BD8
  5
3BE3
331
C8D
  5
217B
331
2179
  5
218B
331
2181
  5
2193
331
259C
  5
25BA
331
3087
  5
30D2
331
2189
  5
2222
331
308F
  5
30DA
331
2191
  5
2231
331
25AC
  5
29DF
331
3B0A
  5
3B13
331
3B41
  5
3B80
331
3BE0
  5
3BEB
331
3B12
  5
3B1C
331
3CB7
  5
3EF1
331
3B1A
  5
3B24
331
3B22
  5
3B2C
331
3BB9
  5
3BC3
331
2170
  5
2182
331
34ED
  5
3AE6
331
3B2A
  5
3B34
331
3BC1
  5
3BCB
331
3AF3
  5
3AF9
331
3B32
  5
3B3C
331
3BC9
  5
3BD3
331
3AFB
  5
3B01
331
3B3A
  5
3B44
331
3BD1
  5
3BDB
331
3B03
  5
3B09
331
3BD9
  5
3BE4
331
C86
  5
156D
331
217A
  5
218C
331
2182
  5
2194
331
259D
  5
25BB
331
3088
  5
30D3
331
218A
  5
2223
331
3090
  5
30DB
331
2192
  5
22A5
331
3B0B
  5
3B14
331
3B42
  5
3B81
331
3CB0
  5
3B0D
331
3B13
  5
3B1D
331
3B1B
  5
3B25
331
3FA7
  5
3FC3
331
3B23
  5
3B2D
331
3BBA
  5
3BC4
331
3FAF
  5
3FA7
331
2171
  5
2183
331
34F6
  5
29E3
331
3B2B
  5
3B35
331
3BC2
  5
3BCC
331
3AF4
  5
3AFA
331
3B33
  5
3B3D
331
3BCA
  5
3BD4
331
3FBF
  5
3FBF
331
3AFC
  5
3B02
331
3B3B
  5
3B45
331
3BD2
  5
3BDC
331
3B04
  5
3B0A
331
3BDA
  5
3BE5
331
C7F
  5
CAE
331
C87
  5
158A
331
217B
  5
218D
331
2183
  5
2195
331
259E
  5
25BD
331
3081
  5
3094
331
218B
  5
2226
331
3089
  5
30D4
331
3B0C
  5
3B15
331
3B43
  5
3B82
331
3CB1
  5
3B18
331
2193
  5
22A7
331
3091
  5
30DC
331
3B14
  5
3B1E
331
3B1C
  5
3B26
331
3AE5
  5
3AEB
331
3B24
  5
3B2E
331
3BBB
  5
3BC5
331
216A
  5
217C
331
2172
  5
2184
331
3AED
  5
3AF3
331
3B2C
  5
3B36
331
3BC3
  5
3BCD
331
34F7
  5
29E0
331
3AF5
  5
3AFB
331
3B34
  5
3B3E
331
3BCB
  5
3BD5
331
3FC8
  5
3FCC
331
3AFD
  5
3B03
331
3B3C
  5
3B46
331
3BD3
  5
3BDD
331
3B05
  5
3B0C
331
3BDB
  5
3BE6
331
C80
  5
10EF
331
C88
  5
1593
331
217C
  5
218E
331
2184
  5
2196
331
3082
  5
3095
331
218C
  5
2227
331
25A7
  5
25C1
331
308A
  5
30D5
331
3B0D
  5
3B16
331
3B44
  5
3B83
331
3CB2
  5
3B0B
331
2194
  5
22AC
331
3092
  5
34F8
331
3B15
  5
3B1F
331
3B1D
  5
3B27
331
3B25
  5
3B2F
331
3BBC
  5
3BC6
331
216B
  5
217D
331
2173
  5
2185
331
3B2D
  5
3B37
331
3BC4
  5
3BCE
331
3FB9
  5
3FAF
331
34F8
  5
3AE7
331
395D
  5
3AE9
331
3AF6
  5
3AFC
331
3B35
  5
3B3F
331
3BCC
  5
3BD6
331
3FC9
  5
3FCB
331
3AFE
  5
3B04
331
3B3D
  5
3B47
331
3BD4
  5
3BDE
331
3B06
  5
3B0F
331
3BDC
  5
3BE7
331
C81
  5
12B5
331
C89
  5
2177
331
217D
  5
218F
331
3083
  5
3096
331
2185
  5
2197
331
25A0
  5
25BE
331
308B
  5
30D6
331
218D
  5
2229
331
25A8
  5
25C2
331
3093
  5
34F9
331
2195
  5
22AE
331
3B0E
  5
3B17
331
3B45
  5
3B84
331
3C0C
  5
3CB4
331
3B16
  5
3B20
331
3B1E
  5
3B28
331
3BBD
  5
3BC7
331
3B26
  5
3B30
331
412
  5
C7A
331
52A
  5
C7B
331
216C
  5
217E
331
2174
  5
2186
331
3BC5
  5
3BCF
331
34F9
  5
3AE8
331
395E
  5
3AEA
331
3AEF
  5
3AF5
331
3B2E
  5
3B38
331
3BCD
  5
3BD7
331
3AF7
  5
3AFD
331
3B36
  5
3B40
331
3CAC
  5
3CB6
331
3BD5
  5
3BDF
331
3AFF
  5
3B05
331
3B3E
  5
3B7D
331
3FCA
  5
3FC9
331
3B07
  5
3B10
331
C82
  5
133D
331
C8A
  5
2178
331
217E
  5
2190
331
3084
  5
3097
331
2186
  5
2198
331
25A1
  5
25BF
331
308C
  5
30D7
331
218E
  5
222A
331
3B46
  5
3B85
331
3094
  5
34FA
331
2196
  5
22AF
331
3B0F
  5
3B19
331
3CB4
  5
3CB9
331
3B17
  5
3B21
331
3C0D
  5
3CB5
331
3B1F
  5
3B29
331
3B27
  5
3B31
331
3BBE
  5
3BC8
331
216D
  5
217F
331
2175
  5
2187
331
3AF0
  5
3AF6
331
3B2F
  5
3B39
331
3AF8
  5
3AFE
331
3B37
  5
3B41
331
3BCE
  5
3BD8
331
3FC3
  5
3FB9
331
3CAD
  5
3CB7
331
3B3F
  5
3B7E
331
3B00
  5
3B06
331
3BD6
  5
3BE0
331
3FCB
  5
3FC8
331
3BDE
  5
3BE9
331
C83
  5
1487
331
C8B
  5
2179
331
217F
  5
2191
331
3085
  5
309E
331
2187
  5
2199
331
25A2
  5
25C0
331
308D
  5
30D8
331
218F
  5
222B
331
25AA
  5
25C3
331
3B08
  5
3B11
331
3B47
  5
3B86
331
3095
  5
34FB
331
25B2
  5
29E1
331
3B10
  5
3B1A
331
3CB5
  5
3CBA
331
3B18
  5
3B22
331
3B20
  5
3B2A
331
3BB7
  5
3BC1
331
3BBF
  5
3BC9
331
216E
  5
2180
331
2176
  5
2188
331
34EB
  5
3AE5
331
3B28
  5
3B32
331
3AF1
  5
3AF7
331
3B30
  5
3B3A
331
3BC7
  5
3BD1
331
3AF9
  5
3AFF
331
3B38
  5
3B42
331
3BCF
  5
3BD9
331
3CAE
  5
3CB8
331
3B01
  5
3B07
331
3BD7
  5
3BE2
331
3FCC
  5
3FCA
331
3BDF
  5
3BEA
331
C84
  5
14D9
331
2178
  5
218A
331
2180
  5
2192
331
3086
  5
30D1
331
2188
  5
219A
331
308E
  5
30D9
331
2190
  5
222C
331
25AB
  5
29D0
331
3B09
  5
3B12
331
3B40
  5
3B7F
331
3096
  5
395D
331
25B3
  5
29E2
331
3B11
  5
3B1B
331
3CB6
  5
3CBB
331
3B19
  5
3B23
331
3B21
  5
3B2B
331
3BB8
  5
3BC2
331
216F
  5
2181
331
2177
  5
2189
  0
SORTENTSTABLE
  5
431E
102
{ACAD_REACTORS
330
431D
102
}
330
431D
100
AcDbSortentsTable
330
4315
  0
XRECORD
  5
447F
102
{ACAD_REACTORS
330
447E
102
}
330
447E
100
AcDbXrecord
280
     1
 70
     1
  0
LAYOUT
  5
22
102
{ACAD_XDICTIONARY
360
334D
102
}
102
{ACAD_REACTORS
330
1A
102
}
330
1A
100
AcDbPlotSettings
  1

  2
RICOH imagio MP 5000 RPCS
  4
A3
  6
AM_VIEW1
 40
5.873749732971191
 41
5.873747825622558
 42
5.873748779296875
 43
5.873748779296875
 44
296.9259948730469
 45
419.9466552734374
 46
-5.910751819610652
 47
-5.921849237169567
 48
0.0
 49
0.0
140
0.0
141
0.0
142
1.0
143
0.5
 70
 11956
 72
     1
 73
     1
 74
     2
  7
IMAGIO.ctb
 75
    27
147
2.0
148
-111.9519891780935
149
-253.7721357807053
100
AcDbLayout
  1
Model
 70
     1
 71
     0
 10
0.0
 20
0.0
 11
12.0
 21
9.0
 12
0.0
 22
0.0
 32
0.0
 14
0.0
 24
0.0
 34
0.0
 15
0.0
 25
0.0
 35
0.0
146
0.0
 13
0.0
 23
0.0
 33
0.0
 16
1.0
 26
0.0
 36
0.0
 17
0.0
 27
1.0
 37
0.0
 76
     0
330
1F
331
23C0
1001
ACAD_PSEXT
1000
RICOH imagio MP 5000 RPCS
1000
RICOH imagio MP 5000 RPCS
1000
IP_192.168.1.151
1000
RPCS Driver (Windows 2000/XP/Server 2003/Vista)
1070
     0
  0
LAYOUT
  5
1E
102
{ACAD_XDICTIONARY
360
4480
102
}
102
{ACAD_REACTORS
330
1A
102
}
330
1A
100
AcDbPlotSettings
  1

  2
MF2730
  4

  6

 40
0.0
 41
0.0
 42
0.0
 43
0.0
 44
0.0
 45
0.0
 46
0.0
 47
0.0
 48
0.0
 49
0.0
140
0.0
141
0.0
142
1.0
143
1.0
 70
   688
 72
     0
 73
     0
 74
     5
  7
IMAGIO.ctb
 75
    16
147
1.0
148
0.0
149
0.0
100
AcDbLayout
  1
ﾚｲｱｳﾄ1
 70
     1
 71
     1
 10
0.0
 20
0.0
 11
420.0
 21
297.0
 12
0.0
 22
0.0
 32
0.0
 14
1.000000000000000E+20
 24
1.000000000000000E+20
 34
1.000000000000000E+20
 15
-1.000000000000000E+20
 25
-1.000000000000000E+20
 35
-1.000000000000000E+20
146
0.0
 13
0.0
 23
0.0
 33
0.0
 16
1.0
 26
0.0
 36
0.0
 17
0.0
 27
1.0
 37
0.0
 76
     0
330
1B
  0
LAYOUT
  5
26
102
{ACAD_XDICTIONARY
360
4483
102
}
102
{ACAD_REACTORS
330
1A
102
}
330
1A
100
AcDbPlotSettings
  1

  2
MF2730
  4

  6

 40
0.0
 41
0.0
 42
0.0
 43
0.0
 44
0.0
 45
0.0
 46
0.0
 47
0.0
 48
0.0
 49
0.0
140
0.0
141
0.0
142
1.0
143
1.0
 70
   688
 72
     0
 73
     0
 74
     5
  7
IMAGIO.ctb
 75
    16
147
1.0
148
0.0
149
0.0
100
AcDbLayout
  1
ﾚｲｱｳﾄ2
 70
     1
 71
     2
 10
0.0
 20
0.0
 11
12.0
 21
9.0
 12
0.0
 22
0.0
 32
0.0
 14
0.0
 24
0.0
 34
0.0
 15
0.0
 25
0.0
 35
0.0
146
0.0
 13
0.0
 23
0.0
 33
0.0
 16
1.0
 26
0.0
 36
0.0
 17
0.0
 27
1.0
 37
0.0
 76
     0
330
23
  0
MATERIAL
  5
22BE
102
{ACAD_XDICTIONARY
360
4487
102
}
102
{ACAD_REACTORS
330
1FD4
102
}
330
1FD4
100
AcDbMaterial
  1
ByBlock
 73
     1
 78
     1
172
     1
176
     1
270
     1
274
     1
  0
MATERIAL
  5
22C1
102
{ACAD_XDICTIONARY
360
4489
102
}
102
{ACAD_REACTORS
330
1FD4
102
}
330
1FD4
100
AcDbMaterial
  1
ByLayer
 73
     1
 78
     1
172
     1
176
     1
270
     1
274
     1
  0
MATERIAL
  5
2087
102
{ACAD_XDICTIONARY
360
4485
102
}
102
{ACAD_REACTORS
330
1FD4
102
}
330
1FD4
100
AcDbMaterial
  1
Global
 73
     1
 78
     1
172
     1
176
     1
270
     1
274
     1
  0
MLEADERSTYLE
  5
28E2
102
{ACAD_REACTORS
330
28E1
102
}
330
28E1
100
AcDbMLeaderStyle
170
     2
171
     1
172
     0
 90
        2
 40
0.0
 41
0.0
173
     1
 91
-1056964608
340
14
 92
       -2
290
     1
 42
2.0
291
     1
 43
0.36
  3
Standard
 44
4.0
300

342
11
174
     1
178
     6
175
     1
176
     0
 93
-1056964608
 45
4.0
292
     0
297
     0
 46
4.0
 94
-1056964608
 47
1.0
 49
1.0
140
1.0
293
     1
141
0.0
294
     1
177
     0
142
1.0
295
     0
296
     0
143
0.125
1001
ACAD_MLEADERVER
1070
     2
  0
MLINESTYLE
  5
18
102
{ACAD_REACTORS
330
17
102
}
330
17
100
AcDbMlineStyle
  2
STANDARD
 70
     0
  3

 62
   256
 51
90.0
 52
90.0
 71
     2
 49
0.5
 62
   256
  6
BYLAYER
 49
-0.5
 62
   256
  6
BYLAYER
  0
ACDBPLACEHOLDER
  5
F
102
{ACAD_REACTORS
330
E
102
}
330
E
  0
SCALE
  5
28D0
102
{ACAD_REACTORS
330
28CF
102
}
330
28CF
100
AcDbScale
 70
     0
300
1:1
140
1.0
141
1.0
290
     1
  0
SCALE
  5
28D1
102
{ACAD_REACTORS
330
28CF
102
}
330
28CF
100
AcDbScale
 70
     0
300
1:2
140
1.0
141
2.0
290
     0
  0
SCALE
  5
28D2
102
{ACAD_REACTORS
330
28CF
102
}
330
28CF
100
AcDbScale
 70
     0
300
1:4
140
1.0
141
4.0
290
     0
  0
SCALE
  5
28D3
102
{ACAD_REACTORS
330
28CF
102
}
330
28CF
100
AcDbScale
 70
     0
300
1:5
140
1.0
141
5.0
290
     0
  0
SCALE
  5
28D4
102
{ACAD_REACTORS
330
28CF
102
}
330
28CF
100
AcDbScale
 70
     0
300
1:8
140
1.0
141
8.0
290
     0
  0
SCALE
  5
28D5
102
{ACAD_REACTORS
330
28CF
102
}
330
28CF
100
AcDbScale
 70
     0
300
1:10
140
1.0
141
10.0
290
     0
  0
SCALE
  5
28D6
102
{ACAD_REACTORS
330
28CF
102
}
330
28CF
100
AcDbScale
 70
     0
300
1:16
140
1.0
141
16.0
290
     0
  0
SCALE
  5
28D7
102
{ACAD_REACTORS
330
28CF
102
}
330
28CF
100
AcDbScale
 70
     0
300
1:20
140
1.0
141
20.0
290
     0
  0
SCALE
  5
28D8
102
{ACAD_REACTORS
330
28CF
102
}
330
28CF
100
AcDbScale
 70
     0
300
1:30
140
1.0
141
30.0
290
     0
  0
SCALE
  5
28D9
102
{ACAD_REACTORS
330
28CF
102
}
330
28CF
100
AcDbScale
 70
     0
300
1:40
140
1.0
141
40.0
290
     0
  0
SCALE
  5
28DA
102
{ACAD_REACTORS
330
28CF
102
}
330
28CF
100
AcDbScale
 70
     0
300
1:50
140
1.0
141
50.0
290
     0
  0
SCALE
  5
28DB
102
{ACAD_REACTORS
330
28CF
102
}
330
28CF
100
AcDbScale
 70
     0
300
1:100
140
1.0
141
100.0
290
     0
  0
SCALE
  5
28DC
102
{ACAD_REACTORS
330
28CF
102
}
330
28CF
100
AcDbScale
 70
     0
300
2:1
140
2.0
141
1.0
290
     0
  0
SCALE
  5
28DD
102
{ACAD_REACTORS
330
28CF
102
}
330
28CF
100
AcDbScale
 70
     0
300
4:1
140
4.0
141
1.0
290
     0
  0
SCALE
  5
28DE
102
{ACAD_REACTORS
330
28CF
102
}
330
28CF
100
AcDbScale
 70
     0
300
8:1
140
8.0
141
1.0
290
     0
  0
SCALE
  5
28DF
102
{ACAD_REACTORS
330
28CF
102
}
330
28CF
100
AcDbScale
 70
     0
300
10:1
140
10.0
141
1.0
290
     0
  0
SCALE
  5
28E0
102
{ACAD_REACTORS
330
28CF
102
}
330
28CF
100
AcDbScale
 70
     0
300
100:1
140
100.0
141
1.0
290
     0
  0
TABLESTYLE
  5
23D4
102
{ACAD_XDICTIONARY
360
334F
102
}
102
{ACAD_REACTORS
330
23D3
102
}
330
23D3
100
AcDbTableStyle
  3
Standard
 70
     0
 71
     0
 40
1.5
 41
1.5
280
     0
281
     0
  7
STANDARD
140
4.5
170
     2
 62
     0
 63
     7
283
     0
274
    -2
284
     1
 64
     0
275
    -2
285
     1
 65
     0
276
    -2
286
     1
 66
     0
277
    -2
287
     1
 67
     0
278
    -2
288
     1
 68
     0
279
    -2
289
     1
 69
     0
  7
STANDARD
140
6.0
170
     5
 62
     0
 63
     7
283
     0
274
    -2
284
     1
 64
     0
275
    -2
285
     1
 65
     0
276
    -2
286
     1
 66
     0
277
    -2
287
     1
 67
     0
278
    -2
288
     1
 68
     0
279
    -2
289
     1
 69
     0
  7
STANDARD
140
4.5
170
     5
 62
     0
 63
     7
283
     0
274
    -2
284
     1
 64
     0
275
    -2
285
     1
 65
     0
276
    -2
286
     1
 66
     0
277
    -2
287
     1
 67
     0
278
    -2
288
     1
 68
     0
279
    -2
289
     1
 69
     0
  0
VISUALSTYLE
  5
23C8
102
{ACAD_XDICTIONARY
360
4495
102
}
102
{ACAD_REACTORS
330
23C2
102
}
330
23C2
100
AcDbVisualStyle
  2
2dWireframe
 70
     4
 71
     0
 72
     2
 73
     0
 90
        0
 40
-0.6
 41
-30.0
 62
     5
 63
     7
 74
     1
 91
        4
 64
     7
 65
   257
 75
     1
175
     1
 42
1.0
 92
        0
 66
   257
 43
1.0
 76
     1
 77
     6
 78
     2
 67
     7
 79
     5
170
     0
171
     0
290
     0
174
     0
 93
        1
 44
0.0
173
     0
291
     0
 45
0.0
1001
ACAD
1000
AcDbSavedByObjectVersion
1070
     0
  0
VISUALSTYLE
  5
23CA
102
{ACAD_XDICTIONARY
360
4499
102
}
102
{ACAD_REACTORS
330
23C2
102
}
330
23C2
100
AcDbVisualStyle
  2
3D Hidden
 70
     6
 71
     1
 72
     2
 73
     2
 90
        0
 40
-0.6
 41
-30.0
 62
     5
 63
     7
 74
     2
 91
        2
 64
     7
 65
   257
 75
     2
175
     1
 42
40.0
 92
        0
 66
   257
 43
1.0
 76
     1
 77
     6
 78
     2
 67
     7
 79
     3
170
     0
171
     0
290
     0
174
     0
 93
        1
 44
0.0
173
     0
291
     0
 45
0.0
1001
ACAD
1000
AcDbSavedByObjectVersion
1070
     0
  0
VISUALSTYLE
  5
23C9
102
{ACAD_XDICTIONARY
360
4497
102
}
102
{ACAD_REACTORS
330
23C2
102
}
330
23C2
100
AcDbVisualStyle
  2
3dWireframe
 70
     5
 71
     0
 72
     2
 73
     0
 90
        0
 40
-0.6
 41
-30.0
 62
     5
 63
     7
 74
     1
 91
        4
 64
     7
 65
   257
 75
     1
175
     1
 42
1.0
 92
        0
 66
   257
 43
1.0
 76
     1
 77
     6
 78
     2
 67
     7
 79
     5
170
     0
171
     0
290
     0
174
     0
 93
        1
 44
0.0
173
     0
291
     0
 45
0.0
1001
ACAD
1000
AcDbSavedByObjectVersion
1070
     0
  0
VISUALSTYLE
  5
23C7
102
{ACAD_XDICTIONARY
360
4493
102
}
102
{ACAD_REACTORS
330
23C2
102
}
330
23C2
100
AcDbVisualStyle
  2
Basic
 70
     7
 71
     1
 72
     0
 73
     1
 90
        0
 40
-0.6
 41
-30.0
 62
     5
 63
     7
 74
     0
 91
        4
 64
     7
 65
   257
 75
     1
175
     1
 42
1.0
 92
        8
 66
     7
 43
1.0
 76
     1
 77
     6
 78
     2
 67
     7
 79
     5
170
     0
171
     0
290
     0
174
     0
 93
        1
 44
0.0
173
     0
291
     1
 45
0.0
1001
ACAD
1000
AcDbSavedByObjectVersion
1070
     0
  0
VISUALSTYLE
  5
23CE
102
{ACAD_XDICTIONARY
360
44A1
102
}
102
{ACAD_REACTORS
330
23C2
102
}
330
23C2
100
AcDbVisualStyle
  2
Brighten
 70
    12
 71
     2
 72
     2
 73
     0
 90
        0
 40
-0.6
 41
-30.0
 62
     5
 63
     7
 74
     1
 91
        4
 64
     7
 65
   257
 75
     1
175
     1
 42
1.0
 92
        8
 66
     7
 43
1.0
 76
     1
 77
     6
 78
     2
 67
     7
 79
     5
170
     0
171
     0
290
     0
174
     0
 93
        1
 44
50.0
173
     0
291
     1
 45
0.0
1001
ACAD
1000
AcDbSavedByObjectVersion
1070
     0
  0
VISUALSTYLE
  5
23D2
102
{ACAD_XDICTIONARY
360
44A9
102
}
102
{ACAD_REACTORS
330
23C2
102
}
330
23C2
100
AcDbVisualStyle
  2
ColorChange
 70
    16
 71
     2
 72
     2
 73
     3
 90
        0
 40
-0.6
 41
-30.0
 62
     5
 63
     8
 74
     1
 91
        4
 64
     7
 65
   257
 75
     1
175
     1
 42
1.0
 92
        8
 66
     8
 43
1.0
 76
     1
 77
     6
 78
     2
 67
     7
 79
     5
170
     0
171
     0
290
     0
174
     0
 93
        1
 44
0.0
173
     0
291
     1
 45
0.0
1001
ACAD
1000
AcDbSavedByObjectVersion
1070
     0
  0
VISUALSTYLE
  5
23CB
102
{ACAD_XDICTIONARY
360
449B
102
}
102
{ACAD_REACTORS
330
23C2
102
}
330
23C2
100
AcDbVisualStyle
  2
Conceptual
 70
     9
 71
     3
 72
     2
 73
     0
 90
        0
 40
-0.6
 41
-30.0
 62
     5
 63
     7
 74
     2
 91
        2
 64
     7
 65
   257
 75
     1
175
     1
 42
40.0
 92
        8
 66
     7
 43
1.0
 76
     1
 77
     6
 78
     2
 67
     7
 79
     3
170
     0
171
     0
290
     0
174
     0
 93
        1
 44
0.0
173
     0
291
     0
 45
0.0
1001
ACAD
1000
AcDbSavedByObjectVersion
1070
     0
  0
VISUALSTYLE
  5
23CD
102
{ACAD_XDICTIONARY
360
449F
102
}
102
{ACAD_REACTORS
330
23C2
102
}
330
23C2
100
AcDbVisualStyle
  2
Dim
 70
    11
 71
     2
 72
     2
 73
     0
 90
        0
 40
-0.6
 41
-30.0
 62
     5
 63
     7
 74
     1
 91
        4
 64
     7
 65
   257
 75
     1
175
     1
 42
1.0
 92
        8
 66
     7
 43
1.0
 76
     1
 77
     6
 78
     2
 67
     7
 79
     5
170
     0
171
     0
290
     0
174
     0
 93
        1
 44
-50.0
173
     0
291
     1
 45
0.0
1001
ACAD
1000
AcDbSavedByObjectVersion
1070
     0
  0
VISUALSTYLE
  5
28CE
102
{ACAD_XDICTIONARY
360
44BE
102
}
102
{ACAD_REACTORS
330
23C2
102
}
330
23C2
100
AcDbVisualStyle
  2
EdgeColorOff
 70
    22
 71
     2
 72
     2
 73
     0
 90
        0
 40
-0.6
 41
-30.0
 62
     5
 63
     7
 74
     1
 91
        4
 64
     7
 65
   257
 75
     1
175
     1
 42
1.0
 92
        8
 66
     7
 43
1.0
 76
     1
 77
     6
 78
     2
 67
     7
 79
     5
170
     0
171
     0
290
     0
174
     0
 93
        1
 44
0.0
173
     0
291
     1
 45
0.0
1001
ACAD
1000
AcDbSavedByObjectVersion
1070
     0
  0
VISUALSTYLE
  5
23D1
102
{ACAD_XDICTIONARY
360
44A7
102
}
102
{ACAD_REACTORS
330
23C2
102
}
330
23C2
100
AcDbVisualStyle
  2
Facepattern
 70
    15
 71
     2
 72
     2
 73
     0
 90
        0
 40
-0.6
 41
-30.0
 62
     5
 63
     7
 74
     1
 91
        4
 64
     7
 65
   257
 75
     1
175
     1
 42
1.0
 92
        8
 66
     7
 43
1.0
 76
     1
 77
     6
 78
     2
 67
     7
 79
     5
170
     0
171
     0
290
     0
174
     0
 93
        1
 44
0.0
173
     0
291
     1
 45
0.0
1001
ACAD
1000
AcDbSavedByObjectVersion
1070
     0
  0
VISUALSTYLE
  5
23C3
102
{ACAD_XDICTIONARY
360
448B
102
}
102
{ACAD_REACTORS
330
23C2
102
}
330
23C2
100
AcDbVisualStyle
  2
Flat
 70
     0
 71
     2
 72
     1
 73
     1
 90
        2
 40
-0.6
 41
30.0
 62
     5
 63
     7
 74
     0
 91
        4
 64
     7
 65
   257
 75
     1
175
     1
 42
1.0
 92
        8
 66
     7
 43
1.0
 76
     1
 77
     6
 78
     2
 67
     7
 79
     5
170
     0
171
     0
290
     0
174
     0
 93
       13
 44
0.0
173
     0
291
     1
 45
0.0
1001
ACAD
1000
AcDbSavedByObjectVersion
1070
     0
  0
VISUALSTYLE
  5
23C4
102
{ACAD_XDICTIONARY
360
448D
102
}
102
{ACAD_REACTORS
330
23C2
102
}
330
23C2
100
AcDbVisualStyle
  2
FlatWithEdges
 70
     1
 71
     2
 72
     1
 73
     1
 90
        2
 40
-0.6
 41
30.0
 62
     5
 63
     7
 74
     1
 91
        4
 64
     7
 65
   257
 75
     1
175
     1
 42
1.0
 92
        0
 66
   257
 43
1.0
 76
     1
 77
     6
 78
     2
 67
     7
 79
     5
170
     0
171
     0
290
     0
174
     0
 93
       13
 44
0.0
173
     0
291
     1
 45
0.0
1001
ACAD
1000
AcDbSavedByObjectVersion
1070
     0
  0
VISUALSTYLE
  5
23C5
102
{ACAD_XDICTIONARY
360
448F
102
}
102
{ACAD_REACTORS
330
23C2
102
}
330
23C2
100
AcDbVisualStyle
  2
Gouraud
 70
     2
 71
     2
 72
     2
 73
     1
 90
        2
 40
-0.6
 41
30.0
 62
     5
 63
     7
 74
     0
 91
        4
 64
     7
 65
   257
 75
     1
175
     1
 42
1.0
 92
        0
 66
     7
 43
1.0
 76
     1
 77
     6
 78
     2
 67
     7
 79
     5
170
     0
171
     0
290
     0
174
     0
 93
       13
 44
0.0
173
     0
291
     1
 45
0.0
1001
ACAD
1000
AcDbSavedByObjectVersion
1070
     0
  0
VISUALSTYLE
  5
23C6
102
{ACAD_XDICTIONARY
360
4491
102
}
102
{ACAD_REACTORS
330
23C2
102
}
330
23C2
100
AcDbVisualStyle
  2
GouraudWithEdges
 70
     3
 71
     2
 72
     2
 73
     1
 90
        2
 40
-0.6
 41
30.0
 62
     5
 63
     7
 74
     1
 91
        4
 64
     7
 65
   257
 75
     1
175
     1
 42
1.0
 92
        0
 66
   257
 43
1.0
 76
     1
 77
     6
 78
     2
 67
     7
 79
     5
170
     0
171
     0
290
     0
174
     0
 93
       13
 44
0.0
173
     0
291
     1
 45
0.0
1001
ACAD
1000
AcDbSavedByObjectVersion
1070
     0
  0
VISUALSTYLE
  5
28C6
102
{ACAD_XDICTIONARY
360
44AE
102
}
102
{ACAD_REACTORS
330
23C2
102
}
330
23C2
100
AcDbVisualStyle
  2
Hidden
 70
     6
 71
     1
 72
     2
 73
     2
 90
        0
 40
-0.6
 41
-30.0
 62
     5
 63
     7
 74
     2
 91
        2
 64
     7
 65
   257
 75
     2
175
     1
 42
40.0
 92
        0
 66
   257
 43
1.0
 76
     1
 77
     6
 78
     2
 67
     7
 79
     3
170
     0
171
     0
290
     0
174
     0
 93
        1
 44
0.0
173
     0
291
     0
 45
0.0
1001
ACAD
1000
AcDbSavedByObjectVersion
1070
     0
  0
VISUALSTYLE
  5
28CC
102
{ACAD_XDICTIONARY
360
44BA
102
}
102
{ACAD_REACTORS
330
23C2
102
}
330
23C2
100
AcDbVisualStyle
  2
JitterOff
 70
    20
 71
     2
 72
     2
 73
     0
 90
        0
 40
-0.6
 41
-30.0
 62
     5
 63
     7
 74
     1
 91
        4
 64
     7
 65
   257
 75
     1
175
     1
 42
1.0
 92
       10
 66
     7
 43
1.0
 76
     1
 77
     6
 78
     2
 67
     7
 79
     5
170
     0
171
     0
290
     0
174
     0
 93
        1
 44
0.0
173
     0
291
     1
 45
0.0
1001
ACAD
1000
AcDbSavedByObjectVersion
1070
     0
  0
VISUALSTYLE
  5
23D0
102
{ACAD_XDICTIONARY
360
44A5
102
}
102
{ACAD_REACTORS
330
23C2
102
}
330
23C2
100
AcDbVisualStyle
  2
Linepattern
 70
    14
 71
     2
 72
     2
 73
     0
 90
        0
 40
-0.6
 41
-30.0
 62
     5
 63
     7
 74
     1
 91
        4
 64
     7
 65
   257
 75
     7
175
     7
 42
1.0
 92
        8
 66
     7
 43
1.0
 76
     1
 77
     6
 78
     2
 67
     7
 79
     5
170
     0
171
     0
290
     0
174
     0
 93
        1
 44
0.0
173
     0
291
     1
 45
0.0
1001
ACAD
1000
AcDbSavedByObjectVersion
1070
     0
  0
VISUALSTYLE
  5
28CD
102
{ACAD_XDICTIONARY
360
44BC
102
}
102
{ACAD_REACTORS
330
23C2
102
}
330
23C2
100
AcDbVisualStyle
  2
OverhangOff
 70
    21
 71
     2
 72
     2
 73
     0
 90
        0
 40
-0.6
 41
-30.0
 62
     5
 63
     7
 74
     1
 91
        4
 64
     7
 65
   257
 75
     1
175
     1
 42
1.0
 92
        9
 66
     7
 43
1.0
 76
     1
 77
     6
 78
     2
 67
     7
 79
     5
170
     0
171
     0
290
     0
174
     0
 93
        1
 44
0.0
173
     0
291
     1
 45
0.0
1001
ACAD
1000
AcDbSavedByObjectVersion
1070
     0
  0
VISUALSTYLE
  5
23CC
102
{ACAD_XDICTIONARY
360
449D
102
}
102
{ACAD_REACTORS
330
23C2
102
}
330
23C2
100
AcDbVisualStyle
  2
Realistic
 70
     8
 71
     2
 72
     2
 73
     0
 90
        0
 40
-0.6
 41
-30.0
 62
     5
 63
     7
 74
     1
 91
        0
 64
     7
 65
   257
 75
     1
175
     1
 42
1.0
 92
        8
 66
     8
 43
1.0
 76
     1
 77
     6
 78
     2
 67
     7
 79
     5
170
     0
171
     0
290
     0
174
     0
 93
       13
 44
0.0
173
     0
291
     0
 45
0.0
1001
ACAD
1000
AcDbSavedByObjectVersion
1070
     0
  0
VISUALSTYLE
  5
28CB
102
{ACAD_XDICTIONARY
360
44B8
102
}
102
{ACAD_REACTORS
330
23C2
102
}
330
23C2
100
AcDbVisualStyle
  2
Shaded
 70
    27
 71
     2
 72
     2
 73
     1
 90
        2
 40
-0.6
 41
30.0
 62
     5
 63
     7
 74
     0
 91
        4
 64
     7
 65
   257
 75
     1
175
     1
 42
1.0
 92
        8
 66
   257
 43
1.0
 76
     1
 77
     6
 78
     2
 67
     8
 79
     3
170
     0
171
     0
290
     0
174
     0
 93
        5
 44
0.0
173
     0
291
     0
 45
0.0
1001
ACAD
1000
AcDbSavedByObjectVersion
1070
     0
  0
VISUALSTYLE
  5
28CA
102
{ACAD_XDICTIONARY
360
44B6
102
}
102
{ACAD_REACTORS
330
23C2
102
}
330
23C2
100
AcDbVisualStyle
  2
Shaded with edges
 70
    26
 71
     2
 72
     2
 73
     1
 90
        2
 40
-0.6
 41
30.0
 62
     5
 63
     7
 74
     1
 91
       10
 64
     7
 65
   257
 75
     2
175
     1
 42
1.0
 92
        8
 66
   257
 43
1.0
 76
     1
 77
     6
 78
     2
 67
     7
 79
     3
170
     0
171
     0
290
     0
174
     0
 93
        5
 44
0.0
173
     0
291
     0
 45
0.0
1001
ACAD
1000
AcDbSavedByObjectVersion
1070
     0
  0
VISUALSTYLE
  5
28C7
102
{ACAD_XDICTIONARY
360
44B0
102
}
102
{ACAD_REACTORS
330
23C2
102
}
330
23C2
100
AcDbVisualStyle
  2
Shades of Gray
 70
    23
 71
     2
 72
     2
 73
     3
 90
        0
 40
-0.6
 41
-30.0
 62
     5
 63
     7
 74
     2
 91
        2
 64
     7
 65
     7
 75
     1
175
     1
 42
40.0
 92
        8
 66
     7
 43
1.0
 76
     1
 77
     6
 78
     2
 67
     7
 79
     3
170
     0
171
     0
290
     0
174
     0
 93
        1
 44
0.0
173
     0
291
     0
 45
0.0
1001
ACAD
1000
AcDbSavedByObjectVersion
1070
     0
  0
VISUALSTYLE
  5
28C8
102
{ACAD_XDICTIONARY
360
44B2
102
}
102
{ACAD_REACTORS
330
23C2
102
}
330
23C2
100
AcDbVisualStyle
  2
Sketchy
 70
    24
 71
     1
 72
     2
 73
     2
 90
        0
 40
-0.6
 41
-30.0
 62
     5
 63
     7
 74
     2
 91
        2
 64
     7
 65
     7
 75
     1
175
     1
 42
40.0
 92
       11
 66
     7
 43
1.0
 76
     1
 77
     6
 78
     2
 67
     7
 79
     6
170
     0
171
     0
290
     0
174
     0
 93
        1
 44
0.0
173
     0
291
     0
 45
0.0
1001
ACAD
1000
AcDbSavedByObjectVersion
1070
     0
  0
VISUALSTYLE
  5
23CF
102
{ACAD_XDICTIONARY
360
44A3
102
}
102
{ACAD_REACTORS
330
23C2
102
}
330
23C2
100
AcDbVisualStyle
  2
Thicken
 70
    13
 71
     2
 72
     2
 73
     0
 90
        0
 40
-0.6
 41
-30.0
 62
     5
 63
     7
 74
     1
 91
        4
 64
     7
 65
   257
 75
     1
175
     1
 42
1.0
 92
       12
 66
     7
 43
1.0
 76
     1
 77
     6
 78
     2
 67
     7
 79
     5
170
     0
171
     0
290
     0
174
     0
 93
        1
 44
0.0
173
     0
291
     1
 45
0.0
1001
ACAD
1000
AcDbSavedByObjectVersion
1070
     0
  0
VISUALSTYLE
  5
28C5
102
{ACAD_XDICTIONARY
360
44AC
102
}
102
{ACAD_REACTORS
330
23C2
102
}
330
23C2
100
AcDbVisualStyle
  2
Wireframe
 70
     5
 71
     0
 72
     2
 73
     0
 90
        0
 40
-0.6
 41
-30.0
 62
     5
 63
     7
 74
     1
 91
        4
 64
     7
 65
   257
 75
     1
175
     1
 42
1.0
 92
        0
 66
   257
 43
1.0
 76
     1
 77
     6
 78
     2
 67
     7
 79
     3
170
     0
171
     0
290
     0
174
     0
 93
        1
 44
0.0
173
     0
291
     0
 45
0.0
1001
ACAD
1000
AcDbSavedByObjectVersion
1070
     0
  0
VISUALSTYLE
  5
28C9
102
{ACAD_XDICTIONARY
360
44B4
102
}
102
{ACAD_REACTORS
330
23C2
102
}
330
23C2
100
AcDbVisualStyle
  2
X-Ray
 70
    25
 71
     2
 72
     2
 73
     1
 90
        1
 40
0.5
 41
-30.0
 62
     5
 63
     7
 74
     1
 91
        0
 64
     7
 65
   257
 75
     1
175
     1
 42
1.0
 92
        8
 66
     7
 43
1.0
 76
     1
 77
     6
 78
     2
 67
     7
 79
     3
170
     0
171
     0
290
     0
174
     0
 93
       13
 44
0.0
173
     0
291
     0
 45
0.0
1001
ACAD
1000
AcDbSavedByObjectVersion
1070
     0
  0
DICTIONARYVAR
  5
339C
102
{ACAD_REACTORS
330
34
102
}
330
34
100
DictionaryVariables
280
     0
  1
1:1
  0
DICTIONARYVAR
  5
339B
102
{ACAD_REACTORS
330
34
102
}
330
34
100
DictionaryVariables
280
     0
  1
STANDARD
  0
DICTIONARYVAR
  5
2443
102
{ACAD_REACTORS
330
34
102
}
330
34
100
DictionaryVariables
280
     0
  1
STANDARD
  0
DICTIONARYVAR
  5
447A
102
{ACAD_REACTORS
330
34
102
}
330
34
100
DictionaryVariables
280
     0
  1
2
  0
DICTIONARYVAR
  5
35
102
{ACAD_REACTORS
330
34
102
}
330
34
100
DictionaryVariables
280
     0
  1
0
  0
DICTIONARYVAR
  5
4478
102
{ACAD_REACTORS
330
34
102
}
330
34
100
DictionaryVariables
280
     0
  1
127
  0
DICTIONARYVAR
  5
4479
102
{ACAD_REACTORS
330
34
102
}
330
34
100
DictionaryVariables
280
     0
  1
0
  0
DICTIONARY
  5
1553
102
{ACAD_REACTORS
330
43
102
}
330
43
100
AcDbDictionary
281
     1
  0
DICTIONARY
  5
15F
102
{ACAD_REACTORS
330
43
102
}
330
43
100
AcDbDictionary
281
     1
  0
XRECORD
  5
23F4
102
{ACAD_REACTORS
330
43
102
}
330
43
100
AcDbXrecord
280
     1
 90
-1023410169
  0
DICTIONARY
  5
334D
330
22
100
AcDbDictionary
280
     1
281
     1
  3
ACAD_XREC_ROUNDTRIP
360
4482
  3
ADSK_XREC_LAYOUTTHUMBNAIL
360
334E
  0
DICTIONARY
  5
4480
330
1E
100
AcDbDictionary
280
     1
281
     1
  3
ACAD_XREC_ROUNDTRIP
360
4481
  0
DICTIONARY
  5
4483
330
26
100
AcDbDictionary
280
     1
281
     1
  3
ACAD_XREC_ROUNDTRIP
360
4484
  0
DICTIONARY
  5
4487
330
22BE
100
AcDbDictionary
280
     1
281
     1
  3
ACAD_XREC_ROUNDTRIP
360
4488
  0
DICTIONARY
  5
4489
330
22C1
100
AcDbDictionary
280
     1
281
     1
  3
ACAD_XREC_ROUNDTRIP
360
448A
  0
DICTIONARY
  5
4485
330
2087
100
AcDbDictionary
280
     1
281
     1
  3
ACAD_XREC_ROUNDTRIP
360
4486
  0
DICTIONARY
  5
334F
330
23D4
100
AcDbDictionary
280
     1
281
     1
  3
ACAD_ROUNDTRIP_2008_TABLESTYLE_CELLSTYLEMAP
360
447B
  3
ACAD_XREC_ROUNDTRIP
360
44AB
  0
DICTIONARY
  5
4495
330
23C8
100
AcDbDictionary
280
     1
281
     1
  3
ACAD_XREC_ROUNDTRIP
360
4496
  0
DICTIONARY
  5
4499
330
23CA
100
AcDbDictionary
280
     1
281
     1
  3
ACAD_XREC_ROUNDTRIP
360
449A
  0
DICTIONARY
  5
4497
330
23C9
100
AcDbDictionary
280
     1
281
     1
  3
ACAD_XREC_ROUNDTRIP
360
4498
  0
DICTIONARY
  5
4493
330
23C7
100
AcDbDictionary
280
     1
281
     1
  3
ACAD_XREC_ROUNDTRIP
360
4494
  0
DICTIONARY
  5
44A1
330
23CE
100
AcDbDictionary
280
     1
281
     1
  3
ACAD_XREC_ROUNDTRIP
360
44A2
  0
DICTIONARY
  5
44A9
330
23D2
100
AcDbDictionary
280
     1
281
     1
  3
ACAD_XREC_ROUNDTRIP
360
44AA
  0
DICTIONARY
  5
449B
330
23CB
100
AcDbDictionary
280
     1
281
     1
  3
ACAD_XREC_ROUNDTRIP
360
449C
  0
DICTIONARY
  5
449F
330
23CD
100
AcDbDictionary
280
     1
281
     1
  3
ACAD_XREC_ROUNDTRIP
360
44A0
  0
DICTIONARY
  5
44BE
330
28CE
100
AcDbDictionary
280
     1
281
     1
  3
ACAD_XREC_ROUNDTRIP
360
44BF
  0
DICTIONARY
  5
44A7
330
23D1
100
AcDbDictionary
280
     1
281
     1
  3
ACAD_XREC_ROUNDTRIP
360
44A8
  0
DICTIONARY
  5
448B
330
23C3
100
AcDbDictionary
280
     1
281
     1
  3
ACAD_XREC_ROUNDTRIP
360
448C
  0
DICTIONARY
  5
448D
330
23C4
100
AcDbDictionary
280
     1
281
     1
  3
ACAD_XREC_ROUNDTRIP
360
448E
  0
DICTIONARY
  5
448F
330
23C5
100
AcDbDictionary
280
     1
281
     1
  3
ACAD_XREC_ROUNDTRIP
360
4490
  0
DICTIONARY
  5
4491
330
23C6
100
AcDbDictionary
280
     1
281
     1
  3
ACAD_XREC_ROUNDTRIP
360
4492
  0
DICTIONARY
  5
44AE
330
28C6
100
AcDbDictionary
280
     1
281
     1
  3
ACAD_XREC_ROUNDTRIP
360
44AF
  0
DICTIONARY
  5
44BA
330
28CC
100
AcDbDictionary
280
     1
281
     1
  3
ACAD_XREC_ROUNDTRIP
360
44BB
  0
DICTIONARY
  5
44A5
330
23D0
100
AcDbDictionary
280
     1
281
     1
  3
ACAD_XREC_ROUNDTRIP
360
44A6
  0
DICTIONARY
  5
44BC
330
28CD
100
AcDbDictionary
280
     1
281
     1
  3
ACAD_XREC_ROUNDTRIP
360
44BD
  0
DICTIONARY
  5
449D
330
23CC
100
AcDbDictionary
280
     1
281
     1
  3
ACAD_XREC_ROUNDTRIP
360
449E
  0
DICTIONARY
  5
44B8
330
28CB
100
AcDbDictionary
280
     1
281
     1
  3
ACAD_XREC_ROUNDTRIP
360
44B9
  0
DICTIONARY
  5
44B6
330
28CA
100
AcDbDictionary
280
     1
281
     1
  3
ACAD_XREC_ROUNDTRIP
360
44B7
  0
DICTIONARY
  5
44B0
330
28C7
100
AcDbDictionary
280
     1
281
     1
  3
ACAD_XREC_ROUNDTRIP
360
44B1
  0
DICTIONARY
  5
44B2
330
28C8
100
AcDbDictionary
280
     1
281
     1
  3
ACAD_XREC_ROUNDTRIP
360
44B3
  0
DICTIONARY
  5
44A3
330
23CF
100
AcDbDictionary
280
     1
281
     1
  3
ACAD_XREC_ROUNDTRIP
360
44A4
  0
DICTIONARY
  5
44AC
330
28C5
100
AcDbDictionary
280
     1
281
     1
  3
ACAD_XREC_ROUNDTRIP
360
44AD
  0
DICTIONARY
  5
44B4
330
28C9
100
AcDbDictionary
280
     1
281
     1
  3
ACAD_XREC_ROUNDTRIP
360
44B5
  0
XRECORD
  5
4482
102
{ACAD_REACTORS
330
334D
102
}
330
334D
100
AcDbXrecord
280
     1
102
SHADEPLOT
 70
     0
102
SHADEPLOTRESLEVEL
 70
     2
102
SHADEPLOTCUSTOMDPI
 70
   300
  0
XRECORD
  5
334E
102
{ACAD_REACTORS
330
334D
102
}
330
334D
100
AcDbXrecord
280
     1
310
28000000000100007B0000000100080000000000007B0000000000000000000000010000000000000000000000000000FFFFFF000000000000000000000000000000000000000000000000000000000000000000330000006600000099000000CC000000FF00000000330000333300006633000099330000CC330000FF3300
310
0000660000336600006666000099660000CC660000FF66000000990000339900006699000099990000CC990000FF99000000CC000033CC000066CC000099CC0000CCCC0000FFCC000000FF000033FF000066FF000099FF0000CCFF0000FFFF000000003300330033006600330099003300CC003300FF003300003333003333
310
33006633330099333300CC333300FF33330000663300336633006666330099663300CC663300FF66330000993300339933006699330099993300CC993300FF99330000CC330033CC330066CC330099CC3300CCCC3300FFCC330000FF330033FF330066FF330099FF3300CCFF3300FFFF330000006600330066006600660099
310
006600CC006600FF00660000336600333366006633660099336600CC336600FF33660000666600336666006666660099666600CC666600FF66660000996600339966006699660099996600CC996600FF99660000CC660033CC660066CC660099CC6600CCCC6600FFCC660000FF660033FF660066FF660099FF6600CCFF6600
310
FFFF660000009900330099006600990099009900CC009900FF00990000339900333399006633990099339900CC339900FF33990000669900336699006666990099669900CC669900FF66990000999900339999006699990099999900CC999900FF99990000CC990033CC990066CC990099CC9900CCCC9900FFCC990000FF99
310
0033FF990066FF990099FF9900CCFF9900FFFF99000000CC003300CC006600CC009900CC00CC00CC00FF00CC000033CC003333CC006633CC009933CC00CC33CC00FF33CC000066CC003366CC006666CC009966CC00CC66CC00FF66CC000099CC003399CC006699CC009999CC00CC99CC00FF99CC0000CCCC0033CCCC0066CC
310
CC0099CCCC00CCCCCC00FFCCCC0000FFCC0033FFCC0066FFCC0099FFCC00CCFFCC00FFFFCC000000FF003300FF006600FF009900FF00CC00FF00FF00FF000033FF003333FF006633FF009933FF00CC33FF00FF33FF000066FF003366FF006666FF009966FF00CC66FF00FF66FF000099FF003399FF006699FF009999FF00CC
310
99FF00FF99FF0000CCFF0033CCFF0066CCFF0099CCFF00CCCCFF00FFCCFF0000FFFF0033FFFF0066FFFF0099FFFF00CCFFFF00FFFFFF00000000000D0D0D001A1A1A00282828003535350043434300505050005D5D5D006B6B6B00787878008686860093939300A1A1A100AEAEAE00BBBBBB00C9C9C900D6D6D600E4E4E400
310
F1F1F100FFFFFF000000000000000000000000000000000000000000000000000000000000000000000000000000000000000000000000000000000000000000000000000000000000000000000000000000000000000000000000000000000000000000000000000000000000000000000000000000000000000000000000
310
0000000000000000000000000000000000000000000000000000000000000000000000000000000000000000000000000000000000000000000000000000000000000000000000000000000000000000000000000000000000000000000000000000000000002D000000000000000000000000000000000000000000000000
310
00000000000000000000000000000000000000000000000000000000000000000000000000000000000000000000000000000000000000000000000000000000000000000000000000000000000000000000000000000000000000000000000000000000000000000000000000000000000000000000000000000000000000
310
00000000000000000000000000000000000000000000000000000000000000000000000000000000000000000000000000000000000000000000000000000000000000000000000000000000000000000000000000000000000000000000000000000000000000002D00000000000000000000000000000000000000000000
310
00000000000000000000000000000000000000000000000000000000000000000000000000000000000000000000000000000000000000000000000000000000000000000000000000000000000000000000000000000000000000000000000000000000000000000000000000000000000000000000000000000000000000
310
000000000000000000000000000000000000000000000000000000000000000000000000000000000000000000000000000000000000000000000000000000000000000000000000000000000000000000000000000000000000000000000000000000000000000000002D0000000000000000000000000000000000000000
310
00000000000000000000000000000000000000000000000000000000000000000000000000000000000000000000000000000000000000000000000000000000000000000000000000000000000000000000000000000000000000000000000000000000000000000000000000000000000000F5F5F5F5F5F5F5F5F5F5F5F5
310
F5F5F5F5F50000000000000000000000000000000000000000000000000000002D000000000000000000000000000000000000000000000000000000000000000000000000000000000000000000000000000000000000000000000000000000000000000000000000000000F5000000000000000000000000000000000000
310
0000000000000000000000000000000000000000000000000000000000000000000000000000000000000000000000000000000000000000000000000000000000000000000000000000000000000000000000000000000000000000000000000000000000000000000000000000000000000000F500000000000000000000
310
00000000000000F500000000000000000000000000000000000000000000000000002D00000000000000000000000000000000000000000000000000000000000000000000000000000000000000000000000000000000000000000000000000000000000000000000000000F5F52DF5F50000000000000000000000000000
310
000000000000000000000000000000000000000000000000000000000000000000000000000000000000000000000000000000000000000000000000000000000000000000000000000000000000000000000000000000000000000000000000000000000000000000000000000000000000000000F5000000000000000000
310
00000000000000000000F50000000000000000000000000000000000000000F5F5F5F5F5F5F5F5F5F5F5F5F5F5F500000000000000000000000000000000000000000000000000000000000000000000000000000000000000000000000000000000000000000000000000F5F5F5F5F5F5F5F5F5F5F5000000000000000000
310
0000000000000000000000000000000000000000000000000000000000000000000000000000000000000000000000000000000000000000000000000000000000000000000000000000000000000000000000000000000000000000000000000000000000000000000000000000000000000000000000F500000000000000
310
000000000000000000000000F50000000000000000000000000000000000000000F5000000002D000000000000000000F5F5F5F5F5F5000000000000000000000000000000000000000000000000000000000000000000000000000000000000000000000000000000000000F500F5F500002D00F5F500F500000000000000
310
00000000000000000000000000000000000000000000000000000000000000000000000000000000000000000000000000000000000000000000000000000000000000000000000000000000000000000000000000000000000000000000000000000000000000000000000000000000000000000000000000F50000000000
310
0000000000000000000000000000F500000000000000F5F5F5F5F5F5F5F5F5F5F5F5F500000000002D000000000000000000000000000000F5F5F5F5000000000000000000000000000000000000000000000000000000000000000000000000000000000000000000000000F5F5F500F5F5F5F52DF5F5F5F5F5F5F5000000
310
000000000000000000000000000000000000000000000000000000000000000000000000000000000000000000000000000000000000000000000000000000000000000000000000000000000000000000000000000000000000000000000000000000000000000000000000000000000000000000000000000000F5000000
310
00000000000000000000000000000000F5F5F5F5F5000000F500000000000000000000000000000000002D000000000000000000000000000000000000F5F5F5F5F5F5F5F5F5F5F5F5F500000000000000000000000000000000000000000000000000000000000000000000F5F50000F5F5F5F5F5F5F5F5F5F5F5F50000F5
310
F500000000000000000000000000000000000000000000000000000000000000000000000000000000000000000000000000000000000000000000000000000000000000000000000000000000000000000000000000000000000000000000000000000000000000000000000000000000000000000000000000000000F500
310
000000000000000000000000000000000000F5282828F5F5F5F5F5000000000000000000000000F5000000002D0000000000F5000000000000000000000000F5F528282828282828282828F5F52800000000000000000000000000000000000000000000000000000000000000F5F500F5F500F5F500282828282800F5F5F5
310
F500F5F5F50000000000000000000000000000000000000000000000000000000000000000000000000000000000000000000000000000000000000000000000000000000000000000000000000000000000000000000000000000000000000000000000000000000000000000000000000000000000000000000000000000
310
F5F5000000000000000000000000000000000000F5000000F5F50000F5000000000000000000000000F5000000002D00000000F500000000000000000000000000F5F500000000000000000000F500F50000000000000000000000000000000000000000000000000000000000F5F500F5F5F5F5F500F5F5F5F5F5F5F5F5F5
310
00F5F5F5F5F500F5F500000000000000000000000000000000000000000000000000000000000000000000000000000000000000000000000000000000000000000000000000000000000000000000000000000000000000000000000000000000000000000000000000000000000000000000000000000000000000000000
310
0000F5F5F5F5F5F5F5F5F5F5F5F5F5F5F5F5F5F5F5F5F5000000F5F50000F5F5F5F5F5F5F5F5F5F5F5000000F50000002D00000000F5000000F5F5F5F5F5F5F5F5F5F5F5F500000000000000000000F500F500000000000000000000000000000000000000000000000000000000F500F5F5F500F50028F500000000F50000
310
0000F52800F5F5F5F5F500F500000000000000000000000000000000000000000000000000000000000000000000000000000000000000000000000000000000000000000000000000000000000000000000000000000000000000000000000000000000000000000000000000000000000000000000000000000000000000
310
00000000F5F50000000000000000000000000000000000F5F5000000F5F50000F5000000000000000000F5000000F50000002D00000000F5000000F5000000000000000000F5F500000000000000000000F500F500000000000000000000000000000000000000000000000000000000F500F500F5F50028F500F5F5F5F5F5
310
F5F5F50000F528F5F50000F500F50000000000000000000000000000000000000000000000000000000000000000000000000000000000000000000000000000000000000000000000000000000000000000000000000000000000000000000000000000000000000000000000000000000000000000000000000000000000
310
000000000000F5F5000000000000000000000000000000000000F5000000F5F50000F5000000000000000000F5000000F50000002D00000000F5000000F5000000000000000000F5F500000000000000000000F500F500000000000000000000000000000000000000000000000000000000F500F5F500F528F50000F5F5F5
310
F5F5F5F5F5F50000F500F5F500F500F5000000000000000000000000000000000000000000000000000000000000000000000000000000000000000000000000000000000000000000000000000000000000000000000000000000000000000000000000000000000000000000000000000000000000000000000000000000
310
0000000000000000F500000000000000000000000000000000000000F5000000F5F50000F5000000000000000000F5000000F50000002D00000000F5000000F5000000000000000000F5F500000000000000000000F500F500000000000000000000000000000000000000000000000000000000F5F5F5F5F500F50000F500
310
F500002D00F500F5F50000F500F500F5F5F500000000000000000000000000000000000000000000000000000000000000000000000000000000000000000000000000000000000000000000000000000000000000000000000000000000000000000000000000000000000000000000000000000000000000000000000000
310
00000000000000000000F500000000000000000000000000000000000000F5000000F5F50000F5000000000000000000F5000000F500F5002D0000F500F5000000F5000000000000000000F5F500000000000000000000F500F500000000000000000000000000000000000000000000000000000000F5F5F5F5F5F500F5F5
310
0000F500002D0000F500F5F500F50000F5F5F5F50000000000000000000000000000000000000000000000000000000000000000000000000000000000000000000000000000000000000000000000000000000000000000000000000000000000000000000000000000000000000000000000000000000000000000000000
310
000000000000000000000000F500000000000000000000000000000000000000F5000000F5F50000F5000000000000000000F5000000F5F500F5F5F5F5F500F5000000F5000000000000000000F5F500000000000000000000F500F500000000000000000000000000000000000000000000000000000000F5F5F5F500F500
310
F5F500F50000002D0000F50000F5F500F500F5F5F5F5000000000000000000000000000000000000000000000000000000000000000000000000000000000000000000000000000000000000000000000000000000000000000000000000000000000000000000000000000000000000000000000000000000000000000000
310
0000000000000000000000000000F500000000000000000000000000000000000000F5000000F5F50000F5000000000000000000F5000000F5F500F5F5F50000F5F5000000F5000000000000000000F5F500000000000000000000F500F500000000000000000000000000000000000000000000000000000000F500F5F528
310
F500F5000000F500002D0000F50000F5F500F500F5F5F5F500000000000000000000000000000000000000000000000000000000000000000000000000000000000000000000000000000000000000000000000000000000000000000000000000000000000000000000000000000000000000000000000000000000000000
310
00000000000000000000000000000000F500000000000000000000000000000000000000F5000000F5F50000F5000000000000000000F5000000F500F5F52DF5F5F500F5000000F5000000000000000000F5F500000000000000000000F500F500000000000000000000000000000000000000000000000000000000F500F5
310
F528F500F5000000F500002D0000F50000F5F500F500F5F5F5F50000000000000000000000000000000000000000000000000000000000000000000000000000000000000000000000000000000000000000000000000000000000000000000000000000000000000000000000000000000000000000000000000000000000
310
00000000000000000000000000000000002DF52D2D2D2D2D2D2D2D2D2D2D2D2D2D2D2D2D2D2DF52D2D2DF5F52D2DF52D2D2D2D2D2D2D2D2DF52D2D2DF52DF52DF5F5F52D2DF52D2D2DF52D2D2D2D2D2D2D2D2DF5F52D2D2D2D2D2D2D2D2D2DF52D2D2D2D0000000000000000000000000000000000000000000000002D2D2D
310
2DF52D2D2D2D2D2D2D2D2D2D2D2D2D2D2D2D2D2D2D2D2D2D2DF52D2D2D0000000000000000000000000000000000000000000000000000000000000000000000000000000000000000000000000000000000000000000000000000000000000000000000000000000000000000000000000000000000000000000000000000
310
0000000000000000000000000000000000000000F500000000000000000000000000000000000000F5000000F5F50000F5000000000000000000F5000000F50000F5F5F5F50000F5000000F5000000000000000000F5F500000000000000000000F500F5000000000000000000000000000000000000000000000000000000
310
00F500F5F528F500F5000000000000F50000000000F5F500F500F5F5F5F500000000000000000000000000000000000000000000000000000000000000000000000000000000000000000000000000000000000000000000000000000000000000000000000000000000000000000000000000000000000000000000000000
310
00000000000000000000000000000000000000000000F500000000000000000000000000000000000000F5000000F5F50000F5000000000000000000F5000000F50000F52DF5000000F5000000F5000000000000000000F5F500000000000000000000F500F500000000000000000000000000000000000000000000000000
310
000000F500F5F528F500F5F500000000002D0000000000F5F500F500F5F5F5F50000000000000000000000000000000000000000000000000000000000000000000000000000000000000000000000000000000000000000000000000000000000000000000000000000000000000000000000000000000000000000000000
310
000000000000000000000000000000000000000000000000F500000000000000000000000000000000000000F5000000F5F50000F5000000000000000000F5000000F5000000F5F5000000F5000000F5000000000000000000F5F500000000000000000000F500F50000000000000000000000000000000000000000000000
310
0000000000F5F5F500F5F500F5F500000000002D00000000F5F50000F500F5F5F5F5000000000000000000000000000000000000000000000000000000000000000000000000000000000000000000000000000000000000000000000000000000000000000000000000000000000000000000000000000000000000000000
310
0000000000000000000000000000000000000000000000000000F500000000000000000000000000000000000000F5000000F5F50000F5000000000000000000F5000000F5000000F5F5000000F5000000F5000000000000000000F5F500000000000000000000F500F5000000000000000000000000000000000000000000
310
00000000000000F5F5F5F5F5F50000F5F5000000002D000000F500F500F500F500F5F5F500000000000000000000000000000000000000000000000000000000000000000000000000000000000000000000000000000000000000000000000000000000000000000000000000000000000000000000000000000000000000
310
00000000000000000000000000000000000000000000000000000000F500000000000000000000000000000000000000F5000000F5F50000F5000000000000000000F5000000F50000002D00000000F5000000F5000000000000000000F5F500000000000000000000F500F500000000000000000000000000000000000000
310
000000000000000000F500F5F5F500F5F500F5F50000002D0000F500F500F528F5F500F5F5F50000000000000000000000000000000000000000000000000000000000000000000000000000000000000000000000000000000000000000000000000000000000000000000000000000000000000000000000000000000000
310
000000000000000000000000000000000000000000000000000000000000F5F5000000000000000000000000000000000000F5000000F5F50000F5000000000000000000F5000000F50000002D00000000F5000000F5000000000000000000F5F500000000000000000000F500F50000000000000000000000000000000000
310
0000000000000000000000F500F500F5F52800F500F5F5F5F5F5F5F5F5F50000F500F5F500F500F5000000000000000000000000000000000000000000000000000000000000000000000000000000000000000000000000000000000000000000000000000000000000000000000000000000000000000000000000000000
310
0000000000000000000000000000000000000000000000000000000000000000F5F50000000000000000000000000000000000F5F5000000F5F50000F5F5F5F5F5F5F5F5F5F5F5000000F50000002D00000000F5000000F5F5F5F5F5F5F5F5F5F5F5F500000000000000000000F500F5000000000000000000000000000000
310
00000000000000000000000000F500F500F5F50028F50000F5F5F5F5F5F5000000F500F5F50000F500F500000000000000000000000000000000000000000000000000000000000000000000000000000000000000000000000000000000000000000000000000000000000000000000000000000000000000000000000000
310
00000000000000000000000000000000000000000000000000000000000000000000F5F5F5F5F5F5F5F5F5F5F5F5F5F5F5F5F5F5F5F5F5000000F5F50000F5000000000000000000000000F5000000002D00000000F500000000000000000000000000F5F500000000000000000000F500F500000000000000000000000000
310
000000000000000000000000000000F5F500F5F5F5F5F500F5F50000002D000000F5F500F5F5F5F5F500F5F50000000000000000000000000000000000000000000000000000000000000000000000000000000000000000000000000000000000000000000000000000000000000000000000000000000000000000000000
310
000000000000000000000000000000000000000000000000000000000000000000000000F500000000000000000000000000000000000000F5282828F5F5F5F5F500000000000000000000F5F5F5000000002D0000000000F5F5F500000000000000000000F5F500000000000028282828F528F50000000000000000000000
310
00000000000000000000000000000000000000F5F5F5F5F5F5F50000F5F5F5F5F5F5F50000F5F500F5F5F5F50000000000000000000000000000000000000000000000000000000000000000000000000000000000000000000000000000000000000000000000000000000000000000000000000000000000000000000000
310
0000000000000000000000000000000000000000000000000000000000000000000000000000F500000000000000000000000000000000000000F5000000F5F50000F500000000000000000000000000000000002D000000000000000000000000000000000000F5F52828282828F5F5F5F5F5F5F500000000000000000000
310
0000000000000000000000000000000000000000000000F5F5F5F5F5F5F5F5F5002D00F5F5F5F5F5F5F5F5F50000000000000000000000000000000000000000000000000000000000000000000000000000000000000000000000000000000000000000000000000000000000000000000000000000000000000000000000
310
00000000000000000000000000000000000000000000000000000000000000000000000000000000F500000000000000000000000000000000000000F5F5F5F5F5000000F5F5000000000000000000000000000000002D0000000000000000F5F5F5F5F5F5F5F5F5F5F5F5F5F5F5F5F5000000000000000000000000000000
310
000000000000000000000000000000000000000000000000000000F5F50000F5F5F5F5F5F5F5F5000000F5F50000000000000000000000000000000000000000000000000000000000000000000000000000000000000000000000000000000000000000000000000000000000000000000000000000000000000000000000
310
000000000000000000000000000000000000000000000000000000000000000000000000000000000000F500000000000000000000000000000000000000F5000000000000000000F5F5F5000000000000000000000000002D00000000000000F5000000000000000000000000000000000000000000000000000000000000
310
000000000000000000000000000000000000000000000000000000000000F50000000000002D000000000000F500000000000000000000000000000000000000000000000000000000000000000000000000000000000000000000000000000000000000000000000000000000000000000000000000000000000000000000
310
0000000000000000000000000000000000000000000000000000000000000000000000000000000000000000F500000000000000000000000000000000000000F5000000000000000000000000F5F5F5F50000000000000000002D00000000000000F500000000000000000000000000000000000000000000000000000000
310
0000000000000000000000000000000000000000000000000000000000000000F50000000000002D000000000000F50000000000000000000000000000000000000000000000000000000000000000000000000000000000000000000000000000000000000000000000000000000000000000000000000000000000000000
310
00000000000000000000000000000000000000000000000000000000000000000000000000000000000000000000F5F50000000000000000000000000000000000F5F500000000000000000000000000000000F5F5F50000000000002D00000000000000F50000000000000000000000000000000000000000000000000000
310
00000000000000000000000000000000000000000000000000000000000000000000F50000000000002D000000000000F5000000000000000000000000000000000000000000000000000000000000000000000000000000000000000000000000000000000000000000000000000000000000000000000000000000000000
310
0000000000000000000000000000000000000000000000000000000000000000000000000000000000000000000000000000F5F5F5F5F5F5F5F5F5F5F5F5F5F5F5F5F50000000000000000000000000000000000000000F50000000000002D00000000000000F5000000000000000000000000000000000000000000000000
310
000000000000000000000000000000000000000000000000000000000000000000000000F50000000000002D000000000000F500000000000000000000000000000000000000000000000000000000000000000000000000000000000000000000000000000000000000000000000000000000000000000000000000000000
310
0000000000000000000000000000000000000000000000000000000000000000000000000000000000000000000000000000000000000000000000000000000000000000000000000000000000000000000000000000000000F50000000000002D00000000000000F500000000000000000000000000000000000000000000
310
0000000000000000000000000000000000000000000000000000000000000000000000000000F50000000000002D000000000000F50000000000000000000000000000000000000000000000000000000000000000000000000000000000000000000000000000000000000000000000000000000000000000000000000000
310
00000000000000000000000000000000000000000000000000000000000000000000000000000000000000000000000000000000000000000000000000000000000000000000000000000000000000000000000000000000000000F50000000000002D00000000000000F50000000000000000000000000000000000000000
310
00000000000000000000000000000000000000000000000000000000000000000000000000000000F50000000000002D000000000000F5000000000000000000000000000000000000000000000000000000000000000000000000000000000000000000000000000000000000000000000000000000000000000000000000
310
000000000000000000000000000000000000000000000000000000000000000000000000000000000000000000000000000000000000000000000000000000000000000000000000000000000000000000000000000000000000000000F5F5F5F5F5F5F5F5F5F5F5F5F5F5F5F5000000000000000000000000000000000000
310
000000000000000000000000000000000000000000000000000000000000000000000000000000000000F5F5F5F5F5F5F5F5F5F5F5F5F5F5F500000000000000000000000000000000000000000000000000000000000000000000000000000000000000000000000000000000000000000000000000000000000000000000
310
00000000000000000000000000000000000000000000000000000000000000000000000000000000000000000000000000000000000000000000000000000000000000000000000000000000000000000000000000000000000000000000F5F50000000000002D00000000000000F5F5000000000000000000000000000000
310
00000000000000000000000000000000000000000000000000000000000000000000000000000000000028F5000000000000002D000000000000F52800000000000000000000000000000000000000000000000000000000000000000000000000000000000000000000000000000000000000000000000000000000000000
310
0000000000000000000000000000000000000000000000000000000000000000000000000000000000000000000000000000000000000000000000000000000000000000000000000000000000000000000000000000000000000000000000F5F5F5F5F5F5F5F5F5F5F5F5F5F5F5F5F5F5F5F5000000000000000000000000
310
0000000000000000000000000000000000000000000000000000000000000000000000000000000000000000F5F5F5F5F5F5F5F5F5F5F5F5F5F5F5F5F5F5F500000000000000000000000000000000000000000000000000000000000000000000000000000000000000000000000000000000000000000000000000000000
310
000000000000000000000000000000000000000000000000000000000000000000000000000000000000000000000000000000000000000000000000000000000000000000000000000000000000000000000000000000000000000000000000F5F5F5F5F5F5F5F5F5F5F5F5F5F5F5F5F5F5F5F5F5F5000000000000000000
310
0000000000000000000000000000000000000000000000000000000000000000000000000000000000000000F5F5F5F5F5F5F5F5F5F5F5F5F5F5F5F5F5F5F5F5F5F500000000000000000000000000000000000000000000000000000000000000000000000000000000000000000000000000000000000000000000000000
310
0000000000000000000000000000000000000000000000000000000000000000000000000000000000000000000000000000000000000000000000000000000000000000000000000000000000000000000000000000000000000000000000000000F50000000000000000002D00000000000000000000F500000000000000
310
00000000000000000000000000000000000000000000000000000000000000000000000000000000000000000000F5000000000000000000002D000000000000000000F50000000000000000000000000000000000000000000000000000000000000000000000000000000000000000000000000000000000000000000000
310
00000000000000000000000000000000000000000000000000000000000000000000000000000000000000000000000000000000000000000000000000000000000000000000000000000000000000000000000000000000000000000000000000000000F50000000000000000002D00000000000000000000F50000000000
310
000000000000000000000000000000000000000000000000000000000000000000000000000000000000000000000000F5F5F5F5F5F5F5F5F5F5F5F5F5F5F5F5F5F5F5F5F5F5000000000000000000000000000000000000000000000000000000000000000000000000000000000000000000000000000000000000000000
310
0000000000000000000000000000000000000000000000000000000000000000000000000000000000000000000000000000000000000000000000000000000000000000000000000000000000000000000000000000000000000000000000000000000000F5F5F5F5F5F5F5F5F5F5F5F5F5F5F5F5F5F5F5F5F5F5F5F50000
310
0000000000000000000000000000000000000000000000000000000000000000000000000000000000000000000000000000F5F5F5F5F5F5F5F5F5F5F5F5F5F5F5F5F5F5F5F5F5F5F5000000000000000000000000000000000000000000000000000000000000000000000000000000000000000000000000000000000000
310
000000000000000000000000000000000000000000000000000000000000000000000000000000000000000000000000000000000000000000000000000000000000000000000000000000000000000000000000000000000000000000000000000000000000F5F5000000F5F5F5F50000002D00000000F5F5F5F5000000F5
310
F5000000000000000000000000000000000000000000000000000000000000000000000000000000000000000000000000000000F5F500000000000000F5002DF50000000000000000F5F500000000000000000000000000000000000000000000000000000000000000000000000000000000000000000000000000000000
310
0000000000000000000000000000000000000000000000000000000000000000000000000000000000000000000000000000000000000000000000000000000000000000000000000000000000000000000000000000000000000000000000000000000000000000F500000000F50000F50000002D00000000F50000F50000
310
0000F5000000000000000000000000000000000000000000000000000000000000000000000000000000000000000000000000000000F5F500000000000000F5002DF50000000000000000F5F50000000000000000000000000000000000000000000000000000000000000000000000000000000000000000000000000000
310
00000000000000000000000000000000000000000000000000000000000000000000000000000000000000000000000000000000000000000000000000000000000000000000000000000000000000000000000000000000000000000000000000000000000000000000F500000000F50000F50000002D00000000F50000F5
310
00000000F5000000000000000000000000000000000000000000000000000000000000000000000000000000000000000000000000000000F5F500000000000000F5002DF50000000000000000F5F5000000000000000000000000000000000000000000000000000000000000000000000000000000000000000000000000
310
000000000000000000000000000000000000000000000000000000000000000000000000000000000000000000000000000000000000000000000000000000000000000000000000000000000000000000000000000000000000000000000000000000000000000000000000F500000000F50000F50000002D00000000F500
310
00F500000000F5000000000000000000000000000000000000000000000000000000000000000000000000000000000000000000000000000000F5F500000000000000F5002DF50000000000000000F5F500000000000000000000000000000000000000000000000000000000000000000000000000000000000000000000
310
0000000000000000000000000000000000000000000000000000000000000000000000000000000000000000000000000000000000000000000000000000000000000000000000000000000000000000000000000000000000000000000000000000000000000000000000000000F500000000F50000F50000002D00000000
310
F50000F500000000F5000000000000000000000000000000000000000000000000000000000000000000000000000000000000000000000000000000F5F500000000000000F5002DF50000000000000000F5F50000000000000000000000000000000000000000000000000000000000000000000000000000000000000000
310
00000000000000000000000000000000000000000000000000000000000000000000000000000000000000000000000000000000000000000000000000000000000000000000000000000000000000000000000000000000000000000000000000000000000000000000000000000000F500000000F50000F50000002D0000
310
0000F50000F500000000F5000000000000000000000000000000000000000000000000000000000000000000000000000000000000000000000000000000F5F500000000000000F5002DF50000000000000000F5F5000000000000000000000000000000000000000000000000000000000000000000000000000000000000
310
000000000000000000000000000000000000000000000000000000000000000000000000000000000000000000000000000000000000000000000000000000000000000000000000000000000000000000000000000000000000000000000000000000000000000000000000000000000000F5F50000F5F5F5F5F5F500002D
310
000000F5F5F5F5F5000000F5F5000000000000000000000000000000000000000000000000000000000000000000000000000000000000000000000000000000F5F5F5000000000000F5F5F5F5F5000000000000F5F5F500000000000000000000000000000000000000000000000000000000000000000000000000000000
310
000000000000000000000000000000000000000000000000000000000000000000000000000000000000000000000000000000000000000000000000000000000000000000000000000000000000000000000000000000000000000000000000000000000000000000000000000000000000000000F5F5F5F5F5F5F5F5F5F5
310
F5F5F5F5F5F5F5F5F5F5F5F5F5F500000000000000000000000000000000000000000000000000000000000000000000000000000000000000000000000000000000F5F5F5F5F5F5F5F5F5F5F5F5F5F5F5F5F5F5F5F5F5F5000000000000000000000000000000000000000000000000000000000000000000000000000000
310
000000000000000000000000000000000000000000000000000000000000000000000000000000000000000000000000000000000000000000000000000000000000000000000000000000000000000000000000000000000000000000000000000000000000000000000000000000000000000000000000000000000000F5
310
0000002D000000F500000000000000000000000000000000000000000000000000000000000000000000000000000000000000000000000000000000000000000000000000000000000000F50000002D000000F500000000000000000000000000000000000000000000000000000000000000000000000000000000000000
310
00000000000000000000000000000000000000000000000000000000000000000000000000000000000000000000000000000000000000000000000000000000000000000000000000000000000000000000000000000000000000000000000000000000000000000000000000000000000000000000000000000000000000
310
00F50000002D000000F500000000000000000000000000000000000000000000000000000000000000000000000000000000000000000000000000000000000000000000000000000000000000F50000002D000000F50000000000000000000000000000000000000000000000000000000000000000000000000000000000
310
00000000000000000000000000000000000000000000000000000000000000000000000000000000000000000000000000000000000000000000000000000000000000000000000000000000000000000000000000000000000000000000000000000000000000000000000000000000000000000000000000000000000000
310
000000F50000002D000000F500000000000000000000000000000000000000000000000000000000000000000000000000000000000000000000000000000000000000000000000000000000000000F50000002D000000F5000000000000000000000000000000000000000000000000000000000000000000000000000000
310
00000000000000000000000000000000000000000000000000000000000000000000000000000000000000000000000000000000000000000000000000000000000000000000000000000000000000000000000000000000000000000000000000000000000000000000000000000000000000000000000000000000000000
310
0000000000F50000002D000000F500000000000000000000000000000000000000000000000000000000000000000000000000000000000000000000000000000000000000000000000000000000000000F50000002D000000F500000000000000000000000000000000000000000000000000000000000000000000000000
310
00000000000000000000000000000000000000000000000000000000000000000000000000000000000000000000000000000000000000000000000000000000000000000000000000000000000000000000000000000000000000000000000000000000000000000000000000000000000000000000000000000000000000
310
00000000000000F50000002D000000F500000000000000000000000000000000000000000000000000000000000000000000000000000000000000000000000000000000000000000000000000000000000000F50000002D000000F50000000000000000000000000000000000000000000000000000000000000000000000
310
00000000000000000000000000000000000000000000000000000000000000000000000000000000000000000000000000000000000000000000000000000000000000000000000000000000000000000000000000000000000000000000000000000000000000000000000000000000000000000000000000000000000000
310
000000000000000000F5F5F5F5F5F5F5F5F500000000000000000000000000000000000000000000000000000000000000000000000000000000000000000000000000000000000000000000000000000000000000F5F5F5F5F5F5F5F5F5000000000000000000000000000000000000000000000000000000000000000000
310
00000000000000000000000000000000000000000000000000000000000000000000000000000000000000000000000000000000000000000000000000000000000000000000000000000000000000000000000000000000000000000000000000000000000000000000000000000000000000000000000000000000000000
310
0000F5F5F5F5F5F5F5F5F5F5F5F5F5F5F5F5F5F5F5F5F5F5F5F5F5F5F5F50000000000000000000000000000000000000000000000000000000000000000000000000000000000000000000000F5F5F5F5F5F5F5F5F5F5F5F5F5F5F5F5F5F5F5F5F5F5F5F5F5F5F5F5F5000000000000000000000000000000000000000000
310
00000000000000000000000000000000000000000000000000000000000000000000000000000000000000000000000000000000000000000000000000000000000000000000000000000000000000000000000000000000000000000000000000000000000000000000000000000000000000000000000000000000000000
310
00F5F5F5F5F5F5F5F5F5F5F5F5F5F5F5F5F5F5F5F5F5F5F5F5F5F5F5F5F5F5F5F5F5F50000000000000000000000000000000000000000000000000000000000000000000000000000000000F5F5F5F5F5F5F5F5F5F5F5F5F5F5F5F5F5F5F5F5F5F5F5F5F5F5F5F5F5F5F5F5F5F50000000000000000000000000000000000
310
00000000000000000000000000000000000000000000000000000000000000000000000000000000000000000000000000000000000000000000000000000000000000000000000000000000000000000000000000000000000000000000000000000000000000000000000000000000000000000000000000000000000000
310
000000F5F500000000F500F5000000000000F52D00F5000000000000F500F5000000F500F50000000000000000000000000000000000000000000000000000000000000000000000000000000000F5000000F5000000000000F500F50000002D000000F500F50000000000F5000000F5000000000000000000000000000000
310
00000000000000000000000000000000000000000000000000000000000000000000000000000000000000000000000000000000000000000000000000000000000000000000000000000000000000000000000000000000000000000000000000000000000000000000000000000000000000000000000000000000000000
310
0000000000F5F500000000F500F5000000000000F52D00F5000000000000F500F5000000F500F50000000000000000000000000000000000000000000000000000000000000000000000000000000000F5000000F5000000000000F500F50000002D000000F500F50000000000F5000000F500000000000000000000000000
310
00000000000000000000000000000000000000000000000000000000000000000000000000000000000000000000000000000000000000000000000000000000000000000000000000000000000000000000000000000000000000000000000000000000000000000000000000000000000000000000000000000000000000
310
00000000000000F5F500000000F500F5000000000000F52D00F5000000000000F500F5000000F500F50000000000000000000000000000000000000000000000000000000000000000000000000000000000F5000000F5000000000000F500F50000002D000000F500F50000000000F5000000F50000000000000000000000
310
00000000000000000000000000000000000000000000000000000000000000000000000000000000000000000000000000000000000000000000000000000000000000000000000000000000000000000000000000000000000000000000000000000000000000000000000000000000000000000000000000000000000000
310
000000000000000000F5F500000000F500F5000000000000F52D00F5000000000000F500F5000000F500F50000000000000000000000000000000000000000000000000000000000000000000000000000000000F5000000F5000000000000F500F50000002D000000F500F50000000000F5000000F5000000000000000000
310
00000000000000000000000000000000000000000000000000000000000000000000000000000000000000000000000000000000000000000000000000000000000000000000000000000000000000000000000000000000000000000000000000000000000000000000000000000000000000000000000000000000000000
310
0000000000000000000000F5F500000000F500F5000000000000F52D00F5000000000000F500F5000000F500F50000000000000000000000000000000000000000000000000000000000000000000000000000000000F5000000F5000000000000F500F50000002D000000F500F50000000000F5000000F500000000000000
310
00000000000000000000000000000000000000000000000000000000000000000000000000000000000000000000000000000000000000000000000000000000000000000000000000000000000000000000000000000000000000000000000000000000000000000000000000000000000000000000000000000000000000
310
00000000000000000000000000F5F500000000F500F5000000000000F52D00F5000000000000F500F5000000F500F50000000000000000000000000000000000000000000000000000000000000000000000000000000000F5000000F5000000000000F500F50000002D000000F500F50000000000F5000000F50000000000
310
00000000000000000000000000000000000000000000000000000000000000000000000000000000000000000000000000000000000000000000000000000000000000000000000000000000000000000000000000000000000000000000000000000000000000000000000000000000000000000000000000000000000000
310
000000000000000000000000000000F5F500000000F500F5000000000000F52D00F5000000000000F500F5000000F500F50000000000000000000000000000000000000000000000000000000000000000000000000000000000F5000000F5000000000000F500F50000002D000000F500F50000000000F5000000F5000000
310
00000000000000000000000000000000000000000000000000000000000000000000000000000000000000000000000000000000000000000000000000000000000000000000000000000000000000000000000000000000000000000000000000000000000000000000000000000000000000000000000000000000000000
310
0000000000000000000000000000000000F5F500000000F500F5000000000000F52D00F5000000000000F500F5000000F500F50000000000000000000000000000000000000000000000000000000000000000000000000000000000F5000000F5000000000000F500F50000002D000000F500F50000000000F5000000F500
310
00000000000000000000000000000000000000000000000000000000000000000000000000000000000000000000000000000000000000000000000000000000000000000000000000000000000000000000000000000000000000000000000000000000000000000000000000000000000000000000000000000000000000
310
00000000000000000000000000000000000000F5F500000000F500F5000000000000F52D00F5000000000000F500F5000000F500F50000000000000000000000000000000000000000000000000000000000000000000000000000000000F5000000F5000000000000F500F50000002D000000F500F50000000000F5000000
310
F5000000000000000000000000000000000000000000000000000000000000000000000000000000000000000000000000000000000000000000000000000000000000000000000000000000000000000000000000000000000000000000000000000000000000000000000000000000000000000000000000000000000000
310
000000000000000000000000000000000000000000F5F500000000F500F5000000000000F52D00F5000000000000F500F5000000F500F50000000000000000000000000000000000000000000000000000000000000000000000000000000000F5000000F5000000000000F500F50000002D000000F500F50000000000F500
310
0000F500000000000000000000000000000000000000000000000000000000000000000000000000000000000000000000000000000000000000000000000000000000000000000000000000000000000000000000000000000000000000000000000000000000000000000000000000000000000000000000000000000000
310
0000000000000000000000000000000000000000000000F5F500000000F500F5000000000000F52D00F5000000000000F500F5000000F500F50000000000000000000000000000000000000000000000000000000000000000000000000000000000F5000000F5000000000000F500F50000002D000000F500F50000000000
310
F5000000F50000000000000000000000000000000000000000000000000000000000000000000000000000000000000000000000000000000000000000000000000000000000000000000000000000000000000000000000000000000000000000000000000000000000000000000000000000000000000000000000000000
310
00000000000000000000000000000000000000000000000000F5F500000000F5F5F5000000000000F5F5F5F5000000000000F5F5F5000000F5F5F50000000000000000000000000000000000000000000000000000000000000000000000000000000000F5F5F5F5F5000000000000F5F5F50000002D000000F5F5F5000000
310
0000F5F5F5F5F5000000000000000000000000000000000000000000000000000000000000000000000000000000000000000000000000000000000000000000000000000000000000000000000000000000000000000000000000000000000000000000000000000000000000000000000000000000000000000000000000
310
000000000000000000000000000000000000000000000000000000F5F500000000F50000F500000000F5002D00F50000000000F50000F5000000F500F5000000000000000000000000000000000000000000000000000000000000000000000000000000000000F5000000F500000000F50000F50000002D0000F50000F500
310
00000000F5000000F500000000000000000000000000000000000000000000000000000000000000000000000000000000000000000000000000000000000000000000000000000000000000000000000000000000000000000000000000000000000000000000000000000000000000000000000000000000000000000000
310
000000000000000000000000000000000000000000000000000000000000F5F50000F500000000F50000F500002D0000F5F50000F5000000F5000000F5F500000000000000000000000000000000000000000000000000000000000000000000000000000000000000F5F5000000F50000F500000000F5F5F52DF5F5000000
310
00F5000000F5000000F5000000000000000000000000000000000000000000000000000000000000000000000000000000000000000000000000000000000000000000000000000000000000000000000000000000000000000000000000000000000000000000000000000000000000000000000000000000000000000000
310
00000000000000000000000000000000000000000000000000000000000000000000F5F5F5F5F5F5F5F5F5F5F5F5F5F5F5F5F5F5F5F5F5F5F5F5F5F5F5F50000000000000000000000000000000000000000000000000000000000000000000000000000000000000000000000F5F5F5F5F5F5F5F5F5F5F5F5F5F5F5F5F5F5
310
F5F5F5F5F5F5F5F5F5F5F50000000000000000000000000000000000000000000000000000000000000000000000000000000000000000000000000000000000000000000000000000000000000000000000000000000000000000000000000000000000000000000000000000000000000000000000000000000000000000
310
000000000000000000000000000000000000000000000000000000000000000000000000F50000000000000000000000002D00000000000000000000000000F50000000000000000000000000000000000000000000000000000000000000000000000000000000000000000000000F5000000000000000000000000002D00
310
000000000000000000000000F5000000000000000000000000000000000000000000000000000000000000000000000000000000000000000000000000000000000000000000000000000000000000000000000000000000000000000000000000000000000000000000000000000000000000000000000000000000000000
310
0000000000000000000000000000000000000000000000000000000000000000000000000000F5F5F5F5F5F5F5F5F5F5F5F5F5F5F5F5F5F5F5F5F5F5F5F5F5F5F5F50000000000000000000000000000000000000000000000000000000000000000000000000000000000000000000000F5F5F5F5F5F5F5F5F5F5F5F5F5F5
310
F5F5F5F5F5F5F5F5F5F5F5F5F5F5F500000000000000000000000000000000000000000000000000000000000000000000000000000000000000000000000000000000000000000000000000000000000000000000000000000000000000000000000000000000000000000000000000000000000000000000000000000000
310
00000000000000000000000000000000000000000000000000000000000000000000000000000000000000000000000000000000002D00000000000000000000000000000000000000000000000000000000000000000000000000000000000000000000000000000000000000000000000000000000000000000000000000
310
00002D00000000000000000000000000000000000000000000000000000000000000000000000000000000000000000000000000000000000000000000000000000000000000000000000000000000000000000000000000000000000000000000000000000000000000000000000000000000000000000000000000000000
310
000000000000000000000000000000000000000000000000000000000000000000000000000000000000000000000000000000000000002D0000000000000000000000000000000000000000000000000000000000000000000000000000000000000000000000000000000000000000000000000000000000000000000000
310
000000002D0000000000000000000000000000000000000000000000000000000000000000000000000000000000000000000000000000000000000000000000000000000000000000000000000000000000000000000000000000000000000000000000000000000000000000000000000000000000000000000000000000
310
00000000000000000000000000000000000000000000000000000000000000000000000000000000000000000000000000000000000000000000000000000000000000000000000000000000000000000000000000000000000000000000000000000000000000000000000000000000000000000000000000000000000000
310
0000000000002D000000000000000000000000000000000000000000000000000000000000000000000000000000000000000000000000000000000000000000000000000000000000000000000000000000000000000000000000000000000000000000000000000000000000000000000000000000000000000000000000
310
00000000000000000000000000000000000000000000000000000000000000000000000000000000000000000000000000000000000000000000000000000000000000000000000000000000000000000000000000000000000000000000000000000000000000000000000000000000000000000000000000000000000000
310
00000000000000000000000000000000000000000000000000000000000000000000000000000000000000000000000000000000000000000000000000000000000000000000000000000000000000000000000000000000000000000000000000000000000000000000000000000000000000000000000000000000000000
310
00000000000000000000000000000000000000000000000000000000000000000000000000000000000000000000000000000000000000000000000000000000000000000000000000000000000000000000000000000000000000000000000000000000000000000000000000000000000000000000000000000000000000
310
00000000000000000000000000000000000000000000000000000000000000000000000000000000000000000000000000000000000000000000000000000000000000000000000000000000000000000000000000000000000000000000000000000000000000000000000000000000000000000000000000000000000000
310
00000000000000000000000000000000000000000000000000000000000000000000000000000000000000000000000000000000000000000000000000000000000000000000000000000000000000000000000000000000000000000000000000000000000000000000000000000000000000000000000000000000000000
310
00000000000000000000000000000000000000000000000000000000000000000000000000000000000000000000000000000000000000000000000000000000000000000000000000000000000000000000000000000000000000000000000000000000000000000000000000000000000000000000000000000000000000
310
00000000000000000000000000000000000000000000000000000000000000000000000000000000000000000000000000000000000000000000000000000000000000000000000000000000000000000000000000000000000000000000000000000000000000000000000000000000000000000000000000000000000000
310
00000000000000000000000000000000000000000000000000000000000000000000000000000000000000000000000000000000000000000000000000000000000000000000000000000000000000000000000000000000000000000000000000000000000000000000000000000000000000000000000000000000000000
310
00000000000000000000000000000000000000000000000000000000000000000000000000000000000000000000000000000000000000000000000000000000000000000000000000000000000000000000000000000000000000000000000000000000000000000000000000000000000000000000000000000000000000
310
00000000000000000000000000000000000000000000000000000000000000000000000000000000000000000000000000000000000000000000000000000000000000000000000000000000000000000000000000000000000000000000000000000000000000000000000000000000000000000000000000000000000000
310
0000000000000000000000000000000000000000000000000000000000000000000000000000000000000000000000000000000000000000000000000000000000000000002D000000000000000000000000000000000000000000000000000000000000000000000000000000000000000000000000000000000000000000
310
00000000000000000000000000000000000000000000000000000000000000000000000000000000000000000000000000000000000000000000000000000000000000000000000000000000000000000000000000000000000000000000000000000000000000000000000000000000000000000000000000000000000000
310
00000000000000000000000000000000000000000000000000000000000000000000000000000000000000000000000000000000000000000000000000000000000000000000002D00000000000000000000000000000000000000000000000000000000000000000000000000000000000000000000000000000000000000
310
00000000000000000000000000000000000000000000000000000000000000000000000000000000000000000000000000000000000000000000000000000000000000000000000000000000000000000000000000000000000000000000000000000000000000000000000000000000000000000000000000000000000000
310
000000000000000000000000000000000000000000000000000000000000000000000000000000000000000000000000000000000000000000000000000000000000000000000000F52DF5F5000000000000000000000000000000000000000000000000000000000000000000000000000000000000000000000000000000
310
00000000000000000000000000000000000000000000000000000000000000000000000000000000000000000000000000000000000000000000000000000000000000000000000000000000000000000000000000000000000000000000000000000000000000000000000000000000000000000000000000000000000000
310
0000000000000000000000000000000000000000000000000000000000000000000000000000000000000000000000000000000000000000000000000000000000000000000000000000F52D00F500000000000000000000000000000000000000000000000000000000000000000000000000000000000000000000000000
310
00000000000000000000000000000000000000000000000000000000000000000000000000000000000000000000000000000000000000000000000000000000000000000000000000000000000000000000000000000000000000000000000000000000000000000000000000000000000000000000000000000000000000
310
000000000000000000000000000000000000000000000000000000000000000000000000000000000000000000000000000000000000000000000000000000000000000000000000000000F5002D00F50000000000000000000000000000000000000000000000000000000000000000000000000000000000000000000000
310
00000000000000000000000000000000000000000000000000000000000000000000000000000000000000000000000000000000000000000000000000000000000000000000000000000000000000000000000000000000000000000000000000000000000000000000000000000000000000000000000000000000000000
310
00000000000000000000000000000000000000000000000000000000000000000000000000000000000000000000000000000000000000000000000000000000000000000000F5F5F50000F5F5F5F52DF5F5F5F5F500F5F5F50000000000000000000000000000000000000000000000000000000000000000000000000000
310
00000000000000000000000000000000000000000000000000000000000000000000000000000000000000000000000000000000000000000000000000000000000000000000000000000000000000000000000000000000000000000000000000000000000000000000000000000000000000000000000000000000000000
310
0000000000000000000000000000000000000000000000000000000000000000000000000000000000000000000000000000000000000000000000000000000000000000000000F5000000F5F5F50000002D00000000F5F5000000F5F500000000000000000000000000000000000000000000000000000000000000000000
310
00000000000000000000000000000000000000000000000000000000000000000000000000000000000000000000000000000000000000000000000000000000000000000000000000000000000000000000000000000000000000000000000000000000000000000000000000000000000000000000000000000000000000
310
00000000000000000000000000000000000000000000000000000000000000000000000000000000000000000000000000000000000000000000000000000000000000000000000000F50000F5F50000F5F5F52DF5F5F5000000F5F50000F50000000000000000000000000000000000000000000000000000000000000000
310
00000000000000000000000000000000000000000000000000000000000000000000000000000000000000000000000000000000000000000000000000000000000000000000000000000000000000000000000000000000000000000000000000000000000000000000000000000000000000000000000000000000000000
310
000000000000000000000000000000000000000000000000000000000000000000000000000000000000000000000000000000000000000000000000000000000000000000000000000000F500F50000F5F50000002D000000F5F5F50000F500F5000000000000000000000000000000000000000000000000000000000000
310
00000000000000000000000000000000000000000000000000000000000000000000000000000000000000000000000000000000000000000000000000000000000000000000000000000000000000000000000000000000000000000000000000000000000000000000000000000000000000000000000000000000000000
310
0000000000000000000000000000000000000000000000000000000000000000000000000000000000000000000000000000000000000000000000000000000000000000000000000000000000F5F500F5F500000000002D000000000000F5F500F5F500000000000000000000000000000000000000000000000000000000
310
00000000000000000000000000000000000000000000000000000000000000000000000000000000000000000000000000000000000000000000000000000000000000000000000000000000000000000000000000000000000000000000000000000000000000000000000000000000000000000000000000000000000000
310
000000000000000000000000000000000000000000000000000000000000000000000000000000000000000000000000000000000000000000000000000000000000000000000000000000000000F5F500F5000000000000002D0000000000000000F500F5F500000000000000000000000000000000000000000000000000
310
00000000000000000000000000000000000000000000000000000000000000000000000000000000000000000000000000000000000000000000000000000000000000000000000000000000000000000000000000000000000000000000000000000000000000000000000000000000000000000000000000000000000000
310
00000000000000000000000000000000000000000000000000000000000000000000000000000000000000000000000000000000000000000000000000000000000000000000000000000000000000F5F500F500000000000000002D000000000000000000F500F5F500000000000000000000000000000000000000000000
310
00000000000000000000000000000000000000000000000000000000000000000000000000000000000000000000000000000000000000000000000000000000000000000000000000000000000000000000000000000000000000000000000000000000000000000000000000000000000000000000000000000000000000
310
000000000000000000000000000000000000000000000000000000000000000000000000000000000000000000000000000000000000000000000000000000000000000000000000000000000000F5F5F500F500F500000000000000002D0000000000000000F5F5F500F5F5F5000000000000000000000000000000000000
310
00000000000000000000000000000000000000000000000000000000000000000000000000000000000000000000000000000000000000000000000000000000000000000000000000000000000000000000000000000000000000000000000000000000000000000000000000000000000000000000000000000000000000
310
0000000000000000000000000000000000000000000000000000000000000000000000000000000000000000000000000000000000000000000000000000000000000000000000000000000000000000F50000F500F50000000000000000002D0000000000000000F5F5F500F50000F5000000000000000000000000000000
310
00000000000000000000000000000000000000000000000000000000000000000000000000000000000000000000000000000000000000000000000000000000000000000000000000000000000000000000000000000000000000000000000000000000000000000000000000000000000000000000000000000000000000
310
000000000000000000000000000000000000000000000000000000000000000000000000000000000000000000000000000000000000000000000000000000000000000000000000000000000000000000F5000000F500F50000000000000000002D00000000000000F5F5F5F500F50000F500000000000000000000000000
310
00000000000000000000000000000000000000000000000000000000000000000000000000000000000000000000000000000000000000000000000000000000000000000000000000000000000000000000000000000000000000000000000000000000000000000000000000000000000000000000000000000000000000
310
0000000000000000000000000000000000000000000000000000000000000000000000000000000000000000000000000000000000000000000000000000000000000000000000000000000000000000000000F5F500F500F5000000000000000000002D00000000000000F5F5F5F5F500F500F50000000000000000000000
310
00000000000000000000000000000000000000000000000000000000000000000000000000000000000000000000000000000000000000000000000000000000000000000000000000000000000000000000000000000000000000000000000000000000000000000000000000000000000000000000000000000000000000
310
000000000000000000000000000000000000000000000000000000000000000000000000000000000000000000000000000000000000000000000000000000000000000000000000000000000000000000000000000000F5F500F5F5F5F5F5F5F5F5F5F5F52DF5F5F5F5F5F5F5F5F5F5F5F500F5F500000000000000000000
310
00000000000000000000000000000000000000000000000000000000000000000000000000000000000000000000000000000000000000000000000000000000000000000000000000000000000000000000000000000000000000000000000000000000000000000000000000000000000000000000000000000000000000
310
0000000000000000000000000000000000000000000000000000000000000000000000000000000000000000000000000000000000000000000000000000000000000000000000000000000000000000000000000000000000F5F500F5F5F5F5F5F5F5F5F5F5F52DF5F5F5F5F5F5F5F5F5F5F5F500F5000000000000000000
310
0000000000000000000000000000000000000000000000000000000000F5F5F5F5F5F5F5F5F5F5F5F5F5F5F5F5F5F5F5F5F5F5F5F5F5F5F5F5F5F5F5F5F5F5F5F5F5F5000000000000000000000000000000000000000000000000000000000000000000000000000000000000000000000000000000000000000000000000
310
0000000000000000000000000000000000000000000000000000000000000000000000000000000000000000000000000000000000000000000000000000000000000000000000000000000000000000000000000000000000002D2D2D2D2D2D2D2D2D2D2D2D2D2D2D2D2D2D2D2D2D2D2D2D2D2D2D2D2D2D2D2D0000000000
310
00000000000000000000000000000000000000000000000000000000000000F5F5F5F5F5F5F5F5F5F5F5F5F5F5F5F5F5F5F5F5F5F5F5F5F5F5F5F5F5F5F5F5F5F5F5F5F5F500000000000000000000000000000000000000000000000000000000000000000000000000000000000000000000000000000000000000000000
310
00000000000000000000000000000000000000000000000000000000000000000000000000000000000000000000000000000000000000000000000000000000000000000000000000000000000000000000000000000000000000000000F5F5F5F5F5F5F5F5F5F5F5F5F52DF5F5F5F5F5F5F5F5F5F5F5F500F50000000000
310
000000000000000000000000000000000000000000000000000000000000000000F5F5F5F5F5F5F5F5F5F5F5F5F5F5F5F5F5F5F5F5F5F5F5F5F5F5F5F5F5F5F5F5F5F5F5F5F5F50000000000000000000000000000000000000000000000000000000000000000000000000000000000000000000000000000000000000000
310
0000000000000000000000000000000000000000000000000000000000000000000000000000000000000000000000000000000000000000000000000000000000000000000000000000000000000000000000000000000000000000000000F5F500F5F5F5F5F5F5F5F5F5F5F52DF5F5F5F5F5F5F5F5F5F5F5F500F5000000
310
00000000000000000000000000000000000000000000000000000000000000000000000000000000000000000000000000000000000000000000000000000000000000000000000000000000000000000000000000000000000000000000000000000000000000000000000000000000000000000000000000000000000000
310
00000000000000000000000000000000000000000000000000000000000000000000000000000000000000000000000000000000000000000000000000000000000000000000000000000000000000000000000000000000000000000000000000F5F500F5F5F5F5000000000000002D0000000000000000000000F500F5F5
310
00000000000000000000000000000000000000000000000000000000000000000000000000000000000000000000000000000000000000000000000000000000000000000000000000000000000000000000000000000000000000000000000000000000000000000000000000000000000000000000000000000000000000
310
00000000000000000000000000000000000000000000000000000000000000000000000000000000000000000000000000000000000000000000000000000000000000000000000000000000000000000000000000000000000000000000000000F5F500F500F5F5F500000000000000002D0000000000000000000000F500
310
F500F500000000000000000000000000000000000000000000000000000000000000000000000000000000000000000000000000000000000000000000000000000000000000000000000000000000000000000000000000000000000000000000000000000000000000000000000000000000000000000000000000000000
310
000000000000000000000000000000000000000000000000000000000000000000000000000000000000000000000000000000000000000000000000000000000000000000000000000000000000000000000000000000000000000000000000000000F5000000F500F5F500000000000000002D00000000000000000000F5
310
00F50000F50000000000000000000000000000000000000000000000000000000000000000000000000000000000000000000000000000000000000000000000000000000000000000000000000000000000000000000000000000000000000000000000000000000000000000000000000000000000000000000000000000
310
000000000000000000000000000000000000000000000000000000000000000000000000000000000000000000000000000000000000000000000000000000000000000000000000000000000000000000000000000000000000000000000000000000000000F50000F500F5F500000000000000002D000000000000000000
310
00F500F50000F5000000000000000000000000000000000000000000000000000000000000000000000000000000000000000000000000000000000000000000000000000000000000000000000000000000000000000000000000000000000000000000000000000000000000000000000000000000000000000000000000
310
0000000000000000000000000000000000000000000000000000000000000000000000000000000000000000000000000000000000000000000000000000000000000000000000000000000000000000000000000000000000000000000000000000000000000000F5F5F500F500F500000000000000002D00000000000000
310
000000F500F5F5F50000000000000000000000000000000000000000000000000000000000000000000000000000000000000000000000000000000000000000000000000000000000000000000000000000000000000000000000000000000000000000000000000000000000000000000000000000000000000000000000
310
00000000000000000000000000000000000000000000000000000000000000000000000000000000000000000000000000000000000000000000000000000000000000000000000000000000000000000000000000000000000000000000000000000000000000000000000000F5F500F500000000000000002D0000000000
310
00000000F500F5F50000000000000000000000000000000000000000000000000000000000000000000000000000000000000000000000000000000000000000000000000000000000000000000000000000000000000000000000000000000000000000000000000000000000000000000000000000000000000000000000
310
0000000000000000000000000000000000000000000000000000000000000000000000000000000000000000000000000000000000000000000000000000000000000000000000000000000000000000000000000000000000000000000000000000000000000000000000000000000000F500F5000000000000002D000000
310
0000000000F500F5F500000000000000000000000000000000000000000000000000000000000000000000000000000000000000000000000000000000000000000000000000000000000000000000000000000000000000000000000000000000000000000000000000000000000000000000000000000000000000000000
310
00000000000000000000000000000000000000000000000000000000000000000000000000000000000000000000000000000000000000000000000000000000000000000000000000000000000000000000000000000000000000000000000000000000000000000000000000000000000000F5F500F50000000000002D00
310
0000000000F5F500F5F5000000000000000000000000000000000000000000000000000000000000000000000000000000000000000000000000000000000000000000000000000000000000000000000000000000000000000000000000000000000000000000000000000000000000000000000000000000000000000000
310
000000000000000000000000000000000000000000000000000000000000000000000000000000000000000000000000000000000000000000000000000000000000000000000000000000000000000000000000000000000000000000000000000000000000000000000000000000000000000000F500F500F5F5F5000000
310
2D00000000F5F50000F500F500000000000000000000000000000000000000000000000000000000000000000000000000000000000000000000000000000000000000000000000000000000000000000000000000000000000000000000000000000000000000000000000000000000000000000000000000000000000000
310
0000000000000000000000000000000000000000000000000000000000000000000000000000000000000000000000000000000000000000000000000000000000000000000000000000000000000000000000000000000000000000000000000000000000000000000000000000000000000000000000F50000F5000000F5
310
F5F52DF5F5F5F5000000F50000F50000000000000000000000000000000000000000000000000000000000000000000000000000000000000000000000000000000000000000000000000000000000000000000000000000000000000000000000000000000000000000000000000000000000000000000000000000000000
310
00000000000000000000000000000000000000000000000000000000000000000000000000000000000000000000000000000000000000000000000000000000000000000000000000000000000000000000000000000000000000000000000000000000000000000000000000000000000000000000000000F50000F5F5F5
310
F50000002D00000000F5F5F5000000F5000000000000000000000000000000000000000000000000000000000000000000000000000000000000000000000000000000000000000000000000000000000000000000000000000000000000000000000000000000000000000000000000000000000000000000000000000000
310
00000000000000000000000000000000000000000000000000000000000000000000000000000000000000000000000000000000000000000000000000000000000000000000000000000000000000000000000000000000000000000000000000000000000000000000000000000000000000000000000000000000F5F500
310
000000F5F5F52DF5F5F5F5000000F5F5F50000000000000000000000000000000000000000000000000000000000000000000000000000000000000000000000000000000000000000000000000000000000000000000000000000000000000000000000000000000000000000000000000000000000000000000000000000
310
00000000000000000000000000000000000000000000000000000000000000000000000000000000000000000000000000000000000000000000000000000000000000000000000000000000000000000000000000000000000000000000000000000000000000000000000000000000000000000000000000000000000000
310
000000000000F5002D00F50000000000000000000000000000000000000000000000000000000000000000000000000000000000000000000000000000000000000000000000000000000000000000000000000000000000000000000000000000000000000000000000000000000000000000000000000000000000000000
310
00000000000000000000000000000000000000000000000000000000000000000000000000000000000000000000000000000000000000000000000000000000000000000000000000000000000000000000000000000000000000000000000000000000000000000000000000000000000000000000000000000000000000
310
000000000000000000F52D00F5000000000000000000000000000000000000000000000000000000000000000000000000000000000000000000000000000000000000000000000000000000000000000000000000000000000000000000000000000000000000000000000000000000000000000000000000000000000000
310
00000000000000000000000000000000000000000000000000000000000000000000000000000000000000000000000000000000000000000000000000000000000000000000000000000000000000000000000000000000000000000000000000000000000000000000000000000000000000000000000000000000000000
310
0000000000000000000000F52DF5F500000000000000000000000000000000000000000000000000000000000000000000000000000000000000000000000000000000000000000000000000000000000000000000000000000000000000000000000000000000000000000000000000000000000000000000000000000000
310
00000000000000000000000000000000000000000000000000000000000000000000000000000000000000000000000000000000000000000000000000000000000000000000000000000000000000000000000000000000000000000000000000000000000000000000000000000000000000000000000000000000000000
310
00000000000000000000000000002D00000000000000000000000000000000000000000000000000000000000000000000000000000000000000000000000000000000000000000000000000000000000000000000000000000000000000000000000000000000000000000000000000000000000000000000000000000000
310
00000000000000000000000000000000000000000000000000000000000000000000000000000000000000000000000000000000000000000000000000000000000000000000000000000000000000000000000000000000000000000000000000000000000000000000000000000000000000000000000000000000000000
310
000000000000000000000000000000002D0000000000000000000000000000000000000000000000000000000000000000000000000000000000000000000000000000000000000000000000000000000000000000000000000000000000000000000000000000000000000000000000000000000000000000000000000000
310
00000000000000000000000000000000000000000000000000000000000000000000000000000000
  0
XRECORD
  5
4481
102
{ACAD_REACTORS
330
4480
102
}
330
4480
100
AcDbXrecord
280
     1
102
SHADEPLOT
 70
     0
102
SHADEPLOTRESLEVEL
 70
     2
102
SHADEPLOTCUSTOMDPI
 70
   300
  0
XRECORD
  5
4484
102
{ACAD_REACTORS
330
4483
102
}
330
4483
100
AcDbXrecord
280
     1
102
SHADEPLOT
 70
     0
102
SHADEPLOTRESLEVEL
 70
     2
102
SHADEPLOTCUSTOMDPI
 70
   300
  0
XRECORD
  5
4488
102
{ACAD_REACTORS
330
4487
102
}
330
4487
100
AcDbXrecord
280
     1
102
MATERIAL
148
0.0
149
0.0
149
0.0
 93
        0
 94
       63
282
     0
 72
     1
 77
     1
171
     1
175
     1
179
     1
273
     0
  0
XRECORD
  5
448A
102
{ACAD_REACTORS
330
4489
102
}
330
4489
100
AcDbXrecord
280
     1
102
MATERIAL
148
0.0
149
0.0
149
0.0
 93
        0
 94
       63
282
     0
 72
     1
 77
     1
171
     1
175
     1
179
     1
273
     0
  0
XRECORD
  5
4486
102
{ACAD_REACTORS
330
4485
102
}
330
4485
100
AcDbXrecord
280
     1
102
MATERIAL
148
0.0
149
0.0
149
0.0
 93
        0
 94
       63
282
     0
 72
     1
 77
     1
171
     1
175
     1
179
     1
273
     0
  0
CELLSTYLEMAP
  5
447B
102
{ACAD_REACTORS
330
334F
102
}
330
334F
100
AcDbCellStyleMap
 90
        3
300
CELLSTYLE
  1
TABLEFORMAT_BEGIN
 90
        5
170
     1
 91
        0
 92
    32768
 62
   257
 93
        1
300
CONTENTFORMAT
  1
CONTENTFORMAT_BEGIN
 90
        0
 91
        0
 92
      512
 93
        0
300

 40
0.0
140
1.0
 94
        5
 62
     0
340
11
144
6.0
309
CONTENTFORMAT_END
171
     1
301
MARGIN
  1
CELLMARGIN_BEGIN
 40
1.5
 40
1.5
 40
1.5
 40
1.5
 40
0.18
 40
0.18
309
CELLMARGIN_END
 94
        6
 95
        1
302
GRIDFORMAT
  1
GRIDFORMAT_BEGIN
 90
        0
 91
        1
 62
     0
 92
       -2
340
0
 93
        0
 40
0.045
309
GRIDFORMAT_END
 95
        2
302
GRIDFORMAT
  1
GRIDFORMAT_BEGIN
 90
        0
 91
        1
 62
     0
 92
       -2
340
0
 93
        0
 40
0.045
309
GRIDFORMAT_END
 95
        4
302
GRIDFORMAT
  1
GRIDFORMAT_BEGIN
 90
        0
 91
        1
 62
     0
 92
       -2
340
0
 93
        0
 40
0.045
309
GRIDFORMAT_END
 95
        8
302
GRIDFORMAT
  1
GRIDFORMAT_BEGIN
 90
        0
 91
        1
 62
     0
 92
       -2
340
0
 93
        0
 40
0.045
309
GRIDFORMAT_END
 95
       16
302
GRIDFORMAT
  1
GRIDFORMAT_BEGIN
 90
        0
 91
        1
 62
     0
 92
       -2
340
0
 93
        0
 40
0.045
309
GRIDFORMAT_END
 95
       32
302
GRIDFORMAT
  1
GRIDFORMAT_BEGIN
 90
        0
 91
        1
 62
     0
 92
       -2
340
0
 93
        0
 40
0.045
309
GRIDFORMAT_END
309
TABLEFORMAT_END
  1
CELLSTYLE_BEGIN
 90
        1
 91
        1
300
_TITLE
309
CELLSTYLE_END
300
CELLSTYLE
  1
TABLEFORMAT_BEGIN
 90
        5
170
     1
 91
        0
 92
        0
 62
   257
 93
        1
300
CONTENTFORMAT
  1
CONTENTFORMAT_BEGIN
 90
        0
 91
        0
 92
      512
 93
        0
300

 40
0.0
140
1.0
 94
        5
 62
     0
340
11
144
4.5
309
CONTENTFORMAT_END
171
     1
301
MARGIN
  1
CELLMARGIN_BEGIN
 40
1.5
 40
1.5
 40
1.5
 40
1.5
 40
0.18
 40
0.18
309
CELLMARGIN_END
 94
        6
 95
        1
302
GRIDFORMAT
  1
GRIDFORMAT_BEGIN
 90
        0
 91
        1
 62
     0
 92
       -2
340
0
 93
        0
 40
0.045
309
GRIDFORMAT_END
 95
        2
302
GRIDFORMAT
  1
GRIDFORMAT_BEGIN
 90
        0
 91
        1
 62
     0
 92
       -2
340
0
 93
        0
 40
0.045
309
GRIDFORMAT_END
 95
        4
302
GRIDFORMAT
  1
GRIDFORMAT_BEGIN
 90
        0
 91
        1
 62
     0
 92
       -2
340
0
 93
        0
 40
0.045
309
GRIDFORMAT_END
 95
        8
302
GRIDFORMAT
  1
GRIDFORMAT_BEGIN
 90
        0
 91
        1
 62
     0
 92
       -2
340
0
 93
        0
 40
0.045
309
GRIDFORMAT_END
 95
       16
302
GRIDFORMAT
  1
GRIDFORMAT_BEGIN
 90
        0
 91
        1
 62
     0
 92
       -2
340
0
 93
        0
 40
0.045
309
GRIDFORMAT_END
 95
       32
302
GRIDFORMAT
  1
GRIDFORMAT_BEGIN
 90
        0
 91
        1
 62
     0
 92
       -2
340
0
 93
        0
 40
0.045
309
GRIDFORMAT_END
309
TABLEFORMAT_END
  1
CELLSTYLE_BEGIN
 90
        2
 91
        1
300
_HEADER
309
CELLSTYLE_END
300
CELLSTYLE
  1
TABLEFORMAT_BEGIN
 90
        5
170
     1
 91
        0
 92
        0
 62
   257
 93
        1
300
CONTENTFORMAT
  1
CONTENTFORMAT_BEGIN
 90
        0
 91
        0
 92
      512
 93
        0
300

 40
0.0
140
1.0
 94
        2
 62
     0
340
11
144
4.5
309
CONTENTFORMAT_END
171
     1
301
MARGIN
  1
CELLMARGIN_BEGIN
 40
1.5
 40
1.5
 40
1.5
 40
1.5
 40
0.18
 40
0.18
309
CELLMARGIN_END
 94
        6
 95
        1
302
GRIDFORMAT
  1
GRIDFORMAT_BEGIN
 90
        0
 91
        1
 62
     0
 92
       -2
340
0
 93
        0
 40
0.045
309
GRIDFORMAT_END
 95
        2
302
GRIDFORMAT
  1
GRIDFORMAT_BEGIN
 90
        0
 91
        1
 62
     0
 92
       -2
340
0
 93
        0
 40
0.045
309
GRIDFORMAT_END
 95
        4
302
GRIDFORMAT
  1
GRIDFORMAT_BEGIN
 90
        0
 91
        1
 62
     0
 92
       -2
340
0
 93
        0
 40
0.045
309
GRIDFORMAT_END
 95
        8
302
GRIDFORMAT
  1
GRIDFORMAT_BEGIN
 90
        0
 91
        1
 62
     0
 92
       -2
340
0
 93
        0
 40
0.045
309
GRIDFORMAT_END
 95
       16
302
GRIDFORMAT
  1
GRIDFORMAT_BEGIN
 90
        0
 91
        1
 62
     0
 92
       -2
340
0
 93
        0
 40
0.045
309
GRIDFORMAT_END
 95
       32
302
GRIDFORMAT
  1
GRIDFORMAT_BEGIN
 90
        0
 91
        1
 62
     0
 92
       -2
340
0
 93
        0
 40
0.045
309
GRIDFORMAT_END
309
TABLEFORMAT_END
  1
CELLSTYLE_BEGIN
 90
        3
 91
        2
300
_DATA
309
CELLSTYLE_END
  0
XRECORD
  5
44AB
102
{ACAD_REACTORS
330
334F
102
}
330
334F
100
AcDbXrecord
280
     1
102
ACAD_ROUNDTRIP_PRE2007_TABLESTYLE
 90
      512
 91
        0
  1

 92
      512
 93
        0
  2

 94
      512
 95
        0
  3

  0
XRECORD
  5
4496
102
{ACAD_REACTORS
330
4495
102
}
330
4495
100
AcDbXrecord
280
     1
102
RTVSPropertyOp0
 70
     1
102
RTVSPropertyOp1
 70
     1
102
RTVSPropertyOp2
 70
     1
102
RTVSPropertyOp3
 70
     1
102
RTVSPropertyOp4
 70
     1
102
RTVSPropertyOp5
 70
     1
102
RTVSPropertyOp6
 70
     1
102
RTVSPropertyOp7
 70
     1
102
RTVSPropertyOp8
 70
     1
102
RTVSPropertyOp9
 70
     1
102
RTVSPropertyOp10
 70
     1
102
RTVSPropertyOp11
 70
     1
102
RTVSPropertyOp12
 70
     1
102
RTVSPropertyOp13
 70
     1
102
RTVSPropertyOp14
 70
     1
102
RTVSPropertyOp15
 70
     1
102
RTVSPropertyOp16
 70
     1
102
RTVSPropertyOp17
 70
     1
102
RTVSPropertyOp18
 70
     1
102
RTVSPropertyOp19
 70
     1
102
RTVSPropertyOp20
 70
     1
102
RTVSPropertyOp21
 70
     1
102
RTVSPropertyOp22
 70
     1
102
RTVSPropertyOp23
 70
     1
102
RTVSPropertyOp24
 70
     1
102
RTVSPropertyOp25
 70
     1
102
RTVSPropertyOp26
 70
     1
102
RTVSPropertyOp27
 70
     1
102
RTVSPropertyOp28
 70
     1
102
RTVSPropertyOp29
 70
     1
102
RTVSPropertyOp30
 70
     1
102
RTVSPropertyOp31
 70
     1
102
RTVSPropertyOp32
 70
     1
  0
XRECORD
  5
449A
102
{ACAD_REACTORS
330
4499
102
}
330
4499
100
AcDbXrecord
280
     1
102
RTVSPropertyOp0
 70
     1
102
RTVSPropertyOp1
 70
     1
102
RTVSPropertyOp2
 70
     1
102
RTVSPropertyOp3
 70
     1
102
RTVSPropertyOp4
 70
     1
102
RTVSPropertyOp5
 70
     1
102
RTVSPropertyOp6
 70
     1
102
RTVSPropertyOp7
 70
     1
102
RTVSPropertyOp8
 70
     1
102
RTVSPropertyOp9
 70
     1
102
RTVSPropertyOp10
 70
     1
102
RTVSPropertyOp11
 70
     1
102
RTVSPropertyOp12
 70
     1
102
RTVSPropertyOp13
 70
     1
102
RTVSPropertyOp14
 70
     1
102
RTVSPropertyOp15
 70
     1
102
RTVSPropertyOp16
 70
     1
102
RTVSPropertyOp17
 70
     1
102
RTVSPropertyOp18
 70
     1
102
RTVSPropertyOp19
 70
     1
102
RTVSPropertyOp20
 70
     1
102
RTVSPropertyOp21
 70
     1
102
RTVSPropertyOp22
 70
     1
102
RTVSPropertyOp23
 70
     1
102
RTVSPropertyOp24
 70
     1
102
RTVSPropertyOp25
 70
     1
102
RTVSPropertyOp26
 70
     1
102
RTVSPropertyOp27
 70
     1
102
RTVSPropertyOp28
 70
     1
102
RTVSPropertyOp29
 70
     1
102
RTVSPropertyOp30
 70
     1
102
RTVSPropertyOp31
 70
     1
102
RTVSPropertyOp32
 70
     1
  0
XRECORD
  5
4498
102
{ACAD_REACTORS
330
4497
102
}
330
4497
100
AcDbXrecord
280
     1
102
RTVSPropertyOp0
 70
     1
102
RTVSPropertyOp1
 70
     1
102
RTVSPropertyOp2
 70
     1
102
RTVSPropertyOp3
 70
     1
102
RTVSPropertyOp4
 70
     1
102
RTVSPropertyOp5
 70
     1
102
RTVSPropertyOp6
 70
     1
102
RTVSPropertyOp7
 70
     1
102
RTVSPropertyOp8
 70
     1
102
RTVSPropertyOp9
 70
     1
102
RTVSPropertyOp10
 70
     1
102
RTVSPropertyOp11
 70
     1
102
RTVSPropertyOp12
 70
     1
102
RTVSPropertyOp13
 70
     1
102
RTVSPropertyOp14
 70
     1
102
RTVSPropertyOp15
 70
     1
102
RTVSPropertyOp16
 70
     1
102
RTVSPropertyOp17
 70
     1
102
RTVSPropertyOp18
 70
     1
102
RTVSPropertyOp19
 70
     1
102
RTVSPropertyOp20
 70
     1
102
RTVSPropertyOp21
 70
     1
102
RTVSPropertyOp22
 70
     1
102
RTVSPropertyOp23
 70
     1
102
RTVSPropertyOp24
 70
     1
102
RTVSPropertyOp25
 70
     1
102
RTVSPropertyOp26
 70
     1
102
RTVSPropertyOp27
 70
     1
102
RTVSPropertyOp28
 70
     1
102
RTVSPropertyOp29
 70
     1
102
RTVSPropertyOp30
 70
     1
102
RTVSPropertyOp31
 70
     1
102
RTVSPropertyOp32
 70
     1
  0
XRECORD
  5
4494
102
{ACAD_REACTORS
330
4493
102
}
330
4493
100
AcDbXrecord
280
     1
102
RTVSPropertyOp0
 70
     1
102
RTVSPropertyOp1
 70
     1
102
RTVSPropertyOp2
 70
     1
102
RTVSPropertyOp3
 70
     1
102
RTVSPropertyOp4
 70
     1
102
RTVSPropertyOp5
 70
     1
102
RTVSPropertyOp6
 70
     1
102
RTVSPropertyOp7
 70
     1
102
RTVSPropertyOp8
 70
     1
102
RTVSPropertyOp9
 70
     1
102
RTVSPropertyOp10
 70
     1
102
RTVSPropertyOp11
 70
     1
102
RTVSPropertyOp12
 70
     1
102
RTVSPropertyOp13
 70
     1
102
RTVSPropertyOp14
 70
     1
102
RTVSPropertyOp15
 70
     1
102
RTVSPropertyOp16
 70
     1
102
RTVSPropertyOp17
 70
     1
102
RTVSPropertyOp18
 70
     1
102
RTVSPropertyOp19
 70
     1
102
RTVSPropertyOp20
 70
     1
102
RTVSPropertyOp21
 70
     1
102
RTVSPropertyOp22
 70
     1
102
RTVSPropertyOp23
 70
     1
102
RTVSPropertyOp24
 70
     1
102
RTVSPropertyOp25
 70
     1
102
RTVSPropertyOp26
 70
     1
102
RTVSPropertyOp27
 70
     1
102
RTVSPropertyOp28
 70
     1
102
RTVSPropertyOp29
 70
     1
102
RTVSPropertyOp30
 70
     1
102
RTVSPropertyOp31
 70
     1
102
RTVSPropertyOp32
 70
     1
  0
XRECORD
  5
44A2
102
{ACAD_REACTORS
330
44A1
102
}
330
44A1
100
AcDbXrecord
280
     1
102
RTVSPropertyOp0
 70
     1
102
RTVSPropertyOp1
 70
     1
102
RTVSPropertyOp2
 70
     1
102
RTVSPropertyOp3
 70
     1
102
RTVSPropertyOp4
 70
     1
102
RTVSPropertyOp5
 70
     1
102
RTVSPropertyOp6
 70
     1
102
RTVSPropertyOp7
 70
     1
102
RTVSPropertyOp8
 70
     1
102
RTVSPropertyOp9
 70
     1
102
RTVSPropertyOp10
 70
     1
102
RTVSPropertyOp11
 70
     1
102
RTVSPropertyOp12
 70
     1
102
RTVSPropertyOp13
 70
     1
102
RTVSPropertyOp14
 70
     1
102
RTVSPropertyOp15
 70
     1
102
RTVSPropertyOp16
 70
     1
102
RTVSPropertyOp17
 70
     1
102
RTVSPropertyOp18
 70
     1
102
RTVSPropertyOp19
 70
     1
102
RTVSPropertyOp20
 70
     1
102
RTVSPropertyOp21
 70
     1
102
RTVSPropertyOp22
 70
     1
102
RTVSPropertyOp23
 70
     1
102
RTVSPropertyOp24
 70
     1
102
RTVSPropertyOp25
 70
     1
102
RTVSPropertyOp26
 70
     1
102
RTVSPropertyOp27
 70
     1
102
RTVSPropertyOp28
 70
     1
102
RTVSPropertyOp29
 70
     1
102
RTVSPropertyOp30
 70
     1
102
RTVSPropertyOp31
 70
     1
102
RTVSPropertyOp32
 70
     1
  0
XRECORD
  5
44AA
102
{ACAD_REACTORS
330
44A9
102
}
330
44A9
100
AcDbXrecord
280
     1
102
RTVSPropertyOp0
 70
     1
102
RTVSPropertyOp1
 70
     1
102
RTVSPropertyOp2
 70
     1
102
RTVSPropertyOp3
 70
     1
102
RTVSPropertyOp4
 70
     1
102
RTVSPropertyOp5
 70
     1
102
RTVSPropertyOp6
 70
     1
102
RTVSPropertyOp7
 70
     1
102
RTVSPropertyOp8
 70
     1
102
RTVSPropertyOp9
 70
     1
102
RTVSPropertyOp10
 70
     1
102
RTVSPropertyOp11
 70
     1
102
RTVSPropertyOp12
 70
     1
102
RTVSPropertyOp13
 70
     1
102
RTVSPropertyOp14
 70
     1
102
RTVSPropertyOp15
 70
     1
102
RTVSPropertyOp16
 70
     1
102
RTVSPropertyOp17
 70
     1
102
RTVSPropertyOp18
 70
     1
102
RTVSPropertyOp19
 70
     1
102
RTVSPropertyOp20
 70
     1
102
RTVSPropertyOp21
 70
     1
102
RTVSPropertyOp22
 70
     1
102
RTVSPropertyOp23
 70
     1
102
RTVSPropertyOp24
 70
     1
102
RTVSPropertyOp25
 70
     1
102
RTVSPropertyOp26
 70
     1
102
RTVSPropertyOp27
 70
     1
102
RTVSPropertyOp28
 70
     1
102
RTVSPropertyOp29
 70
     1
102
RTVSPropertyOp30
 70
     1
102
RTVSPropertyOp31
 70
     1
102
RTVSPropertyOp32
 70
     1
  0
XRECORD
  5
449C
102
{ACAD_REACTORS
330
449B
102
}
330
449B
100
AcDbXrecord
280
     1
102
RTVSPropertyOp0
 70
     1
102
RTVSPropertyOp1
 70
     1
102
RTVSPropertyOp2
 70
     1
102
RTVSPropertyOp3
 70
     1
102
RTVSPropertyOp4
 70
     1
102
RTVSPropertyOp5
 70
     1
102
RTVSPropertyOp6
 70
     1
102
RTVSPropertyOp7
 70
     1
102
RTVSPropertyOp8
 70
     1
102
RTVSPropertyOp9
 70
     1
102
RTVSPropertyOp10
 70
     1
102
RTVSPropertyOp11
 70
     1
102
RTVSPropertyOp12
 70
     1
102
RTVSPropertyOp13
 70
     1
102
RTVSPropertyOp14
 70
     1
102
RTVSPropertyOp15
 70
     1
102
RTVSPropertyOp16
 70
     1
102
RTVSPropertyOp17
 70
     1
102
RTVSPropertyOp18
 70
     1
102
RTVSPropertyOp19
 70
     1
102
RTVSPropertyOp20
 70
     1
102
RTVSPropertyOp21
 70
     1
102
RTVSPropertyOp22
 70
     1
102
RTVSPropertyOp23
 70
     1
102
RTVSPropertyOp24
 70
     1
102
RTVSPropertyOp25
 70
     1
102
RTVSPropertyOp26
 70
     1
102
RTVSPropertyOp27
 70
     1
102
RTVSPropertyOp28
 70
     1
102
RTVSPropertyOp29
 70
     1
102
RTVSPropertyOp30
 70
     1
102
RTVSPropertyOp31
 70
     1
102
RTVSPropertyOp32
 70
     1
  0
XRECORD
  5
44A0
102
{ACAD_REACTORS
330
449F
102
}
330
449F
100
AcDbXrecord
280
     1
102
RTVSPropertyOp0
 70
     1
102
RTVSPropertyOp1
 70
     1
102
RTVSPropertyOp2
 70
     1
102
RTVSPropertyOp3
 70
     1
102
RTVSPropertyOp4
 70
     1
102
RTVSPropertyOp5
 70
     1
102
RTVSPropertyOp6
 70
     1
102
RTVSPropertyOp7
 70
     1
102
RTVSPropertyOp8
 70
     1
102
RTVSPropertyOp9
 70
     1
102
RTVSPropertyOp10
 70
     1
102
RTVSPropertyOp11
 70
     1
102
RTVSPropertyOp12
 70
     1
102
RTVSPropertyOp13
 70
     1
102
RTVSPropertyOp14
 70
     1
102
RTVSPropertyOp15
 70
     1
102
RTVSPropertyOp16
 70
     1
102
RTVSPropertyOp17
 70
     1
102
RTVSPropertyOp18
 70
     1
102
RTVSPropertyOp19
 70
     1
102
RTVSPropertyOp20
 70
     1
102
RTVSPropertyOp21
 70
     1
102
RTVSPropertyOp22
 70
     1
102
RTVSPropertyOp23
 70
     1
102
RTVSPropertyOp24
 70
     1
102
RTVSPropertyOp25
 70
     1
102
RTVSPropertyOp26
 70
     1
102
RTVSPropertyOp27
 70
     1
102
RTVSPropertyOp28
 70
     1
102
RTVSPropertyOp29
 70
     1
102
RTVSPropertyOp30
 70
     1
102
RTVSPropertyOp31
 70
     1
102
RTVSPropertyOp32
 70
     1
  0
XRECORD
  5
44BF
102
{ACAD_REACTORS
330
44BE
102
}
330
44BE
100
AcDbXrecord
280
     1
102
RTVSPropertyOp0
 70
     0
102
RTVSPropertyOp1
 70
     0
102
RTVSPropertyOp2
 70
     0
102
RTVSPropertyOp3
 70
     0
102
RTVSPropertyOp4
 70
     0
102
RTVSPropertyOp5
 70
     0
102
RTVSPropertyOp6
 70
     0
102
RTVSPropertyOp7
 70
     0
102
RTVSPropertyOp8
 70
     0
102
RTVSPropertyOp9
 70
     0
102
RTVSPropertyOp10
 70
     0
102
RTVSPropertyOp11
 70
     0
102
RTVSPropertyOp12
 70
     0
102
RTVSPropertyOp13
 70
     0
102
RTVSPropertyOp14
 70
     2
102
RTVSPropertyOp15
 70
     0
102
RTVSPropertyOp16
 70
     0
102
RTVSPropertyOp17
 70
     0
102
RTVSPropertyOp18
 70
     0
102
RTVSPropertyOp19
 70
     0
102
RTVSPropertyOp20
 70
     0
102
RTVSPropertyOp21
 70
     0
102
RTVSPropertyOp22
 70
     0
102
RTVSPropertyOp23
 70
     0
102
RTVSPropertyOp24
 70
     0
102
RTVSPropertyOp25
 70
     0
102
RTVSPropertyOp26
 70
     0
102
RTVSPropertyOp27
 70
     0
102
RTVSPropertyOp28
 70
     0
102
RTVSPropertyOp29
 70
     0
102
RTVSPropertyOp30
 70
     0
102
RTVSPropertyOp31
 70
     0
102
RTVSPropertyOp32
 70
     0
  0
XRECORD
  5
44A8
102
{ACAD_REACTORS
330
44A7
102
}
330
44A7
100
AcDbXrecord
280
     1
102
RTVSPropertyOp0
 70
     1
102
RTVSPropertyOp1
 70
     1
102
RTVSPropertyOp2
 70
     1
102
RTVSPropertyOp3
 70
     1
102
RTVSPropertyOp4
 70
     1
102
RTVSPropertyOp5
 70
     1
102
RTVSPropertyOp6
 70
     1
102
RTVSPropertyOp7
 70
     1
102
RTVSPropertyOp8
 70
     1
102
RTVSPropertyOp9
 70
     1
102
RTVSPropertyOp10
 70
     1
102
RTVSPropertyOp11
 70
     1
102
RTVSPropertyOp12
 70
     1
102
RTVSPropertyOp13
 70
     1
102
RTVSPropertyOp14
 70
     1
102
RTVSPropertyOp15
 70
     1
102
RTVSPropertyOp16
 70
     1
102
RTVSPropertyOp17
 70
     1
102
RTVSPropertyOp18
 70
     1
102
RTVSPropertyOp19
 70
     1
102
RTVSPropertyOp20
 70
     1
102
RTVSPropertyOp21
 70
     1
102
RTVSPropertyOp22
 70
     1
102
RTVSPropertyOp23
 70
     1
102
RTVSPropertyOp24
 70
     1
102
RTVSPropertyOp25
 70
     1
102
RTVSPropertyOp26
 70
     1
102
RTVSPropertyOp27
 70
     1
102
RTVSPropertyOp28
 70
     1
102
RTVSPropertyOp29
 70
     1
102
RTVSPropertyOp30
 70
     1
102
RTVSPropertyOp31
 70
     1
102
RTVSPropertyOp32
 70
     1
  0
XRECORD
  5
448C
102
{ACAD_REACTORS
330
448B
102
}
330
448B
100
AcDbXrecord
280
     1
102
RTVSPropertyOp0
 70
     1
102
RTVSPropertyOp1
 70
     1
102
RTVSPropertyOp2
 70
     1
102
RTVSPropertyOp3
 70
     1
102
RTVSPropertyOp4
 70
     1
102
RTVSPropertyOp5
 70
     1
102
RTVSPropertyOp6
 70
     1
102
RTVSPropertyOp7
 70
     1
102
RTVSPropertyOp8
 70
     1
102
RTVSPropertyOp9
 70
     1
102
RTVSPropertyOp10
 70
     1
102
RTVSPropertyOp11
 70
     1
102
RTVSPropertyOp12
 70
     1
102
RTVSPropertyOp13
 70
     1
102
RTVSPropertyOp14
 70
     1
102
RTVSPropertyOp15
 70
     1
102
RTVSPropertyOp16
 70
     1
102
RTVSPropertyOp17
 70
     1
102
RTVSPropertyOp18
 70
     1
102
RTVSPropertyOp19
 70
     1
102
RTVSPropertyOp20
 70
     1
102
RTVSPropertyOp21
 70
     1
102
RTVSPropertyOp22
 70
     1
102
RTVSPropertyOp23
 70
     1
102
RTVSPropertyOp24
 70
     1
102
RTVSPropertyOp25
 70
     1
102
RTVSPropertyOp26
 70
     1
102
RTVSPropertyOp27
 70
     1
102
RTVSPropertyOp28
 70
     1
102
RTVSPropertyOp29
 70
     1
102
RTVSPropertyOp30
 70
     1
102
RTVSPropertyOp31
 70
     1
102
RTVSPropertyOp32
 70
     1
  0
XRECORD
  5
448E
102
{ACAD_REACTORS
330
448D
102
}
330
448D
100
AcDbXrecord
280
     1
102
RTVSPropertyOp0
 70
     1
102
RTVSPropertyOp1
 70
     1
102
RTVSPropertyOp2
 70
     1
102
RTVSPropertyOp3
 70
     1
102
RTVSPropertyOp4
 70
     1
102
RTVSPropertyOp5
 70
     1
102
RTVSPropertyOp6
 70
     1
102
RTVSPropertyOp7
 70
     1
102
RTVSPropertyOp8
 70
     1
102
RTVSPropertyOp9
 70
     1
102
RTVSPropertyOp10
 70
     1
102
RTVSPropertyOp11
 70
     1
102
RTVSPropertyOp12
 70
     1
102
RTVSPropertyOp13
 70
     1
102
RTVSPropertyOp14
 70
     1
102
RTVSPropertyOp15
 70
     1
102
RTVSPropertyOp16
 70
     1
102
RTVSPropertyOp17
 70
     1
102
RTVSPropertyOp18
 70
     1
102
RTVSPropertyOp19
 70
     1
102
RTVSPropertyOp20
 70
     1
102
RTVSPropertyOp21
 70
     1
102
RTVSPropertyOp22
 70
     1
102
RTVSPropertyOp23
 70
     1
102
RTVSPropertyOp24
 70
     1
102
RTVSPropertyOp25
 70
     1
102
RTVSPropertyOp26
 70
     1
102
RTVSPropertyOp27
 70
     1
102
RTVSPropertyOp28
 70
     1
102
RTVSPropertyOp29
 70
     1
102
RTVSPropertyOp30
 70
     1
102
RTVSPropertyOp31
 70
     1
102
RTVSPropertyOp32
 70
     1
  0
XRECORD
  5
4490
102
{ACAD_REACTORS
330
448F
102
}
330
448F
100
AcDbXrecord
280
     1
102
RTVSPropertyOp0
 70
     1
102
RTVSPropertyOp1
 70
     1
102
RTVSPropertyOp2
 70
     1
102
RTVSPropertyOp3
 70
     1
102
RTVSPropertyOp4
 70
     1
102
RTVSPropertyOp5
 70
     1
102
RTVSPropertyOp6
 70
     1
102
RTVSPropertyOp7
 70
     1
102
RTVSPropertyOp8
 70
     1
102
RTVSPropertyOp9
 70
     1
102
RTVSPropertyOp10
 70
     1
102
RTVSPropertyOp11
 70
     1
102
RTVSPropertyOp12
 70
     1
102
RTVSPropertyOp13
 70
     1
102
RTVSPropertyOp14
 70
     1
102
RTVSPropertyOp15
 70
     1
102
RTVSPropertyOp16
 70
     1
102
RTVSPropertyOp17
 70
     1
102
RTVSPropertyOp18
 70
     1
102
RTVSPropertyOp19
 70
     1
102
RTVSPropertyOp20
 70
     1
102
RTVSPropertyOp21
 70
     1
102
RTVSPropertyOp22
 70
     1
102
RTVSPropertyOp23
 70
     1
102
RTVSPropertyOp24
 70
     1
102
RTVSPropertyOp25
 70
     1
102
RTVSPropertyOp26
 70
     1
102
RTVSPropertyOp27
 70
     1
102
RTVSPropertyOp28
 70
     1
102
RTVSPropertyOp29
 70
     1
102
RTVSPropertyOp30
 70
     1
102
RTVSPropertyOp31
 70
     1
102
RTVSPropertyOp32
 70
     1
  0
XRECORD
  5
4492
102
{ACAD_REACTORS
330
4491
102
}
330
4491
100
AcDbXrecord
280
     1
102
RTVSPropertyOp0
 70
     1
102
RTVSPropertyOp1
 70
     1
102
RTVSPropertyOp2
 70
     1
102
RTVSPropertyOp3
 70
     1
102
RTVSPropertyOp4
 70
     1
102
RTVSPropertyOp5
 70
     1
102
RTVSPropertyOp6
 70
     1
102
RTVSPropertyOp7
 70
     1
102
RTVSPropertyOp8
 70
     1
102
RTVSPropertyOp9
 70
     1
102
RTVSPropertyOp10
 70
     1
102
RTVSPropertyOp11
 70
     1
102
RTVSPropertyOp12
 70
     1
102
RTVSPropertyOp13
 70
     1
102
RTVSPropertyOp14
 70
     1
102
RTVSPropertyOp15
 70
     1
102
RTVSPropertyOp16
 70
     1
102
RTVSPropertyOp17
 70
     1
102
RTVSPropertyOp18
 70
     1
102
RTVSPropertyOp19
 70
     1
102
RTVSPropertyOp20
 70
     1
102
RTVSPropertyOp21
 70
     1
102
RTVSPropertyOp22
 70
     1
102
RTVSPropertyOp23
 70
     1
102
RTVSPropertyOp24
 70
     1
102
RTVSPropertyOp25
 70
     1
102
RTVSPropertyOp26
 70
     1
102
RTVSPropertyOp27
 70
     1
102
RTVSPropertyOp28
 70
     1
102
RTVSPropertyOp29
 70
     1
102
RTVSPropertyOp30
 70
     1
102
RTVSPropertyOp31
 70
     1
102
RTVSPropertyOp32
 70
     1
  0
XRECORD
  5
44AF
102
{ACAD_REACTORS
330
44AE
102
}
330
44AE
100
AcDbXrecord
280
     1
102
RTVSPropertyOp0
 70
     1
102
RTVSPropertyOp1
 70
     1
102
RTVSPropertyOp2
 70
     1
102
RTVSPropertyOp3
 70
     1
102
RTVSPropertyOp4
 70
     1
102
RTVSPropertyOp5
 70
     1
102
RTVSPropertyOp6
 70
     1
102
RTVSPropertyOp7
 70
     1
102
RTVSPropertyOp8
 70
     1
102
RTVSPropertyOp9
 70
     1
102
RTVSPropertyOp10
 70
     1
102
RTVSPropertyOp11
 70
     1
102
RTVSPropertyOp12
 70
     1
102
RTVSPropertyOp13
 70
     1
102
RTVSPropertyOp14
 70
     1
102
RTVSPropertyOp15
 70
     1
102
RTVSPropertyOp16
 70
     1
102
RTVSPropertyOp17
 70
     1
102
RTVSPropertyOp18
 70
     1
102
RTVSPropertyOp19
 70
     1
102
RTVSPropertyOp20
 70
     1
102
RTVSPropertyOp21
 70
     1
102
RTVSPropertyOp22
 70
     1
102
RTVSPropertyOp23
 70
     1
102
RTVSPropertyOp24
 70
     1
102
RTVSPropertyOp25
 70
     1
102
RTVSPropertyOp26
 70
     1
102
RTVSPropertyOp27
 70
     1
102
RTVSPropertyOp28
 70
     1
102
RTVSPropertyOp29
 70
     1
102
RTVSPropertyOp30
 70
     1
102
RTVSPropertyOp31
 70
     1
102
RTVSPropertyOp32
 70
     1
  0
XRECORD
  5
44BB
102
{ACAD_REACTORS
330
44BA
102
}
330
44BA
100
AcDbXrecord
280
     1
102
RTVSPropertyOp0
 70
     0
102
RTVSPropertyOp1
 70
     0
102
RTVSPropertyOp2
 70
     0
102
RTVSPropertyOp3
 70
     0
102
RTVSPropertyOp4
 70
     0
102
RTVSPropertyOp5
 70
     0
102
RTVSPropertyOp6
 70
     0
102
RTVSPropertyOp7
 70
     0
102
RTVSPropertyOp8
 70
     0
102
RTVSPropertyOp9
 70
     0
102
RTVSPropertyOp10
 70
     0
102
RTVSPropertyOp11
 70
     0
102
RTVSPropertyOp12
 70
     0
102
RTVSPropertyOp13
 70
     0
102
RTVSPropertyOp14
 70
     2
102
RTVSPropertyOp15
 70
     0
102
RTVSPropertyOp16
 70
     0
102
RTVSPropertyOp17
 70
     0
102
RTVSPropertyOp18
 70
     0
102
RTVSPropertyOp19
 70
     0
102
RTVSPropertyOp20
 70
     0
102
RTVSPropertyOp21
 70
     0
102
RTVSPropertyOp22
 70
     0
102
RTVSPropertyOp23
 70
     0
102
RTVSPropertyOp24
 70
     0
102
RTVSPropertyOp25
 70
     0
102
RTVSPropertyOp26
 70
     0
102
RTVSPropertyOp27
 70
     0
102
RTVSPropertyOp28
 70
     0
102
RTVSPropertyOp29
 70
     0
102
RTVSPropertyOp30
 70
     0
102
RTVSPropertyOp31
 70
     0
102
RTVSPropertyOp32
 70
     0
  0
XRECORD
  5
44A6
102
{ACAD_REACTORS
330
44A5
102
}
330
44A5
100
AcDbXrecord
280
     1
102
RTVSPropertyOp0
 70
     1
102
RTVSPropertyOp1
 70
     1
102
RTVSPropertyOp2
 70
     1
102
RTVSPropertyOp3
 70
     1
102
RTVSPropertyOp4
 70
     1
102
RTVSPropertyOp5
 70
     1
102
RTVSPropertyOp6
 70
     1
102
RTVSPropertyOp7
 70
     1
102
RTVSPropertyOp8
 70
     1
102
RTVSPropertyOp9
 70
     1
102
RTVSPropertyOp10
 70
     1
102
RTVSPropertyOp11
 70
     1
102
RTVSPropertyOp12
 70
     1
102
RTVSPropertyOp13
 70
     1
102
RTVSPropertyOp14
 70
     1
102
RTVSPropertyOp15
 70
     1
102
RTVSPropertyOp16
 70
     1
102
RTVSPropertyOp17
 70
     1
102
RTVSPropertyOp18
 70
     1
102
RTVSPropertyOp19
 70
     1
102
RTVSPropertyOp20
 70
     1
102
RTVSPropertyOp21
 70
     1
102
RTVSPropertyOp22
 70
     1
102
RTVSPropertyOp23
 70
     1
102
RTVSPropertyOp24
 70
     1
102
RTVSPropertyOp25
 70
     1
102
RTVSPropertyOp26
 70
     1
102
RTVSPropertyOp27
 70
     1
102
RTVSPropertyOp28
 70
     1
102
RTVSPropertyOp29
 70
     1
102
RTVSPropertyOp30
 70
     1
102
RTVSPropertyOp31
 70
     1
102
RTVSPropertyOp32
 70
     1
  0
XRECORD
  5
44BD
102
{ACAD_REACTORS
330
44BC
102
}
330
44BC
100
AcDbXrecord
280
     1
102
RTVSPropertyOp0
 70
     0
102
RTVSPropertyOp1
 70
     0
102
RTVSPropertyOp2
 70
     0
102
RTVSPropertyOp3
 70
     0
102
RTVSPropertyOp4
 70
     0
102
RTVSPropertyOp5
 70
     0
102
RTVSPropertyOp6
 70
     0
102
RTVSPropertyOp7
 70
     0
102
RTVSPropertyOp8
 70
     0
102
RTVSPropertyOp9
 70
     0
102
RTVSPropertyOp10
 70
     0
102
RTVSPropertyOp11
 70
     0
102
RTVSPropertyOp12
 70
     0
102
RTVSPropertyOp13
 70
     0
102
RTVSPropertyOp14
 70
     2
102
RTVSPropertyOp15
 70
     0
102
RTVSPropertyOp16
 70
     0
102
RTVSPropertyOp17
 70
     0
102
RTVSPropertyOp18
 70
     0
102
RTVSPropertyOp19
 70
     0
102
RTVSPropertyOp20
 70
     0
102
RTVSPropertyOp21
 70
     0
102
RTVSPropertyOp22
 70
     0
102
RTVSPropertyOp23
 70
     0
102
RTVSPropertyOp24
 70
     0
102
RTVSPropertyOp25
 70
     0
102
RTVSPropertyOp26
 70
     0
102
RTVSPropertyOp27
 70
     0
102
RTVSPropertyOp28
 70
     0
102
RTVSPropertyOp29
 70
     0
102
RTVSPropertyOp30
 70
     0
102
RTVSPropertyOp31
 70
     0
102
RTVSPropertyOp32
 70
     0
  0
XRECORD
  5
449E
102
{ACAD_REACTORS
330
449D
102
}
330
449D
100
AcDbXrecord
280
     1
102
RTVSPropertyOp0
 70
     1
102
RTVSPropertyOp1
 70
     1
102
RTVSPropertyOp2
 70
     1
102
RTVSPropertyOp3
 70
     1
102
RTVSPropertyOp4
 70
     1
102
RTVSPropertyOp5
 70
     1
102
RTVSPropertyOp6
 70
     1
102
RTVSPropertyOp7
 70
     1
102
RTVSPropertyOp8
 70
     1
102
RTVSPropertyOp9
 70
     1
102
RTVSPropertyOp10
 70
     1
102
RTVSPropertyOp11
 70
     1
102
RTVSPropertyOp12
 70
     1
102
RTVSPropertyOp13
 70
     1
102
RTVSPropertyOp14
 70
     1
102
RTVSPropertyOp15
 70
     1
102
RTVSPropertyOp16
 70
     1
102
RTVSPropertyOp17
 70
     1
102
RTVSPropertyOp18
 70
     1
102
RTVSPropertyOp19
 70
     1
102
RTVSPropertyOp20
 70
     1
102
RTVSPropertyOp21
 70
     1
102
RTVSPropertyOp22
 70
     1
102
RTVSPropertyOp23
 70
     1
102
RTVSPropertyOp24
 70
     1
102
RTVSPropertyOp25
 70
     1
102
RTVSPropertyOp26
 70
     1
102
RTVSPropertyOp27
 70
     1
102
RTVSPropertyOp28
 70
     1
102
RTVSPropertyOp29
 70
     1
102
RTVSPropertyOp30
 70
     1
102
RTVSPropertyOp31
 70
     1
102
RTVSPropertyOp32
 70
     1
  0
XRECORD
  5
44B9
102
{ACAD_REACTORS
330
44B8
102
}
330
44B8
100
AcDbXrecord
280
     1
102
RTVSPropertyOp0
 70
     1
102
RTVSPropertyOp1
 70
     1
102
RTVSPropertyOp2
 70
     1
102
RTVSPropertyOp3
 70
     1
102
RTVSPropertyOp4
 70
     1
102
RTVSPropertyOp5
 70
     1
102
RTVSPropertyOp6
 70
     1
102
RTVSPropertyOp7
 70
     1
102
RTVSPropertyOp8
 70
     1
102
RTVSPropertyOp9
 70
     1
102
RTVSPropertyOp10
 70
     1
102
RTVSPropertyOp11
 70
     1
102
RTVSPropertyOp12
 70
     1
102
RTVSPropertyOp13
 70
     1
102
RTVSPropertyOp14
 70
     1
102
RTVSPropertyOp15
 70
     1
102
RTVSPropertyOp16
 70
     1
102
RTVSPropertyOp17
 70
     1
102
RTVSPropertyOp18
 70
     1
102
RTVSPropertyOp19
 70
     1
102
RTVSPropertyOp20
 70
     1
102
RTVSPropertyOp21
 70
     1
102
RTVSPropertyOp22
 70
     1
102
RTVSPropertyOp23
 70
     1
102
RTVSPropertyOp24
 70
     1
102
RTVSPropertyOp25
 70
     1
102
RTVSPropertyOp26
 70
     1
102
RTVSPropertyOp27
 70
     1
102
RTVSPropertyOp28
 70
     1
102
RTVSPropertyOp29
 70
     1
102
RTVSPropertyOp30
 70
     1
102
RTVSPropertyOp31
 70
     1
102
RTVSPropertyOp32
 70
     1
  0
XRECORD
  5
44B7
102
{ACAD_REACTORS
330
44B6
102
}
330
44B6
100
AcDbXrecord
280
     1
102
RTVSPropertyOp0
 70
     1
102
RTVSPropertyOp1
 70
     1
102
RTVSPropertyOp2
 70
     1
102
RTVSPropertyOp3
 70
     1
102
RTVSPropertyOp4
 70
     1
102
RTVSPropertyOp5
 70
     1
102
RTVSPropertyOp6
 70
     1
102
RTVSPropertyOp7
 70
     1
102
RTVSPropertyOp8
 70
     1
102
RTVSPropertyOp9
 70
     1
102
RTVSPropertyOp10
 70
     1
102
RTVSPropertyOp11
 70
     1
102
RTVSPropertyOp12
 70
     1
102
RTVSPropertyOp13
 70
     1
102
RTVSPropertyOp14
 70
     1
102
RTVSPropertyOp15
 70
     1
102
RTVSPropertyOp16
 70
     1
102
RTVSPropertyOp17
 70
     1
102
RTVSPropertyOp18
 70
     1
102
RTVSPropertyOp19
 70
     1
102
RTVSPropertyOp20
 70
     1
102
RTVSPropertyOp21
 70
     1
102
RTVSPropertyOp22
 70
     1
102
RTVSPropertyOp23
 70
     1
102
RTVSPropertyOp24
 70
     1
102
RTVSPropertyOp25
 70
     1
102
RTVSPropertyOp26
 70
     1
102
RTVSPropertyOp27
 70
     1
102
RTVSPropertyOp28
 70
     1
102
RTVSPropertyOp29
 70
     1
102
RTVSPropertyOp30
 70
     1
102
RTVSPropertyOp31
 70
     1
102
RTVSPropertyOp32
 70
     1
  0
XRECORD
  5
44B1
102
{ACAD_REACTORS
330
44B0
102
}
330
44B0
100
AcDbXrecord
280
     1
102
RTVSPropertyOp0
 70
     1
102
RTVSPropertyOp1
 70
     1
102
RTVSPropertyOp2
 70
     1
102
RTVSPropertyOp3
 70
     1
102
RTVSPropertyOp4
 70
     1
102
RTVSPropertyOp5
 70
     1
102
RTVSPropertyOp6
 70
     1
102
RTVSPropertyOp7
 70
     1
102
RTVSPropertyOp8
 70
     1
102
RTVSPropertyOp9
 70
     1
102
RTVSPropertyOp10
 70
     1
102
RTVSPropertyOp11
 70
     1
102
RTVSPropertyOp12
 70
     1
102
RTVSPropertyOp13
 70
     1
102
RTVSPropertyOp14
 70
     1
102
RTVSPropertyOp15
 70
     1
102
RTVSPropertyOp16
 70
     1
102
RTVSPropertyOp17
 70
     1
102
RTVSPropertyOp18
 70
     1
102
RTVSPropertyOp19
 70
     1
102
RTVSPropertyOp20
 70
     1
102
RTVSPropertyOp21
 70
     1
102
RTVSPropertyOp22
 70
     1
102
RTVSPropertyOp23
 70
     1
102
RTVSPropertyOp24
 70
     1
102
RTVSPropertyOp25
 70
     1
102
RTVSPropertyOp26
 70
     1
102
RTVSPropertyOp27
 70
     1
102
RTVSPropertyOp28
 70
     1
102
RTVSPropertyOp29
 70
     1
102
RTVSPropertyOp30
 70
     1
102
RTVSPropertyOp31
 70
     1
102
RTVSPropertyOp32
 70
     1
  0
XRECORD
  5
44B3
102
{ACAD_REACTORS
330
44B2
102
}
330
44B2
100
AcDbXrecord
280
     1
102
RTVSPropertyOp0
 70
     1
102
RTVSPropertyOp1
 70
     1
102
RTVSPropertyOp2
 70
     1
102
RTVSPropertyOp3
 70
     1
102
RTVSPropertyOp4
 70
     1
102
RTVSPropertyOp5
 70
     1
102
RTVSPropertyOp6
 70
     1
102
RTVSPropertyOp7
 70
     1
102
RTVSPropertyOp8
 70
     1
102
RTVSPropertyOp9
 70
     1
102
RTVSPropertyOp10
 70
     1
102
RTVSPropertyOp11
 70
     1
102
RTVSPropertyOp12
 70
     1
102
RTVSPropertyOp13
 70
     1
102
RTVSPropertyOp14
 70
     1
102
RTVSPropertyOp15
 70
     1
102
RTVSPropertyOp16
 70
     1
102
RTVSPropertyOp17
 70
     1
102
RTVSPropertyOp18
 70
     1
102
RTVSPropertyOp19
 70
     1
102
RTVSPropertyOp20
 70
     1
102
RTVSPropertyOp21
 70
     1
102
RTVSPropertyOp22
 70
     1
102
RTVSPropertyOp23
 70
     1
102
RTVSPropertyOp24
 70
     1
102
RTVSPropertyOp25
 70
     1
102
RTVSPropertyOp26
 70
     1
102
RTVSPropertyOp27
 70
     1
102
RTVSPropertyOp28
 70
     1
102
RTVSPropertyOp29
 70
     1
102
RTVSPropertyOp30
 70
     1
102
RTVSPropertyOp31
 70
     1
102
RTVSPropertyOp32
 70
     1
  0
XRECORD
  5
44A4
102
{ACAD_REACTORS
330
44A3
102
}
330
44A3
100
AcDbXrecord
280
     1
102
RTVSPropertyOp0
 70
     1
102
RTVSPropertyOp1
 70
     1
102
RTVSPropertyOp2
 70
     1
102
RTVSPropertyOp3
 70
     1
102
RTVSPropertyOp4
 70
     1
102
RTVSPropertyOp5
 70
     1
102
RTVSPropertyOp6
 70
     1
102
RTVSPropertyOp7
 70
     1
102
RTVSPropertyOp8
 70
     1
102
RTVSPropertyOp9
 70
     1
102
RTVSPropertyOp10
 70
     1
102
RTVSPropertyOp11
 70
     1
102
RTVSPropertyOp12
 70
     1
102
RTVSPropertyOp13
 70
     1
102
RTVSPropertyOp14
 70
     1
102
RTVSPropertyOp15
 70
     1
102
RTVSPropertyOp16
 70
     1
102
RTVSPropertyOp17
 70
     1
102
RTVSPropertyOp18
 70
     1
102
RTVSPropertyOp19
 70
     1
102
RTVSPropertyOp20
 70
     1
102
RTVSPropertyOp21
 70
     1
102
RTVSPropertyOp22
 70
     1
102
RTVSPropertyOp23
 70
     1
102
RTVSPropertyOp24
 70
     1
102
RTVSPropertyOp25
 70
     1
102
RTVSPropertyOp26
 70
     1
102
RTVSPropertyOp27
 70
     1
102
RTVSPropertyOp28
 70
     1
102
RTVSPropertyOp29
 70
     1
102
RTVSPropertyOp30
 70
     1
102
RTVSPropertyOp31
 70
     1
102
RTVSPropertyOp32
 70
     1
  0
XRECORD
  5
44AD
102
{ACAD_REACTORS
330
44AC
102
}
330
44AC
100
AcDbXrecord
280
     1
102
RTVSPropertyOp0
 70
     1
102
RTVSPropertyOp1
 70
     1
102
RTVSPropertyOp2
 70
     1
102
RTVSPropertyOp3
 70
     1
102
RTVSPropertyOp4
 70
     1
102
RTVSPropertyOp5
 70
     1
102
RTVSPropertyOp6
 70
     1
102
RTVSPropertyOp7
 70
     1
102
RTVSPropertyOp8
 70
     1
102
RTVSPropertyOp9
 70
     1
102
RTVSPropertyOp10
 70
     1
102
RTVSPropertyOp11
 70
     1
102
RTVSPropertyOp12
 70
     1
102
RTVSPropertyOp13
 70
     1
102
RTVSPropertyOp14
 70
     1
102
RTVSPropertyOp15
 70
     1
102
RTVSPropertyOp16
 70
     1
102
RTVSPropertyOp17
 70
     1
102
RTVSPropertyOp18
 70
     1
102
RTVSPropertyOp19
 70
     1
102
RTVSPropertyOp20
 70
     1
102
RTVSPropertyOp21
 70
     1
102
RTVSPropertyOp22
 70
     1
102
RTVSPropertyOp23
 70
     1
102
RTVSPropertyOp24
 70
     1
102
RTVSPropertyOp25
 70
     1
102
RTVSPropertyOp26
 70
     1
102
RTVSPropertyOp27
 70
     1
102
RTVSPropertyOp28
 70
     1
102
RTVSPropertyOp29
 70
     1
102
RTVSPropertyOp30
 70
     1
102
RTVSPropertyOp31
 70
     1
102
RTVSPropertyOp32
 70
     1
  0
XRECORD
  5
44B5
102
{ACAD_REACTORS
330
44B4
102
}
330
44B4
100
AcDbXrecord
280
     1
102
RTVSPropertyOp0
 70
     1
102
RTVSPropertyOp1
 70
     1
102
RTVSPropertyOp2
 70
     1
102
RTVSPropertyOp3
 70
     1
102
RTVSPropertyOp4
 70
     1
102
RTVSPropertyOp5
 70
     1
102
RTVSPropertyOp6
 70
     1
102
RTVSPropertyOp7
 70
     1
102
RTVSPropertyOp8
 70
     1
102
RTVSPropertyOp9
 70
     1
102
RTVSPropertyOp10
 70
     1
102
RTVSPropertyOp11
 70
     1
102
RTVSPropertyOp12
 70
     1
102
RTVSPropertyOp13
 70
     1
102
RTVSPropertyOp14
 70
     1
102
RTVSPropertyOp15
 70
     1
102
RTVSPropertyOp16
 70
     1
102
RTVSPropertyOp17
 70
     1
102
RTVSPropertyOp18
 70
     1
102
RTVSPropertyOp19
 70
     1
102
RTVSPropertyOp20
 70
     1
102
RTVSPropertyOp21
 70
     1
102
RTVSPropertyOp22
 70
     1
102
RTVSPropertyOp23
 70
     1
102
RTVSPropertyOp24
 70
     1
102
RTVSPropertyOp25
 70
     1
102
RTVSPropertyOp26
 70
     1
102
RTVSPropertyOp27
 70
     1
102
RTVSPropertyOp28
 70
     1
102
RTVSPropertyOp29
 70
     1
102
RTVSPropertyOp30
 70
     1
102
RTVSPropertyOp31
 70
     1
102
RTVSPropertyOp32
 70
     1
  0
ENDSEC
  0
EOF
