  0
SECTION
  2
HEADER
  9
$ACADVER
  1
AC1015
  9
$ACADMAINTVER
 70
    20
  9
$DWGCODEPAGE
  3
ANSI_932
  9
$INSBASE
 10
0.0
 20
0.0
 30
0.0
  9
$EXTMIN
 10
123.8732750582339
 20
286.1526082312361
 30
0.0
  9
$EXTMAX
 10
233.0975040439841
 20
377.1231205690025
 30
0.0
  9
$LIMMIN
 10
111.9519891780935
 20
253.7721357807053
  9
$LIMMAX
 10
321.9734177495221
 20
402.2721357807053
  9
$ORTHOMODE
 70
     0
  9
$REGENMODE
 70
     1
  9
$FILLMODE
 70
     1
  9
$QTEXTMODE
 70
     0
  9
$MIRRTEXT
 70
     1
  9
$LTSCALE
 40
0.5
  9
$ATTMODE
 70
     1
  9
$TEXTSIZE
 40
1.5
  9
$TRACEWID
 40
1.0
  9
$TEXTSTYLE
  7
STANDARD
  9
$CLAYER
  8
AM_0
  9
$CELTYPE
  6
ByLayer
  9
$CECOLOR
 62
   256
  9
$CELTSCALE
 40
1.0
  9
$DISPSILH
 70
     0
  9
$DIMSCALE
 40
0.5
  9
$DIMASZ
 40
2.5
  9
$DIMEXO
 40
1.0
  9
$DIMDLI
 40
10.0
  9
$DIMRND
 40
0.0
  9
$DIMDLE
 40
0.0
  9
$DIMEXE
 40
1.0
  9
$DIMTP
 40
0.1
  9
$DIMTM
 40
0.1
  9
$DIMTXT
 40
3.5
  9
$DIMCEN
 40
0.0
  9
$DIMTSZ
 40
0.0
  9
$DIMTOL
 70
     0
  9
$DIMLIM
 70
     0
  9
$DIMTIH
 70
     0
  9
$DIMTOH
 70
     0
  9
$DIMSE1
 70
     0
  9
$DIMSE2
 70
     0
  9
$DIMTAD
 70
     3
  9
$DIMZIN
 70
     8
  9
$DIMBLK
  1
Open30
  9
$DIMASO
 70
     1
  9
$DIMSHO
 70
     1
  9
$DIMPOST
  1

  9
$DIMAPOST
  1
"
  9
$DIMALT
 70
     0
  9
$DIMALTD
 70
     2
  9
$DIMALTF
 40
0.0393701
  9
$DIMLFAC
 40
1.0
  9
$DIMTOFL
 70
     1
  9
$DIMTVP
 40
0.0
  9
$DIMTIX
 70
     0
  9
$DIMSOXD
 70
     0
  9
$DIMSAH
 70
     0
  9
$DIMBLK1
  1
Open30
  9
$DIMBLK2
  1
Open30
  9
$DIMSTYLE
  2
AM_JIS
  9
$DIMCLRD
 70
   256
  9
$DIMCLRE
 70
   256
  9
$DIMCLRT
 70
     2
  9
$DIMTFAC
 40
0.71
  9
$DIMGAP
 40
1.5
  9
$DIMJUST
 70
     0
  9
$DIMSD1
 70
     0
  9
$DIMSD2
 70
     0
  9
$DIMTOLJ
 70
     0
  9
$DIMTZIN
 70
     0
  9
$DIMALTZ
 70
     0
  9
$DIMALTTZ
 70
     0
  9
$DIMUPT
 70
     0
  9
$DIMDEC
 70
     2
  9
$DIMTDEC
 70
     3
  9
$DIMALTU
 70
     2
  9
$DIMALTTD
 70
     4
  9
$DIMTXSTY
  7
STANDARD
  9
$DIMAUNIT
 70
     0
  9
$DIMADEC
 70
     0
  9
$DIMALTRND
 40
0.0
  9
$DIMAZIN
 70
     2
  9
$DIMDSEP
 70
    46
  9
$DIMATFIT
 70
     3
  9
$DIMFRAC
 70
     0
  9
$DIMLDRBLK
  1
Open30
  9
$DIMLUNIT
 70
     2
  9
$DIMLWD
 70
    -1
  9
$DIMLWE
 70
    -1
  9
$DIMTMOVE
 70
     0
  9
$LUNITS
 70
     2
  9
$LUPREC
 70
     2
  9
$SKETCHINC
 40
1.0
  9
$FILLETRAD
 40
1.0
  9
$AUNITS
 70
     0
  9
$AUPREC
 70
     0
  9
$MENU
  1
.
  9
$ELEVATION
 40
0.0
  9
$PELEVATION
 40
0.0
  9
$THICKNESS
 40
0.0
  9
$LIMCHECK
 70
     0
  9
$CHAMFERA
 40
0.5
  9
$CHAMFERB
 40
0.5
  9
$CHAMFERC
 40
20.0
  9
$CHAMFERD
 40
0.0
  9
$SKPOLY
 70
     0
  9
$TDCREATE
 40
2453060.746216852
  9
$TDUCREATE
 40
2453060.371216852
  9
$TDUPDATE
 40
2455694.501590891
  9
$TDUUPDATE
 40
2455694.126590891
  9
$TDINDWG
 40
0.2057953125
  9
$TDUSRTIMER
 40
0.2057953125
  9
$USRTIMER
 70
     1
  9
$ANGBASE
 50
0.0
  9
$ANGDIR
 70
     0
  9
$PDMODE
 70
     0
  9
$PDSIZE
 40
0.0
  9
$PLINEWID
 40
0.0
  9
$SPLFRAME
 70
     0
  9
$SPLINETYPE
 70
     6
  9
$SPLINESEGS
 70
     8
  9
$HANDSEED
  5
295B
  9
$SURFTAB1
 70
     6
  9
$SURFTAB2
 70
     6
  9
$SURFTYPE
 70
     6
  9
$SURFU
 70
     6
  9
$SURFV
 70
     6
  9
$UCSBASE
  2

  9
$UCSNAME
  2

  9
$UCSORG
 10
0.0
 20
0.0
 30
0.0
  9
$UCSXDIR
 10
1.0
 20
0.0
 30
0.0
  9
$UCSYDIR
 10
0.0
 20
1.0
 30
0.0
  9
$UCSORTHOREF
  2

  9
$UCSORTHOVIEW
 70
     0
  9
$UCSORGTOP
 10
0.0
 20
0.0
 30
0.0
  9
$UCSORGBOTTOM
 10
0.0
 20
0.0
 30
0.0
  9
$UCSORGLEFT
 10
0.0
 20
0.0
 30
0.0
  9
$UCSORGRIGHT
 10
0.0
 20
0.0
 30
0.0
  9
$UCSORGFRONT
 10
0.0
 20
0.0
 30
0.0
  9
$UCSORGBACK
 10
0.0
 20
0.0
 30
0.0
  9
$PUCSBASE
  2

  9
$PUCSNAME
  2

  9
$PUCSORG
 10
0.0
 20
0.0
 30
0.0
  9
$PUCSXDIR
 10
1.0
 20
0.0
 30
0.0
  9
$PUCSYDIR
 10
0.0
 20
1.0
 30
0.0
  9
$PUCSORTHOREF
  2

  9
$PUCSORTHOVIEW
 70
     0
  9
$PUCSORGTOP
 10
0.0
 20
0.0
 30
0.0
  9
$PUCSORGBOTTOM
 10
0.0
 20
0.0
 30
0.0
  9
$PUCSORGLEFT
 10
0.0
 20
0.0
 30
0.0
  9
$PUCSORGRIGHT
 10
0.0
 20
0.0
 30
0.0
  9
$PUCSORGFRONT
 10
0.0
 20
0.0
 30
0.0
  9
$PUCSORGBACK
 10
0.0
 20
0.0
 30
0.0
  9
$USERI1
 70
     0
  9
$USERI2
 70
     0
  9
$USERI3
 70
     0
  9
$USERI4
 70
     0
  9
$USERI5
 70
     0
  9
$USERR1
 40
0.0
  9
$USERR2
 40
0.0
  9
$USERR3
 40
0.0
  9
$USERR4
 40
0.0
  9
$USERR5
 40
0.0
  9
$WORLDVIEW
 70
     1
  9
$SHADEDGE
 70
     3
  9
$SHADEDIF
 70
    70
  9
$TILEMODE
 70
     1
  9
$MAXACTVP
 70
    64
  9
$PINSBASE
 10
0.0
 20
0.0
 30
0.0
  9
$PLIMCHECK
 70
     0
  9
$PEXTMIN
 10
1.000000000000000E+20
 20
1.000000000000000E+20
 30
1.000000000000000E+20
  9
$PEXTMAX
 10
-1.000000000000000E+20
 20
-1.000000000000000E+20
 30
-1.000000000000000E+20
  9
$PLIMMIN
 10
0.0
 20
0.0
  9
$PLIMMAX
 10
420.0
 20
297.0
  9
$UNITMODE
 70
     0
  9
$VISRETAIN
 70
     1
  9
$PLINEGEN
 70
     0
  9
$PSLTSCALE
 70
     1
  9
$TREEDEPTH
 70
  3020
  9
$CMLSTYLE
  2
Standard
  9
$CMLJUST
 70
     0
  9
$CMLSCALE
 40
20.0
  9
$PROXYGRAPHICS
 70
     1
  9
$MEASUREMENT
 70
     1
  9
$CELWEIGHT
370
    -1
  9
$ENDCAPS
280
     0
  9
$JOINSTYLE
280
     0
  9
$LWDISPLAY
290
     0
  9
$INSUNITS
 70
     4
  9
$HYPERLINKBASE
  1

  9
$STYLESHEET
  1
IMAGIO.ctb
  9
$XEDIT
290
     1
  9
$CEPSNTYPE
380
     0
  9
$PSTYLEMODE
290
     1
  9
$FINGERPRINTGUID
  2
{E9837AF4-F598-11D4-A28F-00004C61E3BD}
  9
$VERSIONGUID
  2
{8D5A6301-9900-4CE4-A493-14E0ABA02812}
  9
$EXTNAMES
290
     1
  9
$PSVPSCALE
 40
0.0
  9
$OLESTARTUP
290
     0
  0
ENDSEC
  0
SECTION
  2
CLASSES
  0
CLASS
  1
ACDBDICTIONARYWDFLT
  2
AcDbDictionaryWithDefault
  3
ObjectDBX Classes
 90
        0
280
     0
281
     0
  0
CLASS
  1
ACDBPLACEHOLDER
  2
AcDbPlaceHolder
  3
ObjectDBX Classes
 90
        0
280
     0
281
     0
  0
CLASS
  1
LAYOUT
  2
AcDbLayout
  3
ObjectDBX Classes
 90
        0
280
     0
281
     0
  0
CLASS
  1
AMGSETTINGSOBJ
  2
AmgSettingsObj
  3
"AcadM|Product Description: AutoCAD Mechanical|Company: Autodesk, Inc."
 90
     1024
280
     0
281
     0
  0
CLASS
  1
ACME_DOCUMENT
  2
AcMeDbDoc
  3
AcMeServices
 90
     1024
280
     0
281
     0
  0
CLASS
  1
ACMESCOPE
  2
AcMeScope
  3
AcMeServices
 90
     1024
280
     0
281
     0
  0
CLASS
  1
ACMECOMMANDHISTORY
  2
AcMeCommandHistory
  3
AcMeServices
 90
     1024
280
     0
281
     0
  0
CLASS
  1
DICTIONARYVAR
  2
AcDbDictionaryVar
  3
ObjectDBX Classes
 90
        0
280
     0
281
     0
  0
CLASS
  1
ACIMSYSVARMAN
  2
AcImSysVarManager
  3
AcMeServices
 90
     1024
280
     0
281
     0
  0
CLASS
  1
ACIMREALSYSVAR
  2
AcImRealSysVar
  3
AcMeServices
 90
     1024
280
     0
281
     0
  0
CLASS
  1
ACIMINTSYSVAR
  2
AcImIntSysVar
  3
AcMeServices
 90
     1024
280
     0
281
     0
  0
CLASS
  1
ACMEDRAWINGMAN
  2
AcMeDrawingMan
  3
AcMeServices
 90
    33792
280
     0
281
     0
  0
CLASS
  1
ACMEVIEW
  2
AcMeView
  3
AcMeServices
 90
    33792
280
     0
281
     0
  0
CLASS
  1
ACDBENTITYCACHE
  2
AcMeEntityCache
  3
AcMeServices
 90
     1024
280
     0
281
     0
  0
CLASS
  1
GSMANAGER
  2
AcMeGSManager
  3
AcMeServices
 90
    32768
280
     0
281
     0
  0
CLASS
  1
AMDTINTERNALREACTOR
  2
AmdtInternalReactor
  3
AcMeServices
 90
     1024
280
     0
281
     0
  0
CLASS
  1
ACMESTATEMGR
  2
AcMeStateMgr
  3
AcMeServices
 90
     1024
280
     0
281
     0
  0
CLASS
  1
ACME_DATABASE
  2
AcMeDbDatabase
  3
AcMeServices
 90
     1024
280
     0
281
     0
  0
CLASS
  1
ACRFINSADJUSTERMGR
  2
AcRfInsAdjusterMgr
  3
AcMeServices
 90
     1024
280
     0
281
     0
  0
CLASS
  1
ACMDATADICTIONARY
  2
AcmDataDictionary
  3
"AcmSymBB|Product Description: AutoCAD Mechanical|Company: Autodesk, Inc."
 90
     1024
280
     0
281
     0
  0
CLASS
  1
ACMDATAENTRYBLOCK
  2
AcmDataEntryBlock
  3
AcmSymBB|Product Description: AutoCAD Mechanical|Company: Autodesk, Inc.
 90
     1024
280
     0
281
     0
  0
CLASS
  1
AMGOBJPROPCFG
  2
AmgObjPropCfg
  3
"AmgLay|Product Description: AutoCAD Mechanical|Company: Autodesk, Inc."
 90
     1025
280
     0
281
     0
  0
CLASS
  1
ACAMGFILTERDAT
  2
AcAmgFilterDat
  3
"AcadM|Product Description: AutoCAD Mechanical|Company: Autodesk, Inc."
 90
     1024
280
     0
281
     0
  0
CLASS
  1
LAYER_INDEX
  2
AcDbLayerIndex
  3
ObjectDBX Classes
 90
    32768
280
     0
281
     0
  0
CLASS
  1
IDBUFFER
  2
AcDbIdBuffer
  3
ObjectDBX Classes
 90
    32768
280
     0
281
     0
  0
CLASS
  1
ACIMSTRSYSVAR
  2
AcImStrSysVar
  3
AcMeServices
 90
     1024
280
     0
281
     0
  0
CLASS
  1
ACMSTANDARDJIS
  2
AcmStandardJIS
  3
"Amdt_StdImp|Product Description: AutoCAD Mechanical|Company: Autodesk, Inc."
 90
     1024
280
     0
281
     0
  0
CLASS
  1
ACMSURFSTANDARDJIS
  2
AcmSurfTextStdJIS
  3
"Amdt_StdImp|Product Description: AutoCAD Mechanical|Company: Autodesk, Inc."
 90
     1024
280
     0
281
     0
  0
CLASS
  1
ACMFCFSTANDARDJIS
  2
AcmFCFStdJIS
  3
"Amdt_StdImp|Product Description: AutoCAD Mechanical|Company: Autodesk, Inc."
 90
     1024
280
     0
281
     0
  0
CLASS
  1
ACMWELDSTANDARDJIS
  2
AcmWeldingStdJIS
  3
"Amdt_StdImp|Product Description: AutoCAD Mechanical|Company: Autodesk, Inc."
 90
     1024
280
     0
281
     0
  0
CLASS
  1
ACMIDSTANDARDJIS
  2
AcmIdStdJIS
  3
"Amdt_StdImp|Product Description: AutoCAD Mechanical|Company: Autodesk, Inc."
 90
     1024
280
     0
281
     0
  0
CLASS
  1
ACMDATUMSTANDARDJIS
  2
AcmDatumStdJIS
  3
"Amdt_StdImp|Product Description: AutoCAD Mechanical|Company: Autodesk, Inc."
 90
     1024
280
     0
281
     0
  0
CLASS
  1
ACMBOMSTANDARDJIS
  2
AcmBOMStdJIS
  3
"Amdt_StdImp|Product Description: AutoCAD Mechanical|Company: Autodesk, Inc."
 90
     1024
280
     0
281
     0
  0
CLASS
  1
ACMPARTREF
  2
AcmPartRef
  3
"AcmSymBB|Product Description: AutoCAD Mechanical|Company: Autodesk, Inc."
 90
    36863
280
     0
281
     1
  0
CLASS
  1
NEWSTDPARTPARLIST
  2
AmgNewParListFiler
  3
"AmgParList|Product Description: AutoCAD Mechanical|Company: Autodesk, Inc."
 90
     4095
280
     0
281
     0
  0
CLASS
  1
ACMDATAENTRYPART
  2
AcmDataEntryPart
  3
AcmSymBB|Product Description: AutoCAD Mechanical|Company: Autodesk, Inc.
 90
    33792
280
     0
281
     0
  0
CLASS
  1
ACMPICKOBJ
  2
AcmPickEnt
  3
"AcmSymBB|Product Description: AutoCAD Mechanical|Company: Autodesk, Inc."
 90
    33792
280
     0
281
     1
  0
CLASS
  1
ACMDATAENTRY
  2
AcmDataEntry
  3
AcmSymBB|Product Description: AutoCAD Mechanical|Company: Autodesk, Inc.
 90
     1024
280
     0
281
     0
  0
CLASS
  1
ACMBOM
  2
AcmBom
  3
"AcmSymBB|Product Description: AutoCAD Mechanical|Company: Autodesk, Inc."
 90
     1024
280
     0
281
     0
  0
CLASS
  1
ACMBOMROW
  2
AcmBomRow
  3
"AcmSymBB|Product Description: AutoCAD Mechanical|Company: Autodesk, Inc."
 90
    33792
280
     0
281
     0
  0
CLASS
  1
ACMBALLOON
  2
AcmBalloon
  3
"AcmSymBB|Product Description: AutoCAD Mechanical|Company: Autodesk, Inc."
 90
    36863
280
     0
281
     1
  0
CLASS
  1
ACMPARTLIST
  2
AcmPartList
  3
"AcmSymBB|Product Description: AutoCAD Mechanical|Company: Autodesk, Inc."
 90
    36863
280
     0
281
     1
  0
CLASS
  1
AMDTNOTE
  2
AmdtNote
  3
"AcmSymBB|Product Description: AutoCAD Mechanical|Company: Autodesk, Inc."
 90
    36863
280
     0
281
     1
  0
CLASS
  1
MATERIAL
  2
AcDbMaterial
  3
ObjectDBX Classes
 90
     1153
280
     0
281
     0
  0
CLASS
  1
VISUALSTYLE
  2
AcDbVisualStyle
  3
ObjectDBX Classes
 90
     4095
280
     0
281
     0
  0
CLASS
  1
TABLESTYLE
  2
AcDbTableStyle
  3
ObjectDBX Classes
 90
     4095
280
     0
281
     0
  0
CLASS
  1
ACGREFMASTER
  2
AcGrefMaster
  3
AcAttribServices
 90
     1024
280
     0
281
     0
  0
CLASS
  1
AM_DRAWING_MGR
  2
AcDmDwgMgr
  3
AcMechDwgViewMgmt
 90
     1024
280
     0
281
     0
  0
CLASS
  1
AM_DWG_DOCUMENT
  2
AcDmDwgDocument
  3
AcMechDwgViewMgmt
 90
     1024
280
     0
281
     0
  0
CLASS
  1
AM_DWG_SHEET
  2
AcDmSheet
  3
AcMechDwgViewMgmt
 90
     1024
280
     0
281
     0
  0
CLASS
  1
AM_VIEWDIMPARMAP
  2
AcDmViewDimParMap
  3
AcMechDwgViewMgmt
 90
     1024
280
     0
281
     0
  0
CLASS
  1
AM_DWGMGR_NAME
  2
AcDmDwgMgrName
  3
AcMechDwgViewMgmt
 90
     1024
280
     0
281
     0
  0
CLASS
  1
ACGREFACADMASTER
  2
AcGrefacadMaster
  3
AcGrefServices
 90
     1024
280
     0
281
     0
  0
CLASS
  1
AMDTMENUSTATEMGR
  2
AmdtMenuStateMgr
  3
McadcomServices
 90
     1024
280
     0
281
     0
  0
CLASS
  1
AMDTMCOMMENUSTATE
  2
AmdtMcomMenuState
  3
McadcomServices
 90
     1024
280
     0
281
     0
  0
CLASS
  1
AMIMASTER
  2
AmiMaster
  3
AmiServices
 90
     1024
280
     0
281
     0
  0
CLASS
  1
MAPIAMMOUDLE
  2
MApiAmModule
  3
MApiAmServices
 90
     1024
280
     0
281
     0
  0
CLASS
  1
AMDTADMENUSTATE
  2
AmdtAdMenuState
  3
DesignerServices
 90
    32768
280
     0
281
     0
  0
CLASS
  1
ADAPPL
  2
AcAdAppl
  3
DesignerAssemblies
 90
    33792
280
     0
281
     0
  0
CLASS
  1
DEPMGR
  2
AcAdDepMgr
  3
DesignerAssemblies
 90
    33792
280
     0
281
     0
  0
CLASS
  1
PARAMMGR
  2
AcAdParamMgr
  3
DesignerAssemblies
 90
    33792
280
     0
281
     0
  0
CLASS
  1
PARAMSCOPE
  2
AcAdParamScope
  3
DesignerAssemblies
 90
    33792
280
     0
281
     0
  0
CLASS
  1
NAMEDAPPL
  2
AcAdNamedAppl
  3
DesignerAssemblies
 90
    33792
280
     0
281
     0
  0
CLASS
  1
AMDTDMMENUSTATE
  2
AmdtDmMenuState
  3
AcMechDwgViewMgmt
 90
     1024
280
     0
281
     0
  0
CLASS
  1
AMDTAMMENUSTATE
  2
AmdtAmMenuState
  3
DesignerAssemblies
 90
     1024
280
     0
281
     0
  0
CLASS
  1
ACAMPROJECT
  2
AcAmProject
  3
DesignerAssemblies
 90
     1024
280
     0
281
     0
  0
CLASS
  1
ACAMGRCOMPDEF
  2
AcAmGrCompDef
  3
DesignerAssemblies
 90
     1024
280
     0
281
     0
  0
CLASS
  1
ACCMCONTEXT
  2
AcCmContext
  3
DesignerAssemblies
 90
     1024
280
     0
281
     0
  0
CLASS
  1
ACAMCOMPDEF
  2
AcAmCompDef
  3
DesignerAssemblies
 90
     1024
280
     0
281
     0
  0
CLASS
  1
ACAMCOMPDEFMGR
  2
AcAmCompDefMgr
  3
DesignerAssemblies
 90
     1024
280
     0
281
     0
  0
CLASS
  1
AMCONTEXTMGR
  2
AcAmContextMgr
  3
DesignerAssemblies
 90
     1024
280
     0
281
     0
  0
CLASS
  1
ACAMCONTEXTMODELER
  2
AcAmContextModeler
  3
DesignerAssemblies
 90
     1024
280
     0
281
     0
  0
CLASS
  1
AMDTFORMULAUPDATEDISPATCHER
  2
AmdtFormulaUpdateDispatcher
  3
AcMeServices
 90
     1024
280
     0
281
     0
  0
CLASS
  1
ACRFATTGENMGR
  2
AcRfAttGeneralMgr
  3
AcAttribServices
 90
     1024
280
     0
281
     0
  0
CLASS
  1
ACRFOBJATTMGR
  2
AcRfObjAttGroupMgr
  3
AcAttribServices
 90
     1024
280
     0
281
     0
  0
CLASS
  1
ACRFMCADAPIATTHOLDER
  2
AcRfMCADAPIAttHolder
  3
AcAttribServices
 90
     1024
280
     0
281
     0
  0
CLASS
  1
AMDTSYSATTR
  2
AmdtSystemAttribute
  3
AcAttribServices
 90
     1024
280
     0
281
     0
  0
CLASS
  1
ACAMGTITLESTD
  2
AcAmgTitleStd
  3
"AmgTitle|Product Description: AutoCAD Mechanical|Company: Autodesk, Inc."
 90
     4095
280
     0
281
     0
  0
CLASS
  1
ACMDETAILSTANDARDJIS
  2
AmdtDetailSymStdJIS
  3
"Amdt_StdImp|Product Description: AutoCAD Mechanical|Company: Autodesk, Inc."
 90
     1024
280
     0
281
     0
  0
CLASS
  1
ACMSECTIONSTANDARDJIS
  2
AmdtSectionSymStdJIS
  3
"Amdt_StdImp|Product Description: AutoCAD Mechanical|Company: Autodesk, Inc."
 90
     1024
280
     0
281
     0
  0
CLASS
  1
ACMCENTERLINESTANDARDJIS
  2
AmdtCenterLineStdJIS
  3
"Amdt_StdImp|Product Description: AutoCAD Mechanical|Company: Autodesk, Inc."
 90
     1024
280
     0
281
     0
  0
CLASS
  1
ACMTHREADLINESTANDARDJIS
  2
AmdtThreadLineStdJIS
  3
"Amdt_StdImp|Product Description: AutoCAD Mechanical|Company: Autodesk, Inc."
 90
     1024
280
     0
281
     0
  0
CLASS
  1
ACMNOTESTANDARDJIS
  2
AmdtNoteStdJIS
  3
"Amdt_StdImp|Product Description: AutoCAD Mechanical|Company: Autodesk, Inc."
 90
     1024
280
     0
281
     0
  0
CLASS
  1
AMDTNOTETEMPLATEDB
  2
AmdtNoteTemplateDB
  3
AcmSymBB|Product Description: AutoCAD Mechanical|Company: Autodesk, Inc.
 90
     1024
280
     0
281
     0
  0
CLASS
  1
ACMTAPERSTANDARDJIS
  2
AcmTaperStdJIS
  3
"Amdt_StdImp|Product Description: AutoCAD Mechanical|Company: Autodesk, Inc."
 90
     1024
280
     0
281
     0
  0
CLASS
  1
ACAMGLAYSTD
  2
AcAmgLayStd
  3
"AmgLay|Product Description: AutoCAD Mechanical|Company: Autodesk, Inc."
 90
     1024
280
     0
281
     0
  0
CLASS
  1
ACAMGDIMSTD
  2
AcAmgDimStd
  3
"AmgDim|Product Description: AutoCAD Mechanical|Company: Autodesk, Inc."
 90
     1024
280
     0
281
     0
  0
CLASS
  1
ACAMGHOLECHARTSTDJIS
  2
AcAmgHoleChartStdJIS
  3
AmgDim|Product Description: AutoCAD Mechanical|Company: Autodesk, Inc.
 90
     1024
280
     0
281
     0
  0
CLASS
  1
CATALOGSTATE
  2
AcAmCatalogState
  3
DesignerAssemblies
 90
    33792
280
     0
281
     0
  0
CLASS
  1
ACAMGRCOMPDEFSET
  2
AcAmGrCompDefSet
  3
DesignerAssemblies
 90
     1024
280
     0
281
     0
  0
CLASS
  1
AMDTBROWSERDBTAB
  2
AmdtBrowserDbTab
  3
McadcomServices
 90
     1024
280
     0
281
     0
  0
CLASS
  1
CBROWSERAPPOBJECT
  2
CBrowserAppObject
  3
McadcomServices
 90
     1024
280
     0
281
     0
  0
CLASS
  1
DM_PLACEHOLDER
  2
AcDmSelsetPlaceholder
  3
AcMechDwgViewMgmt
 90
     1024
280
     0
281
     0
  0
CLASS
  1
SORTENTSTABLE
  2
AcDbSortentsTable
  3
ObjectDBX Classes
 90
        0
280
     0
281
     0
  0
CLASS
  1
ACMSTANDARDISO
  2
AcmStandardISO
  3
"Amdt_StdImp|Product Description: AutoCAD Mechanical|Company: Autodesk, Inc."
 90
     1024
280
     0
281
     0
  0
CLASS
  1
ACMSURFSTANDARDISO
  2
AcmSurfTextStdISO
  3
"Amdt_StdImp|Product Description: AutoCAD Mechanical|Company: Autodesk, Inc."
 90
     1024
280
     0
281
     0
  0
CLASS
  1
ACMFCFSTANDARDISO
  2
AcmFCFStdISO
  3
"Amdt_StdImp|Product Description: AutoCAD Mechanical|Company: Autodesk, Inc."
 90
     1024
280
     0
281
     0
  0
CLASS
  1
ACMWELDSTANDARDISO
  2
AcmWeldingStdISO
  3
"Amdt_StdImp|Product Description: AutoCAD Mechanical|Company: Autodesk, Inc."
 90
     1024
280
     0
281
     0
  0
CLASS
  1
ACMIDSTANDARDISO
  2
AcmIdStdISO
  3
"Amdt_StdImp|Product Description: AutoCAD Mechanical|Company: Autodesk, Inc."
 90
     1024
280
     0
281
     0
  0
CLASS
  1
ACMDATUMSTANDARDISO
  2
AcmDatumStdISO
  3
"Amdt_StdImp|Product Description: AutoCAD Mechanical|Company: Autodesk, Inc."
 90
     1024
280
     0
281
     0
  0
CLASS
  1
ACMBOMSTANDARDISO
  2
AcmBOMStdISO
  3
"Amdt_StdImp|Product Description: AutoCAD Mechanical|Company: Autodesk, Inc."
 90
     1024
280
     0
281
     0
  0
CLASS
  1
ACMDETAILSTANDARDISO
  2
AmdtDetailSymStdISO
  3
"Amdt_StdImp|Product Description: AutoCAD Mechanical|Company: Autodesk, Inc."
 90
     1024
280
     0
281
     0
  0
CLASS
  1
ACMSECTIONSTANDARDISO
  2
AmdtSectionSymStdISO
  3
"Amdt_StdImp|Product Description: AutoCAD Mechanical|Company: Autodesk, Inc."
 90
     1024
280
     0
281
     0
  0
CLASS
  1
ACMCENTERLINESTANDARDISO
  2
AmdtCenterLineStdISO
  3
"Amdt_StdImp|Product Description: AutoCAD Mechanical|Company: Autodesk, Inc."
 90
     1024
280
     0
281
     0
  0
CLASS
  1
ACMTHREADLINESTANDARDISO
  2
AmdtThreadLineStdISO
  3
"Amdt_StdImp|Product Description: AutoCAD Mechanical|Company: Autodesk, Inc."
 90
     1024
280
     0
281
     0
  0
CLASS
  1
ACMNOTESTANDARDISO
  2
AmdtNoteStdISO
  3
"Amdt_StdImp|Product Description: AutoCAD Mechanical|Company: Autodesk, Inc."
 90
     1024
280
     0
281
     0
  0
CLASS
  1
ACAMGHOLECHARTSTDISO
  2
AcAmgHoleChartStdISO
  3
AmgDim|Product Description: AutoCAD Mechanical|Company: Autodesk, Inc.
 90
     1024
280
     0
281
     0
  0
CLASS
  1
AMDTEDGESTANDARDISO13715
  2
AmdtEdgeStdISO13715
  3
"Amdt_StdImp|Product Description: AutoCAD Mechanical|Company: Autodesk, Inc."
 90
     1024
280
     0
281
     0
  0
CLASS
  1
ACMTAPERSTANDARDISO
  2
AcmTaperStdISO
  3
"Amdt_StdImp|Product Description: AutoCAD Mechanical|Company: Autodesk, Inc."
 90
     1024
280
     0
281
     0
  0
CLASS
  1
CAMSSTRUCTBTNSTATE
  2
StructBtnState
  3
DesignerAssemblies
 90
    33792
280
     0
281
     0
  0
CLASS
  1
ACDBLINERES
  2
AcDbLineRes
  3
AcGrefServices
 90
     1024
280
     0
281
     0
  0
CLASS
  1
SCALE
  2
AcDbScale
  3
ObjectDBX Classes
 90
     1153
280
     0
281
     0
  0
CLASS
  1
MLEADERSTYLE
  2
AcDbMLeaderStyle
  3
ACDB_MLEADERSTYLE_CLASS
 90
     4095
280
     0
281
     0
  0
CLASS
  1
ACMANOOTATIONVIEWSTANDARDJIS
  2
AmdtAnViewStdJIS
  3
"Amdt_StdImp|Product Description: AutoCAD Mechanical|Company: Autodesk, Inc."
 90
     1024
280
     0
281
     0
  0
CLASS
  1
AMDTEDGESTANDARDJIS
  2
AmdtEdgeStdJIS
  3
"Amdt_StdImp|Product Description: AutoCAD Mechanical|Company: Autodesk, Inc."
 90
     1024
280
     0
281
     0
  0
CLASS
  1
ACMANOOTATIONVIEWSTANDARDISO
  2
AmdtAnViewStdISO
  3
"Amdt_StdImp|Product Description: AutoCAD Mechanical|Company: Autodesk, Inc."
 90
     1024
280
     0
281
     0
  0
CLASS
  1
ACDBDIMENSIONRES
  2
AcDbDimensionRes
  3
AcmSymBB|Product Description: AutoCAD Mechanical|Company: Autodesk, Inc.
 90
    33792
280
     0
281
     0
  0
CLASS
  1
CELLSTYLEMAP
  2
AcDbCellStyleMap
  3
ObjectDBX Classes
 90
     1152
280
     0
281
     0
  0
CLASS
  1
DIMASSOC
  2
AcDbDimAssoc
  3
"AcDbDimAssoc|Product Desc:     AcDim ARX App For Dimension|Company:          Autodesk, Inc.|WEB Address:      www.autodesk.com"
 90
    32768
280
     0
281
     0
  0
ENDSEC
  0
SECTION
  2
TABLES
  0
TABLE
  2
VPORT
  5
8
102
{ACAD_XDICTIONARY
360
1AA2
102
}
330
0
100
AcDbSymbolTable
 70
     1
  0
VPORT
  5
17F3
330
8
100
AcDbSymbolTableRecord
100
AcDbViewportTableRecord
  2
*Active
 70
     0
 10
0.0
 20
0.0
 11
1.0
 21
1.0
 12
178.4825967368105
 22
331.6362947610373
 13
0.0
 23
0.0
 14
2.5
 24
2.5
 15
10.0
 25
10.0
 16
0.0
 26
0.0
 36
1.0
 17
0.0
 27
0.0
 37
0.0
 40
91.60093943801621
 41
2.070938215102974
 42
50.0
 43
0.0
 44
0.0
 50
0.0
 51
0.0
 71
     0
 72
   100
 73
     1
 74
     3
 75
     0
 76
     0
 77
     0
 78
     0
281
     0
 65
     1
110
0.0
120
0.0
130
0.0
111
1.0
121
0.0
131
0.0
112
0.0
122
1.0
132
0.0
 79
     0
146
0.0
  0
ENDTAB
  0
TABLE
  2
LTYPE
  5
5
330
0
100
AcDbSymbolTable
 70
    17
  0
LTYPE
  5
14
330
5
100
AcDbSymbolTableRecord
100
AcDbLinetypeTableRecord
  2
ByBlock
 70
     0
  3

 72
    65
 73
     0
 40
0.0
  0
LTYPE
  5
15
330
5
100
AcDbSymbolTableRecord
100
AcDbLinetypeTableRecord
  2
ByLayer
 70
     0
  3

 72
    65
 73
     0
 40
0.0
  0
LTYPE
  5
16
330
5
100
AcDbSymbolTableRecord
100
AcDbLinetypeTableRecord
  2
Continuous
 70
     0
  3
Solid line
 72
    65
 73
     0
 40
0.0
  0
LTYPE
  5
4B
330
5
100
AcDbSymbolTableRecord
100
AcDbLinetypeTableRecord
  2
AM_ISO02W050
 70
     0
  3
__ __ __ __ __ __ __ __ __ __ __ __ __ __ __
 72
    65
 73
     2
 40
7.5
 49
6.0
 74
     0
 49
-1.5
 74
     0
  0
LTYPE
  5
4C
330
5
100
AcDbSymbolTableRecord
100
AcDbLinetypeTableRecord
  2
AM_ISO08W050
 70
     0
  3
____ . ____ . ____ . ____ . ____ . ____ . ____
 72
    65
 73
     4
 40
18.0
 49
12.0
 74
     0
 49
-1.5
 74
     0
 49
3.0
 74
     0
 49
-1.5
 74
     0
  0
LTYPE
  5
4D
330
5
100
AcDbSymbolTableRecord
100
AcDbLinetypeTableRecord
  2
AM_ISO09W050
 70
     0
  3
_____ . . _____ . . _____ . . ____ .. ____
 72
    65
 73
     6
 40
22.5
 49
12.0
 74
     0
 49
-1.5
 74
     0
 49
3.0
 74
     0
 49
-1.5
 74
     0
 49
3.0
 74
     0
 49
-1.5
 74
     0
  0
LTYPE
  5
4E
330
5
100
AcDbSymbolTableRecord
100
AcDbLinetypeTableRecord
  2
Amconstr
 70
     0
  3
_______________________
 72
    65
 73
     2
 40
9999.0
 49
9999.0
 74
     0
 49
0.0
 74
     0
  0
LTYPE
  5
4F
330
5
100
AcDbSymbolTableRecord
100
AcDbLinetypeTableRecord
  2
AM_ISO02W050x2
 70
     0
  3
 _ _ _ _ _ _ _ _ _ _ _ _
 72
    65
 73
     2
 40
3.75
 49
3.0
 74
     0
 49
-0.75
 74
     0
  0
LTYPE
  5
50
330
5
100
AcDbSymbolTableRecord
100
AcDbLinetypeTableRecord
  2
AM_ISO08W050x2
 70
     0
  3
__ . __ . __ . __ . __ . __
 72
    65
 73
     4
 40
9.0
 49
6.0
 74
     0
 49
-0.75
 74
     0
 49
1.5
 74
     0
 49
-0.75
 74
     0
  0
LTYPE
  5
53
330
5
100
AcDbSymbolTableRecord
100
AcDbLinetypeTableRecord
  2
Amzigzag
 70
     0
  3
/\/-/\/-/\/-/\/-/\/-/\/
 72
    65
 73
     2
 40
11.0001
 49
0.0001
 74
     4
 75
   135
340
52
 46
0.04
 50
0.0
 44
0.0
 45
0.0
 49
-11.0
 74
     0
  0
LTYPE
  5
169
330
5
100
AcDbSymbolTableRecord
100
AcDbLinetypeTableRecord
  2
ACJISTGB
 70
     0
  3
__ . . __ . .
 72
    65
 73
     6
 40
9.0
 49
4.0
 74
     0
 49
-1.0
 74
     0
 49
1.0
 74
     0
 49
-1.0
 74
     0
 49
1.0
 74
     0
 49
-1.0
 74
     0
  0
LTYPE
  5
16A
330
5
100
AcDbSymbolTableRecord
100
AcDbLinetypeTableRecord
  2
ACJISTGL
 70
     0
  3
_ _ _ _ _
 72
    65
 73
     2
 40
3.0
 49
2.0
 74
     0
 49
-1.0
 74
     0
  0
LTYPE
  5
183E
330
5
100
AcDbSymbolTableRecord
100
AcDbLinetypeTableRecord
  2
HIDDEN
 70
     0
  3
Hidden __ __ __ __ __ __ __ __ __ __ __ __ __ _
 72
    65
 73
     2
 40
9.524999999999998
 49
6.349999999999999
 74
     0
 49
-3.174999999999999
 74
     0
  0
LTYPE
  5
183F
330
5
100
AcDbSymbolTableRecord
100
AcDbLinetypeTableRecord
  2
PHANTOM2
 70
     0
  3
Phantom (.5x) ___ _ _ ___ _ _ ___ _ _ ___ _ _
 72
    65
 73
     6
 40
31.75
 49
15.875
 74
     0
 49
-3.174999999999999
 74
     0
 49
3.174999999999999
 74
     0
 49
-3.174999999999999
 74
     0
 49
3.174999999999999
 74
     0
 49
-3.174999999999999
 74
     0
  0
LTYPE
  5
1840
330
5
100
AcDbSymbolTableRecord
100
AcDbLinetypeTableRecord
  2
CENTER
 70
     0
  3
Center ____ _ ____ _ ____ _ ____ _ ____ _ ____
 72
    65
 73
     4
 40
50.8
 49
31.75
 74
     0
 49
-6.349999999999999
 74
     0
 49
6.349999999999999
 74
     0
 49
-6.349999999999999
 74
     0
  0
LTYPE
  5
1A2E
330
5
100
AcDbSymbolTableRecord
100
AcDbLinetypeTableRecord
  2
ACISOWELD
 70
     0
  3
_ _ _ _ _
 72
    65
 73
     2
 40
2.0
 49
2.0
 74
     0
 49
-1.0
 74
     0
  0
LTYPE
  5
1A2F
330
5
100
AcDbSymbolTableRecord
100
AcDbLinetypeTableRecord
  2
ACISOTGB
 70
     0
  3
__ . . __ . .
 72
    65
 73
     6
 40
9.0
 49
4.0
 74
     0
 49
-1.0
 74
     0
 49
1.0
 74
     0
 49
-1.0
 74
     0
 49
1.0
 74
     0
 49
-1.0
 74
     0
  0
LTYPE
  5
1A30
330
5
100
AcDbSymbolTableRecord
100
AcDbLinetypeTableRecord
  2
ACISOTGL
 70
     0
  3
_ _ _ _ _
 72
    65
 73
     2
 40
3.0
 49
2.0
 74
     0
 49
-1.0
 74
     0
  0
LTYPE
  5
1B96
330
5
100
AcDbSymbolTableRecord
100
AcDbLinetypeTableRecord
  2
CENTER2
 70
     0
  3
Center (.5x) ___ _ ___ _ ___ _ ___ _ ___ _ ___
 72
    65
 73
     4
 40
28.575
 49
19.05
 74
     0
 49
-3.174999999999999
 74
     0
 49
3.174999999999999
 74
     0
 49
-3.174999999999999
 74
     0
  0
ENDTAB
  0
TABLE
  2
LAYER
  5
2
102
{ACAD_XDICTIONARY
360
1C17
102
}
330
0
100
AcDbSymbolTable
 70
    14
  0
LAYER
  5
10
102
{ACAD_XDICTIONARY
360
21BD
102
}
330
2
100
AcDbSymbolTableRecord
100
AcDbLayerTableRecord
  2
0
 70
     0
 62
     7
  6
Continuous
370
    -3
390
F
  0
LAYER
  5
59
102
{ACAD_XDICTIONARY
360
21BF
102
}
330
2
100
AcDbSymbolTableRecord
100
AcDbLayerTableRecord
  2
AM_0
 70
     0
 62
     7
  6
Continuous
370
    50
390
F
  0
LAYER
  5
5A
102
{ACAD_XDICTIONARY
360
21C1
102
}
330
2
100
AcDbSymbolTableRecord
100
AcDbLayerTableRecord
  2
AM_BOR
 70
     0
 62
     7
  6
Continuous
370
    50
390
F
  0
LAYER
  5
24D
102
{ACAD_XDICTIONARY
360
21C3
102
}
330
2
100
AcDbSymbolTableRecord
100
AcDbLayerTableRecord
  2
AM_CL
 70
     0
 62
     1
  6
Amconstr
370
    25
390
F
  0
LAYER
  5
280
102
{ACAD_XDICTIONARY
360
21C5
102
}
330
2
100
AcDbSymbolTableRecord
100
AcDbLayerTableRecord
  2
AM_7
 70
     0
 62
     4
  6
AM_ISO08W050
370
    25
390
F
  0
LAYER
  5
2C6
102
{ACAD_XDICTIONARY
360
21C7
102
}
330
2
100
AcDbSymbolTableRecord
100
AcDbLayerTableRecord
  2
AM_4
 70
     0
 62
     3
  6
Continuous
370
    25
390
F
  0
LAYER
  5
2C7
102
{ACAD_XDICTIONARY
360
21C9
102
}
330
2
100
AcDbSymbolTableRecord
100
AcDbLayerTableRecord
  2
AM_0N
 70
     0
 62
     7
  6
Continuous
370
    50
390
F
  0
LAYER
  5
2C8
102
{ACAD_XDICTIONARY
360
21CB
102
}
330
2
100
AcDbSymbolTableRecord
100
AcDbLayerTableRecord
  2
AM_PAREF
 70
     0
 62
     4
  6
Continuous
290
     0
370
    25
390
F
  0
LAYER
  5
2C9
102
{ACAD_XDICTIONARY
360
21CD
102
}
330
2
100
AcDbSymbolTableRecord
100
AcDbLayerTableRecord
  2
AM_12N
 70
     0
 62
     7
  6
Continuous
290
     0
370
    50
390
F
  0
LAYER
  5
5A5
102
{ACAD_XDICTIONARY
360
21CF
102
}
330
2
100
AcDbSymbolTableRecord
100
AcDbLayerTableRecord
  2
AM_11
 70
     0
 62
     3
  6
AM_ISO09W050
370
    25
390
F
  0
LAYER
  5
782
102
{ACAD_XDICTIONARY
360
21D1
102
}
330
2
100
AcDbSymbolTableRecord
100
AcDbLayerTableRecord
  2
AM_8
 70
     0
 62
     1
  6
Continuous
370
    25
390
F
  0
LAYER
  5
D32
102
{ACAD_XDICTIONARY
360
21D3
102
}
330
2
100
AcDbSymbolTableRecord
100
AcDbLayerTableRecord
  2
AM_12
 70
     0
 62
     7
  6
Continuous
290
     0
370
    50
390
F
  0
LAYER
  5
D7F
102
{ACAD_XDICTIONARY
360
21D5
102
}
330
2
100
AcDbSymbolTableRecord
100
AcDbLayerTableRecord
  2
AM_5
 70
     0
 62
     3
  6
Continuous
370
    25
390
F
  0
LAYER
  5
D81
330
2
100
AcDbSymbolTableRecord
100
AcDbLayerTableRecord
  2
Defpoints
 70
     0
 62
     7
  6
Continuous
290
     0
370
    -3
390
F
  0
ENDTAB
  0
TABLE
  2
STYLE
  5
3
330
0
100
AcDbSymbolTable
 70
    11
  0
STYLE
  5
11
330
3
100
AcDbSymbolTableRecord
100
AcDbTextStyleTableRecord
  2
STANDARD
 70
     0
 40
0.0
 41
1.0
 50
0.0
 71
     0
 42
1.5
  3
ISOCP.SHX
  4
EXTFONT.SHX
  0
STYLE
  5
47
330
3
100
AcDbSymbolTableRecord
100
AcDbTextStyleTableRecord
  2
USER1
 70
     0
 40
0.0
 41
1.0
 50
0.0
 71
     0
 42
2.5
  3
TXT.SHX
  4

  0
STYLE
  5
48
330
3
100
AcDbSymbolTableRecord
100
AcDbTextStyleTableRecord
  2
USER2
 70
     0
 40
0.0
 41
1.0
 50
0.0
 71
     0
 42
2.5
  3
SIMPLEX.SHX
  4

  0
STYLE
  5
49
330
3
100
AcDbSymbolTableRecord
100
AcDbTextStyleTableRecord
  2
USER3
 70
     0
 40
0.0
 41
1.0
 50
0.0
 71
     0
 42
2.5
  3
ITALIC.SHX
  4

  0
STYLE
  5
52
330
3
100
AcDbSymbolTableRecord
100
AcDbTextStyleTableRecord
  2

 70
     1
 40
0.0
 41
1.0
 50
0.0
 71
     0
 42
2.5
  3
ltypeshp.shx
  4

  0
STYLE
  5
161
330
3
100
AcDbSymbolTableRecord
100
AcDbTextStyleTableRecord
  2
ACJISTS
 70
     0
 40
1.0
 41
1.0
 50
0.0
 71
     0
 42
2.5
  3
isocp.shx
  4
bigfont.shx
  0
STYLE
  5
168
330
3
100
AcDbSymbolTableRecord
100
AcDbTextStyleTableRecord
  2
ACJISGDT
 70
     0
 40
0.0
 41
1.0
 50
0.0
 71
     0
 42
2.5
  3
amgdt.shx
  4

  0
STYLE
  5
14A6
330
3
100
AcDbSymbolTableRecord
100
AcDbTextStyleTableRecord
  2
ｽﾀｲﾙ1
 70
     0
 40
0.0
 41
1.0
 50
0.0
 71
     0
 42
44.62462130138407
  3

  4

1001
ACAD
1000
HGPSoeiKakugothicUB
1071
    32818
  0
STYLE
  5
1A31
330
3
100
AcDbSymbolTableRecord
100
AcDbTextStyleTableRecord
  2
ACISOTS
 70
     0
 40
1.0
 41
1.0
 50
0.0
 71
     0
 42
3.0
  3
isocp.shx
  4
extfont.shx
  0
STYLE
  5
1A32
330
3
100
AcDbSymbolTableRecord
100
AcDbTextStyleTableRecord
  2
ACISOGDT
 70
     0
 40
0.0
 41
1.0
 50
0.0
 71
     0
 42
3.0
  3
amgdt.shx
  4

  0
STYLE
  5
251D
330
3
100
AcDbSymbolTableRecord
100
AcDbTextStyleTableRecord
  2

 70
     1
 40
0.0
 41
1.0
 50
0.0
 71
     0
 42
2.5
  3
genltshp.shx
  4

  0
ENDTAB
  0
TABLE
  2
VIEW
  5
6
330
0
100
AcDbSymbolTable
 70
     6
  0
VIEW
  5
7C
330
6
100
AcDbSymbolTableRecord
100
AcDbViewTableRecord
  2
AM_VIEW1
 70
     0
 40
74.25000000000006
 10
168.0344359866042
 20
365.1471357807053
 41
112.1648936170213
 11
0.0
 21
0.0
 31
1.0
 12
0.0
 22
0.0
 32
0.0
 42
50.0
 43
0.0
 44
0.0
 50
0.0
 71
     0
281
     0
 72
     0
  0
VIEW
  5
7D
330
6
100
AcDbSymbolTableRecord
100
AcDbViewTableRecord
  2
AM_VIEW2
 70
     0
 40
74.25000000000006
 10
265.8909709410115
 20
365.1471357807053
 41
112.1648936170213
 11
0.0
 21
0.0
 31
1.0
 12
0.0
 22
0.0
 32
0.0
 42
50.0
 43
0.0
 44
0.0
 50
0.0
 71
     0
281
     0
 72
     0
  0
VIEW
  5
7E
330
6
100
AcDbSymbolTableRecord
100
AcDbViewTableRecord
  2
AM_VIEW3
 70
     0
 40
74.25
 10
168.0344359866042
 20
290.8971357807053
 41
112.1648936170213
 11
0.0
 21
0.0
 31
1.0
 12
0.0
 22
0.0
 32
0.0
 42
50.0
 43
0.0
 44
0.0
 50
0.0
 71
     0
281
     0
 72
     0
  0
VIEW
  5
7F
330
6
100
AcDbSymbolTableRecord
100
AcDbViewTableRecord
  2
AM_VIEW4
 70
     0
 40
74.25
 10
265.8909709410115
 20
290.8971357807053
 41
112.1648936170213
 11
0.0
 21
0.0
 31
1.0
 12
0.0
 22
0.0
 32
0.0
 42
50.0
 43
0.0
 44
0.0
 50
0.0
 71
     0
281
     0
 72
     0
  0
VIEW
  5
80
330
6
100
AcDbSymbolTableRecord
100
AcDbViewTableRecord
  2
AM_VIEW5
 70
     0
 40
74.25
 10
216.9627034638078
 20
328.0221357807053
 41
112.1648936170213
 11
0.0
 21
0.0
 31
1.0
 12
0.0
 22
0.0
 32
0.0
 42
50.0
 43
0.0
 44
0.0
 50
0.0
 71
     0
281
     0
 72
     0
  0
VIEW
  5
81
330
6
100
AcDbSymbolTableRecord
100
AcDbViewTableRecord
  2
AM_VIEW6
 70
     0
 40
148.498515
 10
216.9627034638078
 20
328.0221357807053
 41
224.3275439361703
 11
0.0
 21
0.0
 31
1.0
 12
0.0
 22
0.0
 32
0.0
 42
50.0
 43
0.0
 44
0.0
 50
0.0
 71
     0
281
     0
 72
     0
  0
ENDTAB
  0
TABLE
  2
UCS
  5
7
330
0
100
AcDbSymbolTable
 70
     0
  0
ENDTAB
  0
TABLE
  2
APPID
  5
9
330
0
100
AcDbSymbolTable
 70
    41
  0
APPID
  5
12
330
9
100
AcDbSymbolTableRecord
100
AcDbRegAppTableRecord
  2
ACAD
 70
     0
  0
APPID
  5
30
330
9
100
AcDbSymbolTableRecord
100
AcDbRegAppTableRecord
  2
MCAD_NO_VIS
 70
     0
  0
APPID
  5
31
330
9
100
AcDbSymbolTableRecord
100
AcDbRegAppTableRecord
  2
ACAD_TEMP_GRAPHIC
 70
     0
  0
APPID
  5
5B
330
9
100
AcDbSymbolTableRecord
100
AcDbRegAppTableRecord
  2
GENIUS_GENREC_14
 70
     0
  0
APPID
  5
5C
330
9
100
AcDbSymbolTableRecord
100
AcDbRegAppTableRecord
  2
GENIUS_GENODEF_13
 70
     0
  0
APPID
  5
5D
330
9
100
AcDbSymbolTableRecord
100
AcDbRegAppTableRecord
  2
GENIUS_GENOBJ-N-REC_13
 70
     0
  0
APPID
  5
96
330
9
100
AcDbSymbolTableRecord
100
AcDbRegAppTableRecord
  2
GENIUS_GENOBJ-N-CEN_13
 70
     0
  0
APPID
  5
C1
330
9
100
AcDbSymbolTableRecord
100
AcDbRegAppTableRecord
  2
GENIUS_GENOBJ-N-TIT_13
 70
     0
  0
APPID
  5
C2
330
9
100
AcDbSymbolTableRecord
100
AcDbRegAppTableRecord
  2
GENIUS_GENTITLE_13
 70
     0
  0
APPID
  5
C3
330
9
100
AcDbSymbolTableRecord
100
AcDbRegAppTableRecord
  2
GENIUS_GENOENT_13
 70
     0
  0
APPID
  5
C4
330
9
100
AcDbSymbolTableRecord
100
AcDbRegAppTableRecord
  2
GENIUS_GENOREF_13
 70
     0
  0
APPID
  5
C5
330
9
100
AcDbSymbolTableRecord
100
AcDbRegAppTableRecord
  2
GENIUS_GENOLIS_13
 70
     0
  0
APPID
  5
C6
330
9
100
AcDbSymbolTableRecord
100
AcDbRegAppTableRecord
  2
GENIUS_GENZVEED_13
 70
     0
  0
APPID
  5
C7
330
9
100
AcDbSymbolTableRecord
100
AcDbRegAppTableRecord
  2
GENIUS_GENSCREG_15
 70
     0
  0
APPID
  5
C8
330
9
100
AcDbSymbolTableRecord
100
AcDbRegAppTableRecord
  2
GENIUS_GENOBJ-N-SDF_13
 70
     0
  0
APPID
  5
297
330
9
100
AcDbSymbolTableRecord
100
AcDbRegAppTableRecord
  2
GENIUS_GENOBJ-N-FIL_13
 70
     0
  0
APPID
  5
2CA
330
9
100
AcDbSymbolTableRecord
100
AcDbRegAppTableRecord
  2
GENIUS_GEFSH_13
 70
     0
  0
APPID
  5
2CB
330
9
100
AcDbSymbolTableRecord
100
AcDbRegAppTableRecord
  2
GENIUS_GENOBJ-F-SHS_13
 70
     0
  0
APPID
  5
2CC
330
9
100
AcDbSymbolTableRecord
100
AcDbRegAppTableRecord
  2
GENIUS_GENFIL_13
 70
     0
  0
APPID
  5
2CD
330
9
100
AcDbSymbolTableRecord
100
AcDbRegAppTableRecord
  2
GENIUS_GENOBJ-N-CHA_13
 70
     0
  0
APPID
  5
783
330
9
100
AcDbSymbolTableRecord
100
AcDbRegAppTableRecord
  2
GENIUS_GENOBJ-N-HTC_13
 70
     0
  0
APPID
  5
784
330
9
100
AcDbSymbolTableRecord
100
AcDbRegAppTableRecord
  2
GENIUS_GENHATCH_13
 70
     0
  0
APPID
  5
DBB
330
9
100
AcDbSymbolTableRecord
100
AcDbRegAppTableRecord
  2
GENIUS_GENDTOL_13
 70
     0
  0
APPID
  5
E32
330
9
100
AcDbSymbolTableRecord
100
AcDbRegAppTableRecord
  2
GENIUS_GENDIMSH_14
 70
     0
  0
APPID
  5
1842
330
9
100
AcDbSymbolTableRecord
100
AcDbRegAppTableRecord
  2
AD_DRAW
 70
     0
  0
APPID
  5
1845
330
9
100
AcDbSymbolTableRecord
100
AcDbRegAppTableRecord
  2
ACATTRIBSERVICES
 70
     0
  0
APPID
  5
1864
330
9
100
AcDbSymbolTableRecord
100
AcDbRegAppTableRecord
  2
DESIGNERASSEMBLIES
 70
     0
  0
APPID
  5
187E
330
9
100
AcDbSymbolTableRecord
100
AcDbRegAppTableRecord
  2
ACADM_DIM_EDIT
 70
     0
  0
APPID
  5
187F
330
9
100
AcDbSymbolTableRecord
100
AcDbRegAppTableRecord
  2
AMDT_DM_ADJ
 70
     0
  0
APPID
  5
1909
330
9
100
AcDbSymbolTableRecord
100
AcDbRegAppTableRecord
  2
GENIUS_GENCEN_19
 70
     0
  0
APPID
  5
194C
330
9
100
AcDbSymbolTableRecord
100
AcDbRegAppTableRecord
  2
GENIUS_GENOBJ-N-CRS_13
 70
     0
  0
APPID
  5
1A02
330
9
100
AcDbSymbolTableRecord
100
AcDbRegAppTableRecord
  2
ACAD_EXEMPT_FROM_CAD_STANDARDS
 70
     0
  0
APPID
  5
1C1C
330
9
100
AcDbSymbolTableRecord
100
AcDbRegAppTableRecord
  2
ACAD_PSEXT
 70
     0
  0
APPID
  5
1F75
330
9
100
AcDbSymbolTableRecord
100
AcDbRegAppTableRecord
  2
ACAD_DSTYLE_DIMARC_LENGTH_SYMBOL
 70
     0
  0
APPID
  5
20E6
330
9
100
AcDbSymbolTableRecord
100
AcDbRegAppTableRecord
  2
ACAD_DSTYLE_DIMINSPECT
 70
     0
  0
APPID
  5
222D
330
9
100
AcDbSymbolTableRecord
100
AcDbRegAppTableRecord
  2
ACAD_MLEADERVER
 70
     0
  0
APPID
  5
2525
330
9
100
AcDbSymbolTableRecord
100
AcDbRegAppTableRecord
  2
ACAD_DSTYLE_DIMJAG
 70
     0
  0
APPID
  5
2526
330
9
100
AcDbSymbolTableRecord
100
AcDbRegAppTableRecord
  2
ACAD_DSTYLE_DIMBREAK
 70
     0
  0
APPID
  5
2609
330
9
100
AcDbSymbolTableRecord
100
AcDbRegAppTableRecord
  2
ACAD_DSTYLE_DIM_LINETYPE
 70
     0
  0
APPID
  5
260A
330
9
100
AcDbSymbolTableRecord
100
AcDbRegAppTableRecord
  2
ACAD_DSTYLE_DIM_EXT1_LINETYPE
 70
     0
  0
APPID
  5
260B
330
9
100
AcDbSymbolTableRecord
100
AcDbRegAppTableRecord
  2
ACAD_DSTYLE_DIM_EXT2_LINETYPE
 70
     0
  0
ENDTAB
  0
TABLE
  2
DIMSTYLE
  5
A
330
0
100
AcDbSymbolTable
 70
    17
100
AcDbDimStyleTable
 71
     2
340
8F
340
27
  0
DIMSTYLE
105
27
330
A
100
AcDbSymbolTableRecord
100
AcDbDimStyleTableRecord
  2
ISO-25
 70
     0
 41
2.5
 42
0.625
 43
3.75
 44
1.25
 73
     0
 74
     0
 77
     1
 78
     8
140
2.5
141
2.5
143
0.03937007874016
147
0.625
171
     3
172
     1
271
     2
272
     2
274
     3
283
     0
284
     8
340
11
  0
DIMSTYLE
105
8F
330
A
100
AcDbSymbolTableRecord
100
AcDbDimStyleTableRecord
  2
AM_JIS
 70
     0
  4
"
 40
0.5
 41
2.5
 42
1.0
 43
10.0
 44
1.0
 47
0.1
 48
0.1
 73
     0
 74
     0
 77
     3
 78
     8
 79
     2
140
3.5
141
0.0
143
0.0393701
146
0.71
147
1.5
172
     1
176
   256
177
   256
178
     2
271
     2
272
     3
274
     4
283
     0
340
11
341
84
342
84
343
84
344
84
371
    -1
372
    -1
  0
DIMSTYLE
105
90
330
A
100
AcDbSymbolTableRecord
100
AcDbDimStyleTableRecord
  2
AM_JIS$3
 70
     0
  4
"
 40
0.5
 41
2.5
 42
1.0
 43
10.0
 44
1.0
 47
0.1
 48
0.1
 73
     0
 77
     3
 78
     8
 79
     2
140
3.5
141
0.0
143
0.0393701
146
0.71
147
1.5
176
   256
177
   256
178
     2
271
     2
272
     3
274
     4
283
     0
288
     1
289
     0
340
11
341
84
342
84
343
84
344
84
371
    -1
372
    -1
  0
DIMSTYLE
105
91
330
A
100
AcDbSymbolTableRecord
100
AcDbDimStyleTableRecord
  2
AM_JIS$4
 70
     0
  4
"
 40
0.5
 41
2.5
 42
1.0
 43
10.0
 44
1.0
 47
0.1
 48
0.1
 73
     0
 77
     3
 78
     8
 79
     2
140
3.5
141
0.0
143
0.0393701
146
0.71
147
1.5
176
   256
177
   256
178
     2
271
     2
272
     3
274
     4
283
     0
288
     1
289
     0
340
11
341
84
342
84
343
84
344
84
371
    -1
372
    -1
  0
DIMSTYLE
105
92
330
A
100
AcDbSymbolTableRecord
100
AcDbDimStyleTableRecord
  2
AM_JIS$6
 70
     0
  4
"
 40
0.5
 41
2.5
 42
1.0
 43
10.0
 44
1.0
 47
0.1
 48
0.1
 73
     0
 74
     0
 78
     8
 79
     2
140
3.5
141
0.0
143
0.0393701
146
0.71
147
1.5
172
     1
176
   256
177
   256
178
     2
271
     2
272
     3
274
     4
283
     0
340
11
341
84
342
84
343
84
344
84
371
    -1
372
    -1
  0
DIMSTYLE
105
93
330
A
100
AcDbSymbolTableRecord
100
AcDbDimStyleTableRecord
  2
AM_JIS$7
 70
     0
  4
"
 40
0.5
 41
2.5
 42
1.0
 43
10.0
 44
1.0
 47
0.1
 48
0.1
 73
     0
 74
     0
 77
     3
 78
     8
 79
     2
140
5.0
141
0.0
143
0.0393701
146
0.71
147
1.5
172
     1
176
   256
177
   256
178
     2
271
     2
272
     3
274
     4
283
     0
340
11
341
84
342
84
343
84
344
84
371
    -1
372
    -1
  0
DIMSTYLE
105
94
330
A
100
AcDbSymbolTableRecord
100
AcDbDimStyleTableRecord
  2
AM_JIS$SF
 70
     0
  4
"
 40
0.5
 41
2.5
 42
1.0
 43
10.0
 44
1.0
 47
0.1
 48
0.1
 73
     0
 74
     0
 75
     1
 76
     1
 77
     3
 78
     8
 79
     2
140
3.5
141
0.0
143
0.0393701
146
0.71
147
1.5
172
     1
176
   256
177
   256
178
     2
271
     2
272
     3
274
     4
283
     0
340
11
341
84
342
84
343
84
344
84
371
    -1
372
    -1
  0
DIMSTYLE
105
95
330
A
100
AcDbSymbolTableRecord
100
AcDbDimStyleTableRecord
  2
AM_JIS$SH
 70
     0
  4
"
 40
0.5
 41
2.5
 42
1.0
 43
10.0
 44
1.0
 47
0.1
 48
0.1
 73
     0
 74
     0
 75
     1
 76
     1
 77
     3
 78
     8
 79
     2
140
3.5
141
0.0
143
0.0393701
144
2.0
146
0.71
147
1.5
172
     1
173
     1
176
   256
177
   256
178
     2
271
     2
272
     3
274
     4
283
     0
340
11
341
84
342
84
343
8A
344
84
371
    -1
372
    -1
  0
DIMSTYLE
105
1885
330
A
100
AcDbSymbolTableRecord
100
AcDbDimStyleTableRecord
  2
AM_JIS$0
 70
     0
  4
"
 40
0.5
 41
2.5
 42
1.0
 43
10.0
 44
1.0
 47
0.1
 48
0.1
 73
     0
 74
     0
 77
     3
 78
     8
 79
     2
140
3.5
141
0.0
143
0.0393701
146
0.71
147
1.5
172
     1
176
   256
177
   256
178
     2
271
     2
272
     3
274
     4
283
     0
340
11
341
84
342
84
343
84
344
84
371
    -1
372
    -1
  0
DIMSTYLE
105
1C1B
330
A
100
AcDbSymbolTableRecord
100
AcDbDimStyleTableRecord
  2
AM_JIS$2
 70
     0
  4
"
 40
0.5
 41
2.5
 42
1.0
 43
10.0
 44
1.0
 47
0.1
 48
0.1
 73
     0
 74
     0
 77
     3
 78
     8
 79
     2
140
3.5
141
0.0
143
0.0393701
146
0.71
147
1.5
172
     1
176
   256
177
   256
178
     2
271
     2
272
     3
274
     4
283
     0
284
     8
340
11
341
84
342
84
343
84
344
84
371
    -1
372
    -1
1001
ACAD_DSTYLE_DIMARC_LENGTH_SYMBOL
1070
   379
1070
     1
  0
DIMSTYLE
105
251E
102
{ACAD_REACTORS
330
1A69
102
}
330
A
100
AcDbSymbolTableRecord
100
AcDbDimStyleTableRecord
  2
AM_ISO
 70
     0
  4
"
 41
3.5
 42
1.0
 43
10.0
 44
1.0
 47
0.1
 48
0.1
 73
     0
 74
     0
 77
     1
 78
     8
 79
     2
140
3.5
141
0.0
143
0.0393701
146
0.71
147
1.5
172
     1
176
   256
177
   256
178
     2
271
     2
272
     3
274
     4
283
     0
284
     8
340
11
371
    -1
372
    -1
1001
ACAD_DSTYLE_DIMJAG
1070
   388
1040
1.5
1001
ACAD_DSTYLE_DIMBREAK
1070
   391
1040
3.75
1001
ACAD_DSTYLE_DIMARC_LENGTH_SYMBOL
1070
   379
1070
     1
1001
ACAD_DSTYLE_DIM_LINETYPE
1070
   380
1005
14
1001
ACAD_DSTYLE_DIM_EXT1_LINETYPE
1070
   381
1005
14
1001
ACAD_DSTYLE_DIM_EXT2_LINETYPE
1070
   382
1005
14
  0
DIMSTYLE
105
251F
330
A
100
AcDbSymbolTableRecord
100
AcDbDimStyleTableRecord
  2
AM_ISO$3
 70
     0
  4
"
 41
3.5
 42
1.0
 43
10.0
 44
1.0
 47
0.1
 48
0.1
 73
     0
 77
     1
 78
     8
 79
     2
140
3.5
141
0.0
143
0.0393701
146
0.71
147
1.5
176
   256
177
   256
178
     2
271
     2
272
     3
274
     4
283
     0
284
     8
288
     1
289
     0
340
11
371
    -1
372
    -1
1001
ACAD_DSTYLE_DIMBREAK
1070
   391
1040
3.75
1001
ACAD_DSTYLE_DIMJAG
1070
   388
1040
1.5
1001
ACAD_DSTYLE_DIMARC_LENGTH_SYMBOL
1070
   379
1070
     1
1001
ACAD_DSTYLE_DIM_LINETYPE
1070
   380
1005
14
1001
ACAD_DSTYLE_DIM_EXT1_LINETYPE
1070
   381
1005
14
1001
ACAD_DSTYLE_DIM_EXT2_LINETYPE
1070
   382
1005
14
  0
DIMSTYLE
105
2520
330
A
100
AcDbSymbolTableRecord
100
AcDbDimStyleTableRecord
  2
AM_ISO$4
 70
     0
  4
"
 41
3.5
 42
1.0
 43
10.0
 44
1.0
 47
0.1
 48
0.1
 73
     0
 77
     1
 78
     8
 79
     2
140
3.5
141
0.0
143
0.0393701
146
0.71
147
1.5
176
   256
177
   256
178
     2
271
     2
272
     3
274
     4
283
     0
284
     8
288
     1
289
     0
340
11
371
    -1
372
    -1
1001
ACAD_DSTYLE_DIMBREAK
1070
   391
1040
3.75
1001
ACAD_DSTYLE_DIMJAG
1070
   388
1040
1.5
1001
ACAD_DSTYLE_DIMARC_LENGTH_SYMBOL
1070
   379
1070
     1
1001
ACAD_DSTYLE_DIM_LINETYPE
1070
   380
1005
14
1001
ACAD_DSTYLE_DIM_EXT1_LINETYPE
1070
   381
1005
14
1001
ACAD_DSTYLE_DIM_EXT2_LINETYPE
1070
   382
1005
14
  0
DIMSTYLE
105
2521
330
A
100
AcDbSymbolTableRecord
100
AcDbDimStyleTableRecord
  2
AM_ISO$6
 70
     0
  4
"
 41
3.5
 42
1.0
 43
10.0
 44
1.0
 47
0.1
 48
0.1
 73
     0
 74
     0
 78
     8
 79
     2
140
3.5
141
0.0
143
0.0393701
146
0.71
147
1.5
172
     1
176
   256
177
   256
178
     2
271
     2
272
     3
274
     4
283
     0
284
     8
340
11
371
    -1
372
    -1
1001
ACAD_DSTYLE_DIMBREAK
1070
   391
1040
3.75
1001
ACAD_DSTYLE_DIMJAG
1070
   388
1040
1.5
1001
ACAD_DSTYLE_DIMARC_LENGTH_SYMBOL
1070
   379
1070
     1
1001
ACAD_DSTYLE_DIM_LINETYPE
1070
   380
1005
14
1001
ACAD_DSTYLE_DIM_EXT1_LINETYPE
1070
   381
1005
14
1001
ACAD_DSTYLE_DIM_EXT2_LINETYPE
1070
   382
1005
14
  0
DIMSTYLE
105
2522
330
A
100
AcDbSymbolTableRecord
100
AcDbDimStyleTableRecord
  2
AM_ISO$7
 70
     0
  4
"
 41
3.5
 42
1.0
 43
10.0
 44
1.0
 47
0.1
 48
0.1
 73
     0
 74
     0
 77
     1
 78
     8
 79
     2
140
3.5
141
0.0
143
0.0393701
146
0.71
147
1.5
172
     1
176
   256
177
   256
178
     2
271
     2
272
     3
274
     4
283
     0
284
     8
340
11
371
    -1
372
    -1
1001
ACAD_DSTYLE_DIMBREAK
1070
   391
1040
3.75
1001
ACAD_DSTYLE_DIMJAG
1070
   388
1040
1.5
1001
ACAD_DSTYLE_DIMARC_LENGTH_SYMBOL
1070
   379
1070
     1
1001
ACAD_DSTYLE_DIM_LINETYPE
1070
   380
1005
14
1001
ACAD_DSTYLE_DIM_EXT1_LINETYPE
1070
   381
1005
14
1001
ACAD_DSTYLE_DIM_EXT2_LINETYPE
1070
   382
1005
14
  0
DIMSTYLE
105
2523
330
A
100
AcDbSymbolTableRecord
100
AcDbDimStyleTableRecord
  2
AM_ISO$SF
 70
     0
  4
"
 41
3.5
 42
1.0
 43
10.0
 44
1.0
 47
0.1
 48
0.1
 73
     0
 74
     0
 75
     1
 76
     1
 77
     1
 78
     8
 79
     2
140
3.5
141
0.0
143
0.0393701
146
0.71
147
1.5
172
     1
176
   256
177
   256
178
     2
271
     2
272
     3
274
     4
283
     0
284
     8
340
11
371
    -1
372
    -1
1001
ACAD_DSTYLE_DIMBREAK
1070
   391
1040
3.75
1001
ACAD_DSTYLE_DIMJAG
1070
   388
1040
1.5
1001
ACAD_DSTYLE_DIMARC_LENGTH_SYMBOL
1070
   379
1070
     1
1001
ACAD_DSTYLE_DIM_LINETYPE
1070
   380
1005
14
1001
ACAD_DSTYLE_DIM_EXT1_LINETYPE
1070
   381
1005
14
1001
ACAD_DSTYLE_DIM_EXT2_LINETYPE
1070
   382
1005
14
  0
DIMSTYLE
105
2524
330
A
100
AcDbSymbolTableRecord
100
AcDbDimStyleTableRecord
  2
AM_ISO$SH
 70
     0
  4
"
 41
3.5
 42
1.0
 43
10.0
 44
1.0
 47
0.1
 48
0.1
 73
     0
 74
     0
 75
     1
 76
     1
 77
     1
 78
     8
 79
     2
140
3.5
141
0.0
143
0.0393701
144
2.0
146
0.71
147
1.5
172
     1
173
     1
176
   256
177
   256
178
     2
271
     2
272
     3
274
     4
283
     0
284
     8
340
11
343
8A
371
    -1
372
    -1
1001
ACAD_DSTYLE_DIMBREAK
1070
   391
1040
3.75
1001
ACAD_DSTYLE_DIMJAG
1070
   388
1040
1.5
1001
ACAD_DSTYLE_DIMARC_LENGTH_SYMBOL
1070
   379
1070
     1
1001
ACAD_DSTYLE_DIM_LINETYPE
1070
   380
1005
14
1001
ACAD_DSTYLE_DIM_EXT1_LINETYPE
1070
   381
1005
14
1001
ACAD_DSTYLE_DIM_EXT2_LINETYPE
1070
   382
1005
14
  0
ENDTAB
  0
TABLE
  2
BLOCK_RECORD
  5
1
330
0
100
AcDbSymbolTable
 70
    14
  0
BLOCK_RECORD
  5
1F
102
{ACAD_XDICTIONARY
360
C9
102
}
330
1
100
AcDbSymbolTableRecord
100
AcDbBlockTableRecord
  2
*Model_Space
340
22
  0
BLOCK_RECORD
  5
1B
330
1
100
AcDbSymbolTableRecord
100
AcDbBlockTableRecord
  2
*Paper_Space
340
1E
  0
BLOCK_RECORD
  5
23
330
1
100
AcDbSymbolTableRecord
100
AcDbBlockTableRecord
  2
*Paper_Space0
340
26
  0
BLOCK_RECORD
  5
84
330
1
100
AcDbSymbolTableRecord
100
AcDbBlockTableRecord
  2
_Open30
340
0
102
{BLKREFS
331
21B5
331
21B6
331
247C
331
247D
331
2780
331
2781
102
}
  0
BLOCK_RECORD
  5
8A
330
1
100
AcDbSymbolTableRecord
100
AcDbBlockTableRecord
  2
GENAXEH
340
0
  0
BLOCK_RECORD
  5
12B6
330
1
100
AcDbSymbolTableRecord
100
AcDbBlockTableRecord
  2
*D3
340
0
  0
BLOCK_RECORD
  5
135C
330
1
100
AcDbSymbolTableRecord
100
AcDbBlockTableRecord
  2
GENDOT
340
0
  0
BLOCK_RECORD
  5
1472
330
1
100
AcDbSymbolTableRecord
100
AcDbBlockTableRecord
  2
AA-3-BW
340
0
  0
BLOCK_RECORD
  5
148A
330
1
100
AcDbSymbolTableRecord
100
AcDbBlockTableRecord
  2
A$C2D292097
340
0
  0
BLOCK_RECORD
  5
14A7
330
1
100
AcDbSymbolTableRecord
100
AcDbBlockTableRecord
  2
ASO
340
0
  0
BLOCK_RECORD
  5
19B9
330
1
100
AcDbSymbolTableRecord
100
AcDbBlockTableRecord
  2
*D9
340
0
  0
BLOCK_RECORD
  5
1A33
102
{ACAD_XDICTIONARY
360
1A64
102
}
330
1
100
AcDbSymbolTableRecord
100
AcDbBlockTableRecord
  2
ASO-A
340
0
  0
BLOCK_RECORD
  5
1BBA
330
1
100
AcDbSymbolTableRecord
100
AcDbBlockTableRecord
  2
A$C51D15BE4
340
0
1001
ACAD
1000
DesignCenter Data
1002
{
1070
     1
1070
     4
1002
}
  0
BLOCK_RECORD
  5
23B8
330
1
100
AcDbSymbolTableRecord
100
AcDbBlockTableRecord
  2
*D12
340
0
  0
ENDTAB
  0
ENDSEC
  0
SECTION
  2
BLOCKS
  0
BLOCK
  5
20
330
1F
100
AcDbEntity
  8
0
100
AcDbBlockBegin
  2
*Model_Space
 70
     0
 10
0.0
 20
0.0
 30
0.0
  3
*Model_Space
  1

  0
ENDBLK
  5
21
330
1F
100
AcDbEntity
  8
0
100
AcDbBlockEnd
  0
BLOCK
  5
1C
330
1B
100
AcDbEntity
 67
     1
  8
0
100
AcDbBlockBegin
  2
*Paper_Space
 70
     0
 10
0.0
 20
0.0
 30
0.0
  3
*Paper_Space
  1

  0
ENDBLK
  5
1D
330
1B
100
AcDbEntity
 67
     1
  8
0
100
AcDbBlockEnd
  0
BLOCK
  5
24
330
23
100
AcDbEntity
 67
     1
  8
0
100
AcDbBlockBegin
  2
*Paper_Space0
 70
     0
 10
0.0
 20
0.0
 30
0.0
  3
*Paper_Space0
  1

  0
ENDBLK
  5
25
330
23
100
AcDbEntity
 67
     1
  8
0
100
AcDbBlockEnd
  0
BLOCK
  5
88
330
84
100
AcDbEntity
  8
0
100
AcDbBlockBegin
  2
_Open30
 70
     0
 10
0.0
 20
0.0
 30
0.0
  3
_Open30
  1

  0
LINE
  5
85
330
84
100
AcDbEntity
  8
0
 62
     0
370
    -2
100
AcDbLine
 10
-1.0
 20
0.26794919
 30
0.0
 11
0.0
 21
0.0
 31
0.0
  0
LINE
  5
86
330
84
100
AcDbEntity
  8
0
 62
     0
370
    -2
100
AcDbLine
 10
0.0
 20
0.0
 30
0.0
 11
-1.0
 21
-0.26794919
 31
0.0
  0
LINE
  5
87
330
84
100
AcDbEntity
  8
0
 62
     0
370
    -2
100
AcDbLine
 10
0.0
 20
0.0
 30
0.0
 11
-1.0
 21
0.0
 31
0.0
  0
ENDBLK
  5
89
330
84
100
AcDbEntity
  8
0
100
AcDbBlockEnd
  0
BLOCK
  5
8C
330
8A
100
AcDbEntity
  8
0
100
AcDbBlockBegin
  2
GENAXEH
 70
     0
 10
0.0
 20
0.0
 30
0.0
  3
GENAXEH
  1

  0
LINE
  5
8B
330
8A
100
AcDbEntity
  8
0
100
AcDbLine
 10
-1.0
 20
0.0
 30
0.0
 11
1.0
 21
0.0
 31
0.0
  0
ENDBLK
  5
8D
330
8A
100
AcDbEntity
  8
0
100
AcDbBlockEnd
  0
BLOCK
  5
12C0
330
12B6
100
AcDbEntity
  8
0
100
AcDbBlockBegin
  2
*D3
 70
     1
 10
0.0
 20
0.0
 30
0.0
  3
*D3
  1

  0
LINE
  5
277D
330
12B6
100
AcDbEntity
  8
AM_5
100
AcDbLine
 10
174.2207760592689
 20
342.1809146826004
 30
0.0
 11
195.5150384138908
 21
342.1809146826004
 31
0.0
  0
LINE
  5
277E
330
12B6
100
AcDbEntity
  8
AM_5
100
AcDbLine
 10
190.2207760592688
 20
298.0496082312375
 30
0.0
 11
195.5150384138908
 21
298.0496082312375
 31
0.0
  0
LINE
  5
277F
330
12B6
100
AcDbEntity
  8
AM_5
100
AcDbLine
 10
195.0150384138908
 20
340.9309146826004
 30
0.0
 11
195.0150384138908
 21
299.2996082312375
 31
0.0
  0
INSERT
  5
2780
330
12B6
100
AcDbEntity
  8
AM_5
100
AcDbBlockReference
  2
_Open30
 10
195.0150384138908
 20
342.1809146826004
 30
0.0
 41
1.25
 42
1.25
 43
1.25
 50
90.0
  0
INSERT
  5
2781
330
12B6
100
AcDbEntity
  8
AM_5
100
AcDbBlockReference
  2
_Open30
 10
195.0150384138908
 20
298.0496082312375
 30
0.0
 41
1.25
 42
1.25
 43
1.25
 50
270.0
  0
MTEXT
  5
2782
330
12B6
100
AcDbEntity
  8
AM_5
 62
     2
100
AcDbMText
 10
193.3900384138907
 20
320.115261456919
 30
0.0
 40
1.75
 41
0.0
 71
     5
 72
     1
  1
44
 11
0.0000000000000001
 21
1.0
 31
0.0
 73
     1
 44
1.0
1001
ACAD
1000
MTEXTBEGIN
1070
    73
1070
     1
1070
    44
1040
1.0
1070
    74
1070
     0
1000
MTEXTEND
  0
POINT
  5
2783
330
12B6
100
AcDbEntity
  8
Defpoints
 62
     0
100
AcDbPoint
 10
173.7207760592689
 20
342.1809146826004
 30
0.0
  0
POINT
  5
2784
330
12B6
100
AcDbEntity
  8
Defpoints
 62
     0
100
AcDbPoint
 10
189.7207760592688
 20
298.0496082312375
 30
0.0
  0
POINT
  5
2785
330
12B6
100
AcDbEntity
  8
Defpoints
 62
     0
100
AcDbPoint
 10
195.0150384138908
 20
298.0496082312375
 30
0.0
  0
ENDBLK
  5
12C1
330
12B6
100
AcDbEntity
  8
0
100
AcDbBlockEnd
  0
BLOCK
  5
135F
330
135C
100
AcDbEntity
  8
0
100
AcDbBlockBegin
  2
GENDOT
 70
     0
 10
0.0
 20
0.0
 30
0.0
  3
GENDOT
  1

  0
LINE
  5
135D
330
135C
100
AcDbEntity
  8
0
100
AcDbLine
 10
0.0
 20
0.0
 30
0.0
 11
-1.0
 21
0.0
 31
0.0
  0
LWPOLYLINE
  5
135E
330
135C
100
AcDbEntity
  8
0
100
AcDbPolyline
 90
        2
 70
     1
 43
0.25
 10
-0.125
 20
0.0
 42
1.0
 10
0.125
 20
0.0
 42
1.0
  0
ENDBLK
  5
1360
330
135C
100
AcDbEntity
  8
0
100
AcDbBlockEnd
  0
BLOCK
  5
1480
330
1472
100
AcDbEntity
  8
0
100
AcDbBlockBegin
  2
AA-3-BW
 70
     0
 10
0.0
 20
0.0
 30
0.0
  3
AA-3-BW
  1

  0
LWPOLYLINE
  5
1473
330
1472
100
AcDbEntity
  8
AM_BOR
 62
   231
100
AcDbPolyline
 90
        4
 70
     1
 43
0.0
 10
11.31798825946299
 20
285.680442839147
 10
11.31798825946292
 20
11.31955716085312
 10
408.7322739737486
 20
11.31955716085296
 10
408.7322739737486
 20
285.680442839147
1001
GENIUS_GENREC_14
1002
{
1000
PYDIR
1011
408.7322739737486
1021
285.680442839147
1031
0.0
1002
}
1002
{
1000
PXDIR
1011
11.31798825946292
1021
11.31955716085312
1031
0.0
1002
}
1002
{
1000
PORI
1011
11.31798825946299
1021
285.680442839147
1031
0.0
1002
}
1002
{
1000
PINS
1011
11.31798825946299
1021
285.680442839147
1031
0.0
1002
}
1002
{
1000
HVAL
1000
281
1002
}
1002
{
1000
H
1070
     2
1002
}
1002
{
1000
WVAL
1000
183
1002
}
1002
{
1000
W
1070
     2
1002
}
1002
{
1000
C
1070
     1
1002
}
1001
GENIUS_GENODEF_13
1002
{
1000
HIER
1070
     0
1002
}
1002
{
1000
MANEDIT
1070
     0
1002
}
1002
{
1000
NOSEL
1070
     0
1002
}
1002
{
1000
BEHIND
1070
     0
1002
}
1002
{
1000
REACTOR
1002
}
1001
GENIUS_GENOBJ-N-REC_13
1002
{
1000
OWNER
1000
GEN
1002
}
  0
TEXT
  5
1474
330
1472
100
AcDbEntity
  8
AM_BOR
 60
     1
100
AcDbText
 10
420.0428571428571
 20
296.9999999999998
 30
0.0
 40
5.0
  1
!GENTITLE-MAX
100
AcDbText
  0
LINE
  5
1475
330
1472
100
AcDbEntity
  8
AM_BOR
100
AcDbLine
 10
0.0000000000000799
 20
297.0
 30
0.0
 11
0.0000000000000799
 21
275.7857142857142
 31
0.0
1001
GENIUS_GENREC_14
1002
{
1000
PYDIR
1011
420.0428571428571
1021
296.9999999999998
1031
0.0
1002
}
1002
{
1000
PXDIR
1011
0.0
1021
0.0
1031
0.0
1002
}
1002
{
1000
PORI
1011
0.0000000000000799
1021
297.0
1031
0.0
1002
}
1002
{
1000
PINS
1011
0.0000000000000799
1021
297.0
1031
0.0
1002
}
1002
{
1000
HVAL
1000
297
1002
}
1002
{
1000
H
1070
     2
1002
}
1002
{
1000
WVAL
1000
210
1002
}
1002
{
1000
W
1070
     2
1002
}
1002
{
1000
C
1070
     1
1002
}
1001
GENIUS_GENODEF_13
1002
{
1000
HIER
1070
     0
1002
}
1002
{
1000
MANEDIT
1070
     0
1002
}
1002
{
1000
NOSEL
1070
     0
1002
}
1002
{
1000
BEHIND
1070
     0
1002
}
1002
{
1000
REACTOR
1002
}
1001
GENIUS_GENOBJ-N-REC_13
1002
{
1000
OWNER
1000
GEN
1002
}
  0
LINE
  5
1476
330
1472
100
AcDbEntity
  8
AM_BOR
100
AcDbLine
 10
0.0
 20
0.0
 30
0.0
 11
21.21428571428571
 21
0.0
 31
0.0
1001
GENIUS_GENREC_14
1002
{
1000
PYDIR
1011
420.0428571428571
1021
296.9999999999998
1031
0.0
1002
}
1002
{
1000
PXDIR
1011
0.0
1021
0.0
1031
0.0
1002
}
1002
{
1000
PORI
1011
0.0000000000000799
1021
297.0
1031
0.0
1002
}
1002
{
1000
PINS
1011
0.0000000000000799
1021
297.0
1031
0.0
1002
}
1002
{
1000
HVAL
1000
297
1002
}
1002
{
1000
H
1070
     2
1002
}
1002
{
1000
WVAL
1000
210
1002
}
1002
{
1000
W
1070
     2
1002
}
1002
{
1000
C
1070
     1
1002
}
1001
GENIUS_GENODEF_13
1002
{
1000
HIER
1070
     0
1002
}
1002
{
1000
MANEDIT
1070
     0
1002
}
1002
{
1000
NOSEL
1070
     0
1002
}
1002
{
1000
BEHIND
1070
     0
1002
}
1002
{
1000
REACTOR
1002
}
1001
GENIUS_GENOBJ-N-REC_13
1002
{
1000
OWNER
1000
GEN
1002
}
  0
LINE
  5
1477
330
1472
100
AcDbEntity
  8
AM_BOR
100
AcDbLine
 10
420.0428571428571
 20
-0.0000000000000799
 30
0.0
 11
420.0428571428571
 21
21.21428571428563
 31
0.0
1001
GENIUS_GENREC_14
1002
{
1000
PYDIR
1011
420.0428571428571
1021
296.9999999999998
1031
0.0
1002
}
1002
{
1000
PXDIR
1011
0.0
1021
0.0
1031
0.0
1002
}
1002
{
1000
PORI
1011
0.0000000000000799
1021
297.0
1031
0.0
1002
}
1002
{
1000
PINS
1011
0.0000000000000799
1021
297.0
1031
0.0
1002
}
1002
{
1000
HVAL
1000
297
1002
}
1002
{
1000
H
1070
     2
1002
}
1002
{
1000
WVAL
1000
210
1002
}
1002
{
1000
W
1070
     2
1002
}
1002
{
1000
C
1070
     1
1002
}
1001
GENIUS_GENODEF_13
1002
{
1000
HIER
1070
     0
1002
}
1002
{
1000
MANEDIT
1070
     0
1002
}
1002
{
1000
NOSEL
1070
     0
1002
}
1002
{
1000
BEHIND
1070
     0
1002
}
1002
{
1000
REACTOR
1002
}
1001
GENIUS_GENOBJ-N-REC_13
1002
{
1000
OWNER
1000
GEN
1002
}
  0
LINE
  5
1478
330
1472
100
AcDbEntity
  8
AM_BOR
100
AcDbLine
 10
420.0428571428571
 20
296.9999999999998
 30
0.0
 11
398.8285714285715
 21
296.9999999999998
 31
0.0
1001
GENIUS_GENREC_14
1002
{
1000
PYDIR
1011
420.0428571428571
1021
296.9999999999998
1031
0.0
1002
}
1002
{
1000
PXDIR
1011
0.0
1021
0.0
1031
0.0
1002
}
1002
{
1000
PORI
1011
0.0000000000000799
1021
297.0
1031
0.0
1002
}
1002
{
1000
PINS
1011
0.0000000000000799
1021
297.0
1031
0.0
1002
}
1002
{
1000
HVAL
1000
297
1002
}
1002
{
1000
H
1070
     2
1002
}
1002
{
1000
WVAL
1000
210
1002
}
1002
{
1000
W
1070
     2
1002
}
1002
{
1000
C
1070
     1
1002
}
1001
GENIUS_GENODEF_13
1002
{
1000
HIER
1070
     0
1002
}
1002
{
1000
MANEDIT
1070
     0
1002
}
1002
{
1000
NOSEL
1070
     0
1002
}
1002
{
1000
BEHIND
1070
     0
1002
}
1002
{
1000
REACTOR
1002
}
1001
GENIUS_GENOBJ-N-REC_13
1002
{
1000
OWNER
1000
GEN
1002
}
  0
LINE
  5
1479
330
1472
100
AcDbEntity
  8
AM_BOR
100
AcDbLine
 10
21.2142857142858
 20
297.0
 30
0.0
 11
0.0000000000000799
 21
297.0
 31
0.0
1001
GENIUS_GENREC_14
1002
{
1000
PYDIR
1011
420.0428571428571
1021
296.9999999999998
1031
0.0
1002
}
1002
{
1000
PXDIR
1011
0.0
1021
0.0
1031
0.0
1002
}
1002
{
1000
PORI
1011
0.0000000000000799
1021
297.0
1031
0.0
1002
}
1002
{
1000
PINS
1011
0.0000000000000799
1021
297.0
1031
0.0
1002
}
1002
{
1000
HVAL
1000
297
1002
}
1002
{
1000
H
1070
     2
1002
}
1002
{
1000
WVAL
1000
210
1002
}
1002
{
1000
W
1070
     2
1002
}
1002
{
1000
C
1070
     1
1002
}
1001
GENIUS_GENODEF_13
1002
{
1000
HIER
1070
     0
1002
}
1002
{
1000
MANEDIT
1070
     0
1002
}
1002
{
1000
NOSEL
1070
     0
1002
}
1002
{
1000
BEHIND
1070
     0
1002
}
1002
{
1000
REACTOR
1002
}
1001
GENIUS_GENOBJ-N-REC_13
1002
{
1000
OWNER
1000
GEN
1002
}
  0
LINE
  5
147A
330
1472
100
AcDbEntity
  8
AM_BOR
100
AcDbLine
 10
420.0428571428571
 20
275.7857142857141
 30
0.0
 11
420.0428571428571
 21
296.9999999999998
 31
0.0
1001
GENIUS_GENREC_14
1002
{
1000
PYDIR
1011
420.0428571428571
1021
296.9999999999998
1031
0.0
1002
}
1002
{
1000
PXDIR
1011
0.0
1021
0.0
1031
0.0
1002
}
1002
{
1000
PORI
1011
0.0000000000000799
1021
297.0
1031
0.0
1002
}
1002
{
1000
PINS
1011
0.0000000000000799
1021
297.0
1031
0.0
1002
}
1002
{
1000
HVAL
1000
297
1002
}
1002
{
1000
H
1070
     2
1002
}
1002
{
1000
WVAL
1000
210
1002
}
1002
{
1000
W
1070
     2
1002
}
1002
{
1000
C
1070
     1
1002
}
1001
GENIUS_GENODEF_13
1002
{
1000
HIER
1070
     0
1002
}
1002
{
1000
MANEDIT
1070
     0
1002
}
1002
{
1000
NOSEL
1070
     0
1002
}
1002
{
1000
BEHIND
1070
     0
1002
}
1002
{
1000
REACTOR
1002
}
1001
GENIUS_GENOBJ-N-REC_13
1002
{
1000
OWNER
1000
GEN
1002
}
  0
LINE
  5
147B
330
1472
100
AcDbEntity
  8
AM_BOR
100
AcDbLine
 10
398.8285714285715
 20
-0.0000000000000799
 30
0.0
 11
420.0428571428571
 21
-0.0000000000000799
 31
0.0
1001
GENIUS_GENREC_14
1002
{
1000
PYDIR
1011
420.0428571428571
1021
296.9999999999998
1031
0.0
1002
}
1002
{
1000
PXDIR
1011
0.0
1021
0.0
1031
0.0
1002
}
1002
{
1000
PORI
1011
0.0000000000000799
1021
297.0
1031
0.0
1002
}
1002
{
1000
PINS
1011
0.0000000000000799
1021
297.0
1031
0.0
1002
}
1002
{
1000
HVAL
1000
297
1002
}
1002
{
1000
H
1070
     2
1002
}
1002
{
1000
WVAL
1000
210
1002
}
1002
{
1000
W
1070
     2
1002
}
1002
{
1000
C
1070
     1
1002
}
1001
GENIUS_GENODEF_13
1002
{
1000
HIER
1070
     0
1002
}
1002
{
1000
MANEDIT
1070
     0
1002
}
1002
{
1000
NOSEL
1070
     0
1002
}
1002
{
1000
BEHIND
1070
     0
1002
}
1002
{
1000
REACTOR
1002
}
1001
GENIUS_GENOBJ-N-REC_13
1002
{
1000
OWNER
1000
GEN
1002
}
  0
LINE
  5
147C
330
1472
100
AcDbEntity
  8
AM_BOR
100
AcDbLine
 10
0.0
 20
21.21428571428571
 30
0.0
 11
0.0
 21
0.0
 31
0.0
1001
GENIUS_GENREC_14
1002
{
1000
PYDIR
1011
420.0428571428571
1021
296.9999999999998
1031
0.0
1002
}
1002
{
1000
PXDIR
1011
0.0
1021
0.0
1031
0.0
1002
}
1002
{
1000
PORI
1011
0.0000000000000799
1021
297.0
1031
0.0
1002
}
1002
{
1000
PINS
1011
0.0000000000000799
1021
297.0
1031
0.0
1002
}
1002
{
1000
HVAL
1000
297
1002
}
1002
{
1000
H
1070
     2
1002
}
1002
{
1000
WVAL
1000
210
1002
}
1002
{
1000
W
1070
     2
1002
}
1002
{
1000
C
1070
     1
1002
}
1001
GENIUS_GENODEF_13
1002
{
1000
HIER
1070
     0
1002
}
1002
{
1000
MANEDIT
1070
     0
1002
}
1002
{
1000
NOSEL
1070
     0
1002
}
1002
{
1000
BEHIND
1070
     0
1002
}
1002
{
1000
REACTOR
1002
}
1001
GENIUS_GENOBJ-N-REC_13
1002
{
1000
OWNER
1000
GEN
1002
}
  0
TEXT
  5
147D
330
1472
100
AcDbEntity
  8
AM_0
 60
     1
100
AcDbText
 10
408.7322739737486
 20
285.680442839147
 30
0.0
 40
5.0
  1
!GENTITLE-RU
100
AcDbText
  0
TEXT
  5
147E
330
1472
100
AcDbEntity
  8
AM_0
 60
     1
100
AcDbText
 10
16.00523592247285
 20
16.0074545709034
 30
0.0
 40
5.0
  1
!GENTITLE-LL
100
AcDbText
  0
TEXT
  5
147F
330
1472
100
AcDbEntity
  8
AM_0
 60
     1
100
AcDbText
 10
408.7322739737486
 20
11.31955716085296
 30
0.0
 40
5.0
  1
!GENTITLE-INSERT
100
AcDbText
  0
ENDBLK
  5
1481
330
1472
100
AcDbEntity
  8
0
100
AcDbBlockEnd
  0
BLOCK
  5
149A
330
148A
100
AcDbEntity
  8
0
100
AcDbBlockBegin
  2
A$C2D292097
 70
     0
 10
0.0
 20
0.0
 30
0.0
  3
A$C2D292097
  1

  0
TEXT
  5
148B
330
148A
100
AcDbEntity
  8
0
100
AcDbText
 10
197.1044423511698
 20
31.0035981017752
 30
0.0
 40
10.0
  1
ASOH   CO.LTD
 41
5.0
  7
ｽﾀｲﾙ1
100
AcDbText
  0
TEXT
  5
148C
330
148A
100
AcDbEntity
  8
0
100
AcDbText
 10
127.3589261501835
 20
61.98001452360745
 30
0.0
 40
66.93693195207612
  1
アソー株式会社
  7
ｽﾀｲﾙ1
100
AcDbText
  0
HATCH
  5
148D
330
148A
100
AcDbEntity
  8
AM_8
100
AcDbHatch
 10
0.0
 20
0.0
 30
0.0
210
0.0
220
0.0
230
1.0
  2
SOLID
 70
     1
 71
     0
 91
        1
 92
        1
 93
       10
 72
     1
 10
26.27998696211468
 20
119.622038302041
 11
19.72254667781421
 21
94.20654351522143
 72
     1
 10
19.72254667781422
 20
94.20654351522143
 11
20.10217910550261
 21
94.65251979790156
 72
     3
 10
29.97494128357687
 20
79.68778553387966
 11
0.2402016329913205
 21
19.99855752736962
 40
0.7499999999999996
 50
-34.10238568201522
 51
52.41091053102508
 73
     0
 72
     1
 10
43.0844862433824
 20
89.53104876041368
 11
63.55518980891033
 21
40.6543652059048
 72
     3
 10
76.66473476871587
 20
50.49762843243886
 11
0.2402016329913134
 21
19.99855752736962
 40
0.7499999999999999
 50
127.589089468975
 51
243.9002512902304
 73
     1
 72
     1
 10
90.66060611817196
 20
43.43151697692579
 11
98.94218718925374
 21
72.13430932636422
 72
     1
 10
98.94218718925376
 20
72.13430932636422
 11
97.4258024259505
 21
70.16225780455534
 72
     3
 10
86.98981389832653
 20
84.43075959876276
 11
-0.2402016329912594
 21
-19.99855752736953
 40
0.7499999999999996
 50
-36.86989764584386
 51
52.41091053102518
 73
     0
 72
     1
 10
73.88026893852099
 20
74.58749637222874
 11
53.57102076277776
 21
123.0786824781806
 72
     3
 10
40.46147580297221
 20
113.2354192516466
 11
-0.2402016329912799
 21
-19.99855752736961
 40
0.7500000000000002
 50
127.5890894689749
 51
246.4437724078177
 73
     1
 97
        0
 75
     0
 76
     1
 98
        1
 10
-11.02788873631791
 20
-99.90118815091953
1001
GENIUS_GENODEF_13
1002
{
1000
HIER
1070
     0
1002
}
1002
{
1000
MANEDIT
1070
     0
1002
}
1002
{
1000
NOSEL
1070
     0
1002
}
1002
{
1000
BEHIND
1070
     0
1002
}
1002
{
1000
REACTOR
1002
}
1001
GENIUS_GENOBJ-N-HTC_13
1002
{
1000
OWNER
1000
GEN
1002
}
1001
GENIUS_GENHATCH_13
1002
{
1000
DATA
1040
0.0
1042
0.9999999999999998
1000
SOLID
1070
     0
1011
65.16661907668134
1021
74.10910423558471
1031
0.0
1002
}
1002
{
1000
UCS
1010
0.0
1020
0.0
1030
0.0
1010
1.0
1020
0.0
1030
0.0
1010
0.0
1020
1.0
1030
0.0
1002
}
  0
HATCH
  5
148E
330
148A
100
AcDbEntity
  8
AM_8
100
AcDbHatch
 10
0.0
 20
0.0
 30
0.0
210
0.0
220
0.0
230
1.0
  2
SOLID
 70
     1
 71
     0
 91
        1
 92
        1
 93
        2
 72
     2
 10
27.87973327687144
 20
49.81037059826576
 40
18.33631541869489
 50
10.7710123686058
 51
355.3294096482469
 73
     1
 72
     2
 10
27.87973327687144
 20
49.81037059826576
 40
18.33631541869488
 50
355.3294096482469
 51
370.7710123686058
 73
     1
 97
        0
 75
     0
 76
     1
 98
        1
 10
-11.02788873631791
 20
-99.90118815091953
1001
GENIUS_GENODEF_13
1002
{
1000
HIER
1070
     0
1002
}
1002
{
1000
MANEDIT
1070
     0
1002
}
1002
{
1000
NOSEL
1070
     0
1002
}
1002
{
1000
BEHIND
1070
     0
1002
}
1002
{
1000
REACTOR
1002
}
1001
GENIUS_GENOBJ-N-HTC_13
1002
{
1000
OWNER
1000
GEN
1002
}
1001
GENIUS_GENHATCH_13
1002
{
1000
DATA
1040
0.0
1042
0.9999999999999998
1000
SOLID
1070
     0
1011
30.27624113759819
1021
49.61458016509695
1031
0.0
1002
}
1002
{
1000
UCS
1010
0.0
1020
0.0
1030
0.0
1010
1.0
1020
0.0
1030
0.0
1010
0.0
1020
1.0
1030
0.0
1002
}
  0
CIRCLE
  5
148F
330
148A
100
AcDbEntity
  8
0
100
AcDbCircle
 10
27.87973327687145
 20
49.81037059826573
 30
0.0
 40
18.33631541869488
  0
LINE
  5
1490
330
148A
100
AcDbEntity
  8
0
100
AcDbLine
 10
98.94218718925376
 20
72.13430932636422
 30
0.0
 11
90.66060611817196
 21
43.43151697692576
 31
0.0
  0
LINE
  5
1491
330
148A
100
AcDbEntity
  8
0
100
AcDbLine
 10
43.0844862433824
 20
89.5310487604137
 30
0.0
 11
63.55518980891034
 21
40.6543652059048
 31
0.0
  0
ELLIPSE
  5
1492
330
148A
100
AcDbEntity
  8
0
100
AcDbEllipse
 10
76.66473476871587
 20
50.49762843243886
 30
0.0
 11
0.2402016329913116
 21
19.99855752736953
 31
0.0
210
0.0
220
0.0
230
0.9999999999999998
 40
0.7499999999999999
 41
2.094395102393195
 42
4.360282821964076
1001
GENIUS_GENODEF_13
1002
{
1000
HIER
1070
     0
1002
}
1002
{
1000
MANEDIT
1070
     0
1002
}
1002
{
1000
NOSEL
1070
     0
1002
}
1002
{
1000
BEHIND
1070
     0
1002
}
1002
{
1000
REACTOR
1002
}
1001
GENIUS_GENOBJ-N-FIL_13
1002
{
1000
OWNER
1000
GEN
1002
}
  0
ELLIPSE
  5
1493
330
148A
100
AcDbEntity
  8
0
100
AcDbEllipse
 10
86.98981389832653
 20
84.43075959876276
 30
0.0
 11
0.2402016329912594
 21
19.99855752736953
 31
0.0
210
0.0
220
0.0
230
1.0
 40
0.7499999999999996
 41
2.094395102393192
 42
3.926990816987234
1001
GENIUS_GENODEF_13
1002
{
1000
HIER
1070
     0
1002
}
1002
{
1000
MANEDIT
1070
     0
1002
}
1002
{
1000
NOSEL
1070
     0
1002
}
1002
{
1000
BEHIND
1070
     0
1002
}
1002
{
1000
REACTOR
1002
}
1001
GENIUS_GENOBJ-N-FIL_13
1002
{
1000
OWNER
1000
GEN
1002
}
  0
ELLIPSE
  5
1494
330
148A
100
AcDbEntity
  8
0
100
AcDbEllipse
 10
29.97494128357687
 20
79.68778553387966
 30
0.0
 11
0.2402016329913188
 21
19.99855752736953
 31
0.0
210
0.0
220
0.0
230
0.9999999999999998
 40
0.7499999999999996
 41
-1.047197551196598
 42
0.7343684516294112
1001
GENIUS_GENODEF_13
1002
{
1000
HIER
1070
     0
1002
}
1002
{
1000
MANEDIT
1070
     0
1002
}
1002
{
1000
NOSEL
1070
     0
1002
}
1002
{
1000
BEHIND
1070
     0
1002
}
1002
{
1000
REACTOR
1002
}
1001
GENIUS_GENOBJ-N-FIL_13
1002
{
1000
OWNER
1000
GEN
1002
}
  0
ELLIPSE
  5
1495
330
148A
100
AcDbEntity
  8
0
100
AcDbEllipse
 10
40.46147580297221
 20
113.2354192516466
 30
0.0
 11
0.2402016329912781
 21
19.99855752736952
 31
0.0
210
0.0
220
0.0
230
0.9999999999999996
 40
0.75
 41
-1.047197551196599
 42
1.254770269777095
1001
GENIUS_GENODEF_13
1002
{
1000
HIER
1070
     0
1002
}
1002
{
1000
MANEDIT
1070
     0
1002
}
1002
{
1000
NOSEL
1070
     0
1002
}
1002
{
1000
BEHIND
1070
     0
1002
}
1002
{
1000
REACTOR
1002
}
1001
GENIUS_GENOBJ-N-FIL_13
1002
{
1000
OWNER
1000
GEN
1002
}
  0
LINE
  5
1496
330
148A
100
AcDbEntity
  8
0
100
AcDbLine
 10
73.88026893852099
 20
74.58749637222874
 30
0.0
 11
53.57102076277774
 21
123.0786824781806
 31
0.0
  0
LINE
  5
1497
330
148A
100
AcDbEntity
  8
0
100
AcDbLine
 10
26.27998696211472
 20
119.6220383020412
 30
0.0
 11
19.72254667781422
 21
94.20654351522143
 31
0.0
  0
LINE
  5
1498
330
148A
100
AcDbEntity
  8
0
100
AcDbLine
 10
19.72254667781422
 20
94.20654351522143
 30
0.0
 11
20.1021791055026
 21
94.65251979790158
 31
0.0
  0
LINE
  5
1499
330
148A
100
AcDbEntity
  8
0
100
AcDbLine
 10
98.94218718925372
 20
72.13430932636422
 30
0.0
 11
97.42580242595048
 21
70.16225780455531
 31
0.0
  0
ENDBLK
  5
149B
330
148A
100
AcDbEntity
  8
0
100
AcDbBlockEnd
  0
BLOCK
  5
14D5
330
14A7
100
AcDbEntity
  8
0
100
AcDbBlockBegin
  2
ASO
 70
     2
 10
0.0
 20
0.0
 30
0.0
  3
ASO
  1

  0
LINE
  5
14A8
330
14A7
100
AcDbEntity
  8
AM_BOR
 62
   211
100
AcDbLine
 10
-110.0
 20
0.0
 30
0.0
 11
0.0
 21
0.0
 31
0.0
1001
GENIUS_GENREC_14
1002
{
1000
PYDIR
1011
-110.0
1021
40.0
1031
0.0
1002
}
1002
{
1000
PXDIR
1011
0.0
1021
0.0
1031
0.0
1002
}
1002
{
1000
PORI
1011
-110.0
1021
0.0
1031
0.0
1002
}
1002
{
1000
PINS
1011
-110.0
1021
0.0
1031
0.0
1002
}
1002
{
1000
HVAL
1000
40
1002
}
1002
{
1000
H
1070
     2
1002
}
1002
{
1000
WVAL
1000
110
1002
}
1002
{
1000
W
1070
     2
1002
}
1002
{
1000
C
1070
     1
1002
}
1001
GENIUS_GENODEF_13
1002
{
1000
HIER
1070
     0
1002
}
1002
{
1000
MANEDIT
1070
     0
1002
}
1002
{
1000
NOSEL
1070
     0
1002
}
1002
{
1000
BEHIND
1070
     0
1002
}
1002
{
1000
REACTOR
1002
}
1001
GENIUS_GENOBJ-N-REC_13
1002
{
1000
OWNER
1000
GEN
1002
}
  0
LINE
  5
14A9
330
14A7
100
AcDbEntity
  8
AM_BOR
 62
   211
100
AcDbLine
 10
0.0
 20
0.0
 30
0.0
 11
0.0
 21
40.0
 31
0.0
1001
GENIUS_GENREC_14
1002
{
1000
PYDIR
1011
-110.0
1021
40.0
1031
0.0
1002
}
1002
{
1000
PXDIR
1011
0.0
1021
0.0
1031
0.0
1002
}
1002
{
1000
PORI
1011
-110.0
1021
0.0
1031
0.0
1002
}
1002
{
1000
PINS
1011
-110.0
1021
0.0
1031
0.0
1002
}
1002
{
1000
HVAL
1000
40
1002
}
1002
{
1000
H
1070
     2
1002
}
1002
{
1000
WVAL
1000
110
1002
}
1002
{
1000
W
1070
     2
1002
}
1002
{
1000
C
1070
     1
1002
}
1001
GENIUS_GENODEF_13
1002
{
1000
HIER
1070
     0
1002
}
1002
{
1000
MANEDIT
1070
     0
1002
}
1002
{
1000
NOSEL
1070
     0
1002
}
1002
{
1000
BEHIND
1070
     0
1002
}
1002
{
1000
REACTOR
1002
}
1001
GENIUS_GENOBJ-N-REC_13
1002
{
1000
OWNER
1000
GEN
1002
}
  0
LINE
  5
14AA
330
14A7
100
AcDbEntity
  8
AM_BOR
 62
   211
100
AcDbLine
 10
0.0
 20
40.0
 30
0.0
 11
-110.0
 21
40.00000000000001
 31
0.0
1001
GENIUS_GENREC_14
1002
{
1000
PYDIR
1011
-110.0
1021
40.0
1031
0.0
1002
}
1002
{
1000
PXDIR
1011
0.0
1021
0.0
1031
0.0
1002
}
1002
{
1000
PORI
1011
-110.0
1021
0.0
1031
0.0
1002
}
1002
{
1000
PINS
1011
-110.0
1021
0.0
1031
0.0
1002
}
1002
{
1000
HVAL
1000
40
1002
}
1002
{
1000
H
1070
     2
1002
}
1002
{
1000
WVAL
1000
110
1002
}
1002
{
1000
W
1070
     2
1002
}
1002
{
1000
C
1070
     1
1002
}
1001
GENIUS_GENODEF_13
1002
{
1000
HIER
1070
     0
1002
}
1002
{
1000
MANEDIT
1070
     0
1002
}
1002
{
1000
NOSEL
1070
     0
1002
}
1002
{
1000
BEHIND
1070
     0
1002
}
1002
{
1000
REACTOR
1002
}
1001
GENIUS_GENOBJ-N-REC_13
1002
{
1000
OWNER
1000
GEN
1002
}
  0
LINE
  5
14AB
330
14A7
100
AcDbEntity
  8
AM_BOR
 62
   211
100
AcDbLine
 10
-110.0
 20
40.00000000000001
 30
0.0
 11
-110.0
 21
0.0
 31
0.0
1001
GENIUS_GENREC_14
1002
{
1000
PYDIR
1011
-110.0
1021
40.0
1031
0.0
1002
}
1002
{
1000
PXDIR
1011
0.0
1021
0.0
1031
0.0
1002
}
1002
{
1000
PORI
1011
-110.0
1021
0.0
1031
0.0
1002
}
1002
{
1000
PINS
1011
-110.0
1021
0.0
1031
0.0
1002
}
1002
{
1000
HVAL
1000
40
1002
}
1002
{
1000
H
1070
     2
1002
}
1002
{
1000
WVAL
1000
110
1002
}
1002
{
1000
W
1070
     2
1002
}
1002
{
1000
C
1070
     1
1002
}
1001
GENIUS_GENODEF_13
1002
{
1000
HIER
1070
     0
1002
}
1002
{
1000
MANEDIT
1070
     0
1002
}
1002
{
1000
NOSEL
1070
     0
1002
}
1002
{
1000
BEHIND
1070
     0
1002
}
1002
{
1000
REACTOR
1002
}
1001
GENIUS_GENOBJ-N-REC_13
1002
{
1000
OWNER
1000
GEN
1002
}
  0
LINE
  5
14AC
330
14A7
100
AcDbEntity
  8
AM_BOR
 62
     5
100
AcDbLine
 10
-60.0
 20
9.999999999999992
 30
0.0
 11
0.0
 21
10.0
 31
0.0
1001
GENIUS_GENREC_14
1002
{
1000
PYDIR
1011
-110.0
1021
40.0
1031
0.0
1002
}
1002
{
1000
PXDIR
1011
0.0
1021
0.0
1031
0.0
1002
}
1002
{
1000
PORI
1011
-110.0
1021
0.0
1031
0.0
1002
}
1002
{
1000
PINS
1011
-110.0
1021
0.0
1031
0.0
1002
}
1002
{
1000
HVAL
1000
40
1002
}
1002
{
1000
H
1070
     2
1002
}
1002
{
1000
WVAL
1000
110
1002
}
1002
{
1000
W
1070
     2
1002
}
1002
{
1000
C
1070
     1
1002
}
  0
LINE
  5
14AD
330
14A7
100
AcDbEntity
  8
AM_BOR
 62
     5
100
AcDbLine
 10
-110.0
 20
19.0
 30
0.0
 11
0.0
 21
19.0
 31
0.0
1001
GENIUS_GENREC_14
1002
{
1000
PYDIR
1011
-110.0
1021
40.0
1031
0.0
1002
}
1002
{
1000
PXDIR
1011
0.0
1021
0.0
1031
0.0
1002
}
1002
{
1000
PORI
1011
-110.0
1021
0.0
1031
0.0
1002
}
1002
{
1000
PINS
1011
-110.0
1021
0.0
1031
0.0
1002
}
1002
{
1000
HVAL
1000
40
1002
}
1002
{
1000
H
1070
     2
1002
}
1002
{
1000
WVAL
1000
110
1002
}
1002
{
1000
W
1070
     2
1002
}
1002
{
1000
C
1070
     1
1002
}
1001
GENIUS_GENODEF_13
1002
{
1000
HIER
1070
     0
1002
}
1002
{
1000
MANEDIT
1070
     0
1002
}
1002
{
1000
NOSEL
1070
     0
1002
}
1002
{
1000
BEHIND
1070
     0
1002
}
1002
{
1000
REACTOR
1002
}
1001
GENIUS_GENOBJ-N-REC_13
1002
{
1000
OWNER
1000
GEN
1002
}
  0
LINE
  5
14AE
330
14A7
100
AcDbEntity
  8
AM_BOR
 62
     5
100
AcDbLine
 10
-110.0
 20
26.0
 30
0.0
 11
0.0
 21
26.0
 31
0.0
1001
GENIUS_GENREC_14
1002
{
1000
PYDIR
1011
-110.0
1021
40.0
1031
0.0
1002
}
1002
{
1000
PXDIR
1011
0.0
1021
0.0
1031
0.0
1002
}
1002
{
1000
PORI
1011
-110.0
1021
0.0
1031
0.0
1002
}
1002
{
1000
PINS
1011
-110.0
1021
0.0
1031
0.0
1002
}
1002
{
1000
HVAL
1000
40
1002
}
1002
{
1000
H
1070
     2
1002
}
1002
{
1000
WVAL
1000
110
1002
}
1002
{
1000
W
1070
     2
1002
}
1002
{
1000
C
1070
     1
1002
}
1001
GENIUS_GENODEF_13
1002
{
1000
HIER
1070
     0
1002
}
1002
{
1000
MANEDIT
1070
     0
1002
}
1002
{
1000
NOSEL
1070
     0
1002
}
1002
{
1000
BEHIND
1070
     0
1002
}
1002
{
1000
REACTOR
1002
}
1001
GENIUS_GENOBJ-N-REC_13
1002
{
1000
OWNER
1000
GEN
1002
}
  0
LINE
  5
14AF
330
14A7
100
AcDbEntity
  8
AM_BOR
 62
     5
100
AcDbLine
 10
-110.0
 20
33.0
 30
0.0
 11
0.0
 21
33.0
 31
0.0
1001
GENIUS_GENREC_14
1002
{
1000
PYDIR
1011
-110.0
1021
40.0
1031
0.0
1002
}
1002
{
1000
PXDIR
1011
0.0
1021
0.0
1031
0.0
1002
}
1002
{
1000
PORI
1011
-110.0
1021
0.0
1031
0.0
1002
}
1002
{
1000
PINS
1011
-110.0
1021
0.0
1031
0.0
1002
}
1002
{
1000
HVAL
1000
40
1002
}
1002
{
1000
H
1070
     2
1002
}
1002
{
1000
WVAL
1000
110
1002
}
1002
{
1000
W
1070
     2
1002
}
1002
{
1000
C
1070
     1
1002
}
1001
GENIUS_GENODEF_13
1002
{
1000
HIER
1070
     0
1002
}
1002
{
1000
MANEDIT
1070
     0
1002
}
1002
{
1000
NOSEL
1070
     0
1002
}
1002
{
1000
BEHIND
1070
     0
1002
}
1002
{
1000
REACTOR
1002
}
1001
GENIUS_GENOBJ-N-REC_13
1002
{
1000
OWNER
1000
GEN
1002
}
  0
LINE
  5
14B0
330
14A7
100
AcDbEntity
  8
AM_BOR
 62
     5
100
AcDbLine
 10
-85.0
 20
33.0
 30
0.0
 11
-85.0
 21
18.99999999999998
 31
0.0
1001
GENIUS_GENREC_14
1002
{
1000
PYDIR
1011
-110.0
1021
40.0
1031
0.0
1002
}
1002
{
1000
PXDIR
1011
0.0
1021
0.0
1031
0.0
1002
}
1002
{
1000
PORI
1011
-110.0
1021
0.0
1031
0.0
1002
}
1002
{
1000
PINS
1011
-110.0
1021
0.0
1031
0.0
1002
}
1002
{
1000
HVAL
1000
40
1002
}
1002
{
1000
H
1070
     2
1002
}
1002
{
1000
WVAL
1000
110
1002
}
1002
{
1000
W
1070
     2
1002
}
1002
{
1000
C
1070
     1
1002
}
1001
GENIUS_GENODEF_13
1002
{
1000
HIER
1070
     0
1002
}
1002
{
1000
MANEDIT
1070
     0
1002
}
1002
{
1000
NOSEL
1070
     0
1002
}
1002
{
1000
BEHIND
1070
     0
1002
}
1002
{
1000
REACTOR
1002
}
1001
GENIUS_GENOBJ-N-REC_13
1002
{
1000
OWNER
1000
GEN
1002
}
  0
LINE
  5
14B1
330
14A7
100
AcDbEntity
  8
AM_BOR
 62
     5
100
AcDbLine
 10
-60.0
 20
40.00000000000001
 30
0.0
 11
-60.0
 21
0.0
 31
0.0
1001
GENIUS_GENREC_14
1002
{
1000
PYDIR
1011
-110.0
1021
40.0
1031
0.0
1002
}
1002
{
1000
PXDIR
1011
0.0
1021
0.0
1031
0.0
1002
}
1002
{
1000
PORI
1011
-110.0
1021
0.0
1031
0.0
1002
}
1002
{
1000
PINS
1011
-110.0
1021
0.0
1031
0.0
1002
}
1002
{
1000
HVAL
1000
40
1002
}
1002
{
1000
H
1070
     2
1002
}
1002
{
1000
WVAL
1000
110
1002
}
1002
{
1000
W
1070
     2
1002
}
1002
{
1000
C
1070
     1
1002
}
1001
GENIUS_GENODEF_13
1002
{
1000
HIER
1070
     0
1002
}
1002
{
1000
MANEDIT
1070
     0
1002
}
1002
{
1000
NOSEL
1070
     0
1002
}
1002
{
1000
BEHIND
1070
     0
1002
}
1002
{
1000
REACTOR
1002
}
1001
GENIUS_GENOBJ-N-REC_13
1002
{
1000
OWNER
1000
GEN
1002
}
  0
LINE
  5
14B2
330
14A7
100
AcDbEntity
  8
AM_BOR
 62
     5
100
AcDbLine
 10
-20.0
 20
33.0
 30
0.0
 11
-20.0
 21
40.0
 31
0.0
1001
GENIUS_GENREC_14
1002
{
1000
PYDIR
1011
-110.0
1021
40.0
1031
0.0
1002
}
1002
{
1000
PXDIR
1011
0.0
1021
0.0
1031
0.0
1002
}
1002
{
1000
PORI
1011
-110.0
1021
0.0
1031
0.0
1002
}
1002
{
1000
PINS
1011
-110.0
1021
0.0
1031
0.0
1002
}
1002
{
1000
HVAL
1000
40
1002
}
1002
{
1000
H
1070
     2
1002
}
1002
{
1000
WVAL
1000
110
1002
}
1002
{
1000
W
1070
     2
1002
}
1002
{
1000
C
1070
     1
1002
}
1001
GENIUS_GENODEF_13
1002
{
1000
HIER
1070
     0
1002
}
1002
{
1000
MANEDIT
1070
     0
1002
}
1002
{
1000
NOSEL
1070
     0
1002
}
1002
{
1000
BEHIND
1070
     0
1002
}
1002
{
1000
REACTOR
1002
}
1001
GENIUS_GENOBJ-N-REC_13
1002
{
1000
OWNER
1000
GEN
1002
}
  0
LINE
  5
14B3
330
14A7
100
AcDbEntity
  8
AM_BOR
 62
     5
100
AcDbLine
 10
-40.0
 20
33.0
 30
0.0
 11
-40.0
 21
40.0
 31
0.0
1001
GENIUS_GENREC_14
1002
{
1000
PYDIR
1011
-110.0
1021
40.0
1031
0.0
1002
}
1002
{
1000
PXDIR
1011
0.0
1021
0.0
1031
0.0
1002
}
1002
{
1000
PORI
1011
-110.0
1021
0.0
1031
0.0
1002
}
1002
{
1000
PINS
1011
-110.0
1021
0.0
1031
0.0
1002
}
1002
{
1000
HVAL
1000
40
1002
}
1002
{
1000
H
1070
     2
1002
}
1002
{
1000
WVAL
1000
110
1002
}
1002
{
1000
W
1070
     2
1002
}
1002
{
1000
C
1070
     1
1002
}
1001
GENIUS_GENODEF_13
1002
{
1000
HIER
1070
     0
1002
}
1002
{
1000
MANEDIT
1070
     0
1002
}
1002
{
1000
NOSEL
1070
     0
1002
}
1002
{
1000
BEHIND
1070
     0
1002
}
1002
{
1000
REACTOR
1002
}
1001
GENIUS_GENOBJ-N-REC_13
1002
{
1000
OWNER
1000
GEN
1002
}
  0
LINE
  5
14B4
330
14A7
100
AcDbEntity
  8
AM_BOR
 62
     5
100
AcDbLine
 10
-80.0
 20
33.0
 30
0.0
 11
-80.0
 21
40.0
 31
0.0
1001
GENIUS_GENREC_14
1002
{
1000
PYDIR
1011
-110.0
1021
40.0
1031
0.0
1002
}
1002
{
1000
PXDIR
1011
0.0
1021
0.0
1031
0.0
1002
}
1002
{
1000
PORI
1011
-110.0
1021
0.0
1031
0.0
1002
}
1002
{
1000
PINS
1011
-110.0
1021
0.0
1031
0.0
1002
}
1002
{
1000
HVAL
1000
40
1002
}
1002
{
1000
H
1070
     2
1002
}
1002
{
1000
WVAL
1000
110
1002
}
1002
{
1000
W
1070
     2
1002
}
1002
{
1000
C
1070
     1
1002
}
1001
GENIUS_GENODEF_13
1002
{
1000
HIER
1070
     0
1002
}
1002
{
1000
MANEDIT
1070
     0
1002
}
1002
{
1000
NOSEL
1070
     0
1002
}
1002
{
1000
BEHIND
1070
     0
1002
}
1002
{
1000
REACTOR
1002
}
1001
GENIUS_GENOBJ-N-REC_13
1002
{
1000
OWNER
1000
GEN
1002
}
  0
TEXT
  5
14B5
330
14A7
100
AcDbEntity
  8
AM_BOR
 62
     2
100
AcDbText
 10
-57.4
 20
35.0
 30
0.0
 40
3.0
  1
単位 ｍｍ
 72
     4
 11
-50.0
 21
36.5
 31
0.0
100
AcDbText
  0
TEXT
  5
14B6
330
14A7
100
AcDbEntity
  8
AM_BOR
 62
     2
100
AcDbText
 10
-39.0
 20
35.0
 30
0.0
 40
3.0
  1
尺度
 41
0.9
 11
-39.0
 21
36.5
 31
0.0
100
AcDbText
 73
     2
  0
TEXT
  5
14B7
330
14A7
100
AcDbEntity
  8
AM_BOR
 62
     2
100
AcDbText
 10
-19.0
 20
35.0
 30
0.0
 40
3.0
  1
日付
 41
0.9
 11
-19.0
 21
36.5
 31
0.0
100
AcDbText
 73
     2
  0
TEXT
  5
14B8
330
14A7
100
AcDbEntity
  8
AM_BOR
 62
     2
100
AcDbText
 10
-76.79999999999999
 20
34.99999999999999
 30
0.0
 40
3.0
  1
第３角法
 72
     4
 11
-70.0
 21
36.49999999999999
 31
0.0
100
AcDbText
  0
TEXT
  5
14B9
330
14A7
100
AcDbEntity
  8
AM_BOR
 62
     2
100
AcDbText
 10
-59.0
 20
29.5
 30
0.0
 40
3.0
  1
材 質
 11
-59.0
 21
31.0
 31
0.0
100
AcDbText
 73
     2
  0
TEXT
  5
14BA
330
14A7
100
AcDbEntity
  8
AM_BOR
 62
     2
100
AcDbText
 10
-59.0
 20
22.5
 30
0.0
 40
3.0
  1
備 考
 11
-59.0
 21
24.0
 31
0.0
100
AcDbText
 73
     2
  0
TEXT
  5
14BB
330
14A7
100
AcDbEntity
  8
AM_BOR
 62
     2
100
AcDbText
 10
-59.0
 20
15.5
 30
0.0
 40
3.0
  1
品 名
 11
-59.0
 21
17.0
 31
0.0
100
AcDbText
 73
     2
  0
TEXT
  5
14BC
330
14A7
100
AcDbEntity
  8
AM_BOR
 62
     2
100
AcDbText
 10
-59.0
 20
6.499999999999992
 30
0.0
 40
3.0
  1
図 番
 11
-59.0
 21
7.999999999999992
 31
0.0
100
AcDbText
 73
     2
  0
TEXT
  5
14BD
330
14A7
100
AcDbEntity
  8
AM_BOR
 62
     2
100
AcDbText
 10
-109.0
 20
29.5
 30
0.0
 40
3.0
  1
承認
 11
-109.0
 21
31.0
 31
0.0
100
AcDbText
 73
     2
  0
TEXT
  5
14BE
330
14A7
100
AcDbEntity
  8
AM_BOR
 62
     2
100
AcDbText
 10
-109.0
 20
22.5
 30
0.0
 40
3.0
  1
設計
 11
-109.0
 21
24.0
 31
0.0
100
AcDbText
 73
     2
  0
TEXT
  5
14BF
330
14A7
100
AcDbEntity
  8
AM_BOR
 62
     2
100
AcDbText
 10
-84.0
 20
22.5
 30
0.0
 40
3.0
  1
製図
 11
-84.0
 21
24.0
 31
0.0
100
AcDbText
 73
     2
  0
TEXT
  5
14C0
330
14A7
100
AcDbEntity
  8
AM_BOR
 62
     2
100
AcDbText
 10
-84.0
 20
29.5
 30
0.0
 40
3.0
  1
検図
 11
-84.0
 21
31.0
 31
0.0
100
AcDbText
 73
     2
  0
ATTDEF
  5
14C1
330
14A7
100
AcDbEntity
  8
AM_BOR
100
AcDbText
 10
-49.48020001333898
 20
12.75
 30
0.0
 40
3.5
  1

 11
-49.48020001333898
 21
14.5
 31
0.0
100
AcDbAttributeDefinition
  3
品名
  2
HINMEI{14}
 70
     0
 74
     2
  0
ATTDEF
  5
14C2
330
14A7
100
AcDbEntity
  8
AM_BOR
100
AcDbText
 10
-49.48020001333898
 20
3.249999999999992
 30
0.0
 40
3.5
  1

 11
-49.48020001333898
 21
4.999999999999992
 31
0.0
100
AcDbAttributeDefinition
  3
図番
  2
ZUBAN{14}
 70
     0
 74
     2
  0
ATTDEF
  5
14C3
330
14A7
100
AcDbEntity
  8
AM_BOR
 62
     2
100
AcDbText
 10
-11.91705654530994
 20
35.0
 30
0.0
 40
3.0
  1

 41
0.8
 11
-11.91705654530994
 21
36.5
 31
0.0
100
AcDbAttributeDefinition
  3
日付
  2
GEN-TITLE-DAT{3.5}
 70
     0
 74
     2
  0
ATTDEF
  5
14C4
330
14A7
100
AcDbEntity
  8
AM_BOR
 62
     2
100
AcDbText
 10
-71.63012018472975
 20
20.00000000000001
 30
0.0
 40
3.0
  1
水 田
 72
     4
 11
-67.63012018472974
 21
21.50000000000002
 31
0.0
100
AcDbAttributeDefinition
  3
製図
  2
SEIZU
 70
     0
  0
ATTDEF
  5
14C5
330
14A7
100
AcDbEntity
  8
AM_BOR
 62
     2
100
AcDbText
 10
-31.91705654530995
 20
35.0
 30
0.0
 40
3.0
  1

 11
-31.91705654530995
 21
36.5
 31
0.0
100
AcDbAttributeDefinition
  3
尺度
  2
GEN-TITLE-SCA
 70
     0
 74
     2
  0
LINE
  5
14C6
330
14A7
100
AcDbEntity
  8
0
100
AcDbLine
 10
-106.9502221859465
 20
14.71456568209314
 30
0.0
 11
-107.7139711131768
 21
11.16237652835879
 31
0.0
  0
LINE
  5
14C7
330
14A7
100
AcDbEntity
  8
0
100
AcDbLine
 10
-107.7139711131768
 20
11.16237652835879
 30
0.0
 11
-107.6697551010107
 21
11.22470827233807
 31
0.0
  0
ELLIPSE
  5
14C8
330
14A7
100
AcDbEntity
  8
0
100
AcDbEllipse
 10
-106.5198686826232
 20
9.133166589319488
 30
0.0
 11
0.0200858413762701
 21
2.795177724472429
 31
0.0
210
0.0
220
0.0
230
1.0
 40
0.6250197778053533
 41
-1.051714224928873
 42
0.7298517778971401
1001
GENIUS_GENODEF_13
1002
{
1000
HIER
1070
     0
1002
}
1002
{
1000
MANEDIT
1070
     0
1002
}
1002
{
1000
NOSEL
1070
     0
1002
}
1002
{
1000
BEHIND
1070
     0
1002
}
1002
{
1000
REACTOR
1002
}
1001
GENIUS_GENOBJ-N-FIL_13
1002
{
1000
OWNER
1000
GEN
1002
}
  0
ELLIPSE
  5
14C9
330
14A7
100
AcDbEntity
  8
0
100
AcDbEllipse
 10
-105.2984958385996
 20
13.8219417489321
 30
0.0
 11
0.0200858413762916
 21
2.795177724472415
 31
0.0
210
0.0
220
0.0
230
1.0
 40
0.6250197778053527
 41
-1.051714224928867
 42
1.250253596044828
1001
GENIUS_GENODEF_13
1002
{
1000
HIER
1070
     0
1002
}
1002
{
1000
MANEDIT
1070
     0
1002
}
1002
{
1000
NOSEL
1070
     0
1002
}
1002
{
1000
BEHIND
1070
     0
1002
}
1002
{
1000
REACTOR
1002
}
1001
GENIUS_GENOBJ-N-FIL_13
1002
{
1000
OWNER
1000
GEN
1002
}
  0
LINE
  5
14CA
330
14A7
100
AcDbEntity
  8
0
100
AcDbLine
 10
-98.48721298302093
 20
8.077457208786752
 30
0.0
 11
-99.45177360188811
 21
4.065819878065248
 31
0.0
  0
ELLIPSE
  5
14CB
330
14A7
100
AcDbEntity
  8
0
100
AcDbEllipse
 10
-101.0818809708247
 20
5.053412867376919
 30
0.0
 11
0.0200858413762853
 21
2.795177724472413
 31
0.0
210
0.0
220
0.0
230
1.0
 40
0.6250197778053547
 41
2.089878428660925
 42
4.355766148231805
1001
GENIUS_GENODEF_13
1002
{
1000
HIER
1070
     0
1002
}
1002
{
1000
MANEDIT
1070
     0
1002
}
1002
{
1000
NOSEL
1070
     0
1002
}
1002
{
1000
BEHIND
1070
     0
1002
}
1002
{
1000
REACTOR
1002
}
1001
GENIUS_GENOBJ-N-FIL_13
1002
{
1000
OWNER
1000
GEN
1002
}
  0
LINE
  5
14CC
330
14A7
100
AcDbEntity
  8
0
100
AcDbLine
 10
-98.48721298302093
 20
8.077457208786752
 30
0.0
 11
-98.66382720839389
 21
7.801834007856294
 31
0.0
  0
ELLIPSE
  5
14CD
330
14A7
100
AcDbEntity
  8
0
100
AcDbEllipse
 10
-99.87931293102301
 20
9.796066964505511
 30
0.0
 11
0.0200858413762724
 21
2.795177724472415
 31
0.0
210
0.0
220
0.0
230
0.9999999999999998
 40
0.6250197778053552
 41
2.08987842866092
 42
3.922474143254961
1001
GENIUS_GENODEF_13
1002
{
1000
HIER
1070
     0
1002
}
1002
{
1000
MANEDIT
1070
     0
1002
}
1002
{
1000
NOSEL
1070
     0
1002
}
1002
{
1000
BEHIND
1070
     0
1002
}
1002
{
1000
REACTOR
1002
}
1001
GENIUS_GENOBJ-N-FIL_13
1002
{
1000
OWNER
1000
GEN
1002
}
  0
HATCH
  5
14CE
330
14A7
100
AcDbEntity
  8
AM_8
100
AcDbHatch
 10
0.0
 20
0.0
 30
0.0
210
0.0
220
0.0
230
1.0
  2
SOLID
 70
     1
 71
     0
 91
        1
 92
        1
 93
        2
 72
     3
 10
-106.7638987916396
 20
4.957358478318376
 11
0.0000000000000547
 21
2.56276973145977
 40
0.8333333333333941
 50
-77.14069946214277
 51
264.4007371808275
 73
     1
 72
     3
 10
-106.7638987916396
 20
4.957358478318376
 11
-0.0000000000003928
 21
2.562769731461267
 40
0.8333333333328997
 50
264.4007371808174
 51
282.8593005378472
 73
     1
 97
        0
 75
     0
 76
     1
 98
        1
 10
65.20293740923941
 20
-32.16820874956388
1001
GENIUS_GENODEF_13
1002
{
1000
HIER
1070
     0
1002
}
1002
{
1000
MANEDIT
1070
     0
1002
}
1002
{
1000
NOSEL
1070
     0
1002
}
1002
{
1000
BEHIND
1070
     0
1002
}
1002
{
1000
REACTOR
1002
}
1001
GENIUS_GENOBJ-N-HTC_13
1002
{
1000
OWNER
1000
GEN
1002
}
1001
GENIUS_GENHATCH_13
1002
{
1000
DATA
1040
0.0
1042
0.0015799698758396
1000
SOLID
1070
     0
1011
70.0136537122014
1021
-14.7540192633455
1031
0.0
1002
}
1002
{
1000
UCS
1010
0.0
1020
0.0
1030
0.0
1010
1.0
1020
0.0
1030
0.0
1010
0.0
1020
1.0
1030
0.0
1002
}
  0
ELLIPSE
  5
14CF
330
14A7
100
AcDbEntity
  8
0
100
AcDbEllipse
 10
-106.7638987916396
 20
4.957358478318417
 30
0.0
 11
0.0000000000000006
 21
2.562769731459943
 31
0.0
210
0.0
220
0.0
230
1.0
 40
0.8333333333333353
 41
-1.570796326794896
 42
4.712388980384689
  0
HATCH
  5
14D0
330
14A7
100
AcDbEntity
  8
AM_8
100
AcDbHatch
 10
0.0
 20
0.0
 30
0.0
210
0.0
220
0.0
230
1.0
  2
SOLID
 70
     1
 71
     0
 91
        1
 92
        1
 93
       10
 72
     1
 10
-106.9502221859465
 20
14.71456568209311
 11
-107.7139711131768
 21
11.16237652835879
 72
     1
 10
-107.7139711131768
 20
11.16237652835879
 11
-107.6697551010108
 21
11.22470827233809
 72
     3
 10
-106.5198686826232
 20
9.133166589319488
 11
0.0200858413762859
 21
2.795177724472421
 40
0.6250197778053525
 50
-29.21280058452436
 51
47.56891328106517
 73
     0
 72
     1
 10
-104.9929922696577
 20
10.5089073790986
 11
-102.6087573837903
 21
3.677672077597827
 72
     3
 10
-101.0818809708247
 20
5.053412867376919
 11
0.0200858413762844
 21
2.79517772447242
 40
0.625019777805353
 50
132.4310867189347
 51
239.202331800838
 73
     1
 72
     1
 10
-99.45177360188809
 20
4.065819878065248
 11
-98.48721298302093
 21
8.077457208786761
 72
     1
 10
-98.48721298302095
 20
8.077457208786752
 11
-98.66382720839393
 21
7.801834007856288
 72
     3
 10
-99.87931293102301
 20
9.796066964505511
 11
0.0200858413762811
 21
2.795177724472416
 40
0.6250197778053536
 50
148.2259629226598
 51
227.5689132810653
 73
     0
 72
     1
 10
-101.4061893439886
 20
8.420326174726406
 11
-103.771619425634
 21
15.19768253871121
 72
     3
 10
-105.2984958385996
 20
13.8219417489321
 11
0.02008584137625
 21
2.795177724472417
 40
0.6250197778053583
 50
-47.56891328106589
 51
62.02409398278944
 73
     1
 97
        0
 75
     0
 76
     1
 98
        1
 10
65.20293740923941
 20
-32.16820874956388
1001
GENIUS_GENODEF_13
1002
{
1000
HIER
1070
     0
1002
}
1002
{
1000
MANEDIT
1070
     0
1002
}
1002
{
1000
NOSEL
1070
     0
1002
}
1002
{
1000
BEHIND
1070
     0
1002
}
1002
{
1000
REACTOR
1002
}
1001
GENIUS_GENOBJ-N-HTC_13
1002
{
1000
OWNER
1000
GEN
1002
}
1001
GENIUS_GENHATCH_13
1002
{
1000
DATA
1040
0.0
1042
0.0015799698758396
1000
SOLID
1070
     0
1011
74.07735655451816
1021
-11.90112763631223
1031
0.0
1002
}
1002
{
1000
UCS
1010
0.0
1020
0.0
1030
0.0
1010
1.0
1020
0.0
1030
0.0
1010
0.0
1020
1.0
1030
0.0
1002
}
  0
LINE
  5
14D1
330
14A7
100
AcDbEntity
  8
0
100
AcDbLine
 10
-104.9929922696577
 20
10.5089073790986
 30
0.0
 11
-102.6087573837903
 21
3.677672077597847
 31
0.0
  0
LINE
  5
14D2
330
14A7
100
AcDbEntity
  8
0
100
AcDbLine
 10
-101.4061893439886
 20
8.420326174726406
 30
0.0
 11
-103.771619425634
 21
15.1976825387112
 31
0.0
  0
TEXT
  5
14D3
330
14A7
100
AcDbEntity
  8
0
100
AcDbText
 10
-92.04358977334541
 20
2.736280326823534
 30
0.0
 40
1.397647058823528
  1
ASOH   CO.LTD
 41
2.222222222222219
  7
ｽﾀｲﾙ1
100
AcDbText
  0
TEXT
  5
14D4
330
14A7
100
AcDbEntity
  8
0
100
AcDbText
 10
-96.37601713265375
 20
7.065690057310197
 30
0.0
 40
9.355420606948992
  1
アソー株式会社
 41
0.4444444444444381
  7
ｽﾀｲﾙ1
100
AcDbText
  0
ENDBLK
  5
14D6
330
14A7
100
AcDbEntity
  8
0
100
AcDbBlockEnd
  0
BLOCK
  5
19C3
330
19B9
100
AcDbEntity
  8
0
100
AcDbBlockBegin
  2
*D9
 70
     1
 10
0.0
 20
0.0
 30
0.0
  3
*D9
  1

  0
LINE
  5
21B2
330
19B9
100
AcDbEntity
  8
AM_5
100
AcDbLine
 10
174.9544740157708
 20
367.4613612568369
 30
0.0
 11
169.8556932964771
 21
383.153794736274
 31
0.0
  0
LINE
  5
21B3
330
19B9
100
AcDbEntity
  8
AM_5
100
AcDbLine
 10
151.178061108392
 20
359.7359363974633
 30
0.0
 11
146.0792803890982
 21
375.4283698769003
 31
0.0
  0
LINE
  5
21B4
330
19B9
100
AcDbEntity
  8
AM_5
100
AcDbLine
 10
168.8213811482956
 20
382.2919952351577
 30
0.0
 11
147.4226095316546
 21
375.3391128617214
 31
0.0
  0
INSERT
  5
21B5
330
19B9
100
AcDbEntity
  8
AM_5
100
AcDbBlockReference
  2
_Open30
 10
170.0102017936645
 20
382.6782664781264
 30
0.0
 41
1.25
 42
1.25
 43
1.25
 50
17.99999999999993
  0
INSERT
  5
21B6
330
19B9
100
AcDbEntity
  8
AM_5
100
AcDbBlockReference
  2
_Open30
 10
146.2337888862857
 20
374.9528416187528
 30
0.0
 41
1.25
 42
1.25
 43
1.25
 50
197.9999999999999
  0
MTEXT
  5
21B7
330
19B9
100
AcDbEntity
  8
AM_5
 62
     2
100
AcDbMText
 10
157.6197894977635
 20
380.3611847012877
 30
0.0
 40
1.75
 41
0.0
 71
     5
 72
     1
  1
25
 11
0.9510565162951538
 21
0.3090169943749466
 31
0.0
 73
     1
 44
1.0
1001
ACAD
1000
MTEXTBEGIN
1070
    73
1070
     1
1070
    44
1040
1.0
1070
    74
1070
     0
1000
MTEXTEND
  0
POINT
  5
21B8
330
19B9
100
AcDbEntity
  8
Defpoints
 62
     0
100
AcDbPoint
 10
175.1089825129583
 20
366.9858329986893
 30
0.0
  0
POINT
  5
21B9
330
19B9
100
AcDbEntity
  8
Defpoints
 62
     0
100
AcDbPoint
 10
151.3325696055795
 20
359.2604081393157
 30
0.0
  0
POINT
  5
21BA
330
19B9
100
AcDbEntity
  8
Defpoints
 62
     0
100
AcDbPoint
 10
146.2337888862857
 20
374.9528416187528
 30
0.0
  0
ENDBLK
  5
19C4
330
19B9
100
AcDbEntity
  8
0
100
AcDbBlockEnd
  0
BLOCK
  5
1A65
330
1A33
100
AcDbEntity
  8
0
100
AcDbBlockBegin
  2
ASO-A
 70
     2
 10
0.0
 20
0.0
 30
0.0
  3
ASO-A
  1

  0
LINE
  5
1A34
330
1A33
100
AcDbEntity
  8
AM_BOR
 62
   211
100
AcDbLine
 10
-110.0
 20
0.0
 30
0.0
 11
0.0
 21
0.0
 31
0.0
1001
GENIUS_GENREC_14
1002
{
1000
PYDIR
1011
-110.0
1021
40.0
1031
0.0
1002
}
1002
{
1000
PXDIR
1011
0.0
1021
0.0
1031
0.0
1002
}
1002
{
1000
PORI
1011
-110.0
1021
0.0
1031
0.0
1002
}
1002
{
1000
PINS
1011
-110.0
1021
0.0
1031
0.0
1002
}
1002
{
1000
HVAL
1000
40
1002
}
1002
{
1000
H
1070
     2
1002
}
1002
{
1000
WVAL
1000
110
1002
}
1002
{
1000
W
1070
     2
1002
}
1002
{
1000
C
1070
     1
1002
}
1001
GENIUS_GENODEF_13
1002
{
1000
HIER
1070
     0
1002
}
1002
{
1000
MANEDIT
1070
     0
1002
}
1002
{
1000
NOSEL
1070
     0
1002
}
1002
{
1000
BEHIND
1070
     0
1002
}
1002
{
1000
REACTOR
1002
}
1001
GENIUS_GENOBJ-N-REC_13
1002
{
1000
OWNER
1000
GEN
1002
}
  0
LINE
  5
1A35
330
1A33
100
AcDbEntity
  8
AM_BOR
 62
   211
100
AcDbLine
 10
0.0
 20
0.0
 30
0.0
 11
0.0
 21
40.0
 31
0.0
1001
GENIUS_GENREC_14
1002
{
1000
PYDIR
1011
-110.0
1021
40.0
1031
0.0
1002
}
1002
{
1000
PXDIR
1011
0.0
1021
0.0
1031
0.0
1002
}
1002
{
1000
PORI
1011
-110.0
1021
0.0
1031
0.0
1002
}
1002
{
1000
PINS
1011
-110.0
1021
0.0
1031
0.0
1002
}
1002
{
1000
HVAL
1000
40
1002
}
1002
{
1000
H
1070
     2
1002
}
1002
{
1000
WVAL
1000
110
1002
}
1002
{
1000
W
1070
     2
1002
}
1002
{
1000
C
1070
     1
1002
}
1001
GENIUS_GENODEF_13
1002
{
1000
HIER
1070
     0
1002
}
1002
{
1000
MANEDIT
1070
     0
1002
}
1002
{
1000
NOSEL
1070
     0
1002
}
1002
{
1000
BEHIND
1070
     0
1002
}
1002
{
1000
REACTOR
1002
}
1001
GENIUS_GENOBJ-N-REC_13
1002
{
1000
OWNER
1000
GEN
1002
}
  0
LINE
  5
1A36
330
1A33
100
AcDbEntity
  8
AM_BOR
 62
   211
100
AcDbLine
 10
0.0
 20
40.0
 30
0.0
 11
-110.0
 21
40.00000000000001
 31
0.0
1001
GENIUS_GENREC_14
1002
{
1000
PYDIR
1011
-110.0
1021
40.0
1031
0.0
1002
}
1002
{
1000
PXDIR
1011
0.0
1021
0.0
1031
0.0
1002
}
1002
{
1000
PORI
1011
-110.0
1021
0.0
1031
0.0
1002
}
1002
{
1000
PINS
1011
-110.0
1021
0.0
1031
0.0
1002
}
1002
{
1000
HVAL
1000
40
1002
}
1002
{
1000
H
1070
     2
1002
}
1002
{
1000
WVAL
1000
110
1002
}
1002
{
1000
W
1070
     2
1002
}
1002
{
1000
C
1070
     1
1002
}
1001
GENIUS_GENODEF_13
1002
{
1000
HIER
1070
     0
1002
}
1002
{
1000
MANEDIT
1070
     0
1002
}
1002
{
1000
NOSEL
1070
     0
1002
}
1002
{
1000
BEHIND
1070
     0
1002
}
1002
{
1000
REACTOR
1002
}
1001
GENIUS_GENOBJ-N-REC_13
1002
{
1000
OWNER
1000
GEN
1002
}
  0
LINE
  5
1A37
330
1A33
100
AcDbEntity
  8
AM_BOR
 62
   211
100
AcDbLine
 10
-110.0
 20
40.00000000000001
 30
0.0
 11
-110.0
 21
0.0
 31
0.0
1001
GENIUS_GENREC_14
1002
{
1000
PYDIR
1011
-110.0
1021
40.0
1031
0.0
1002
}
1002
{
1000
PXDIR
1011
0.0
1021
0.0
1031
0.0
1002
}
1002
{
1000
PORI
1011
-110.0
1021
0.0
1031
0.0
1002
}
1002
{
1000
PINS
1011
-110.0
1021
0.0
1031
0.0
1002
}
1002
{
1000
HVAL
1000
40
1002
}
1002
{
1000
H
1070
     2
1002
}
1002
{
1000
WVAL
1000
110
1002
}
1002
{
1000
W
1070
     2
1002
}
1002
{
1000
C
1070
     1
1002
}
1001
GENIUS_GENODEF_13
1002
{
1000
HIER
1070
     0
1002
}
1002
{
1000
MANEDIT
1070
     0
1002
}
1002
{
1000
NOSEL
1070
     0
1002
}
1002
{
1000
BEHIND
1070
     0
1002
}
1002
{
1000
REACTOR
1002
}
1001
GENIUS_GENOBJ-N-REC_13
1002
{
1000
OWNER
1000
GEN
1002
}
  0
LINE
  5
1A38
330
1A33
100
AcDbEntity
  8
AM_BOR
 62
     5
100
AcDbLine
 10
-60.0
 20
9.999999999999992
 30
0.0
 11
0.0
 21
10.0
 31
0.0
1001
GENIUS_GENREC_14
1002
{
1000
PYDIR
1011
-110.0
1021
40.0
1031
0.0
1002
}
1002
{
1000
PXDIR
1011
0.0
1021
0.0
1031
0.0
1002
}
1002
{
1000
PORI
1011
-110.0
1021
0.0
1031
0.0
1002
}
1002
{
1000
PINS
1011
-110.0
1021
0.0
1031
0.0
1002
}
1002
{
1000
HVAL
1000
40
1002
}
1002
{
1000
H
1070
     2
1002
}
1002
{
1000
WVAL
1000
110
1002
}
1002
{
1000
W
1070
     2
1002
}
1002
{
1000
C
1070
     1
1002
}
  0
LINE
  5
1A39
330
1A33
100
AcDbEntity
  8
AM_BOR
 62
     5
100
AcDbLine
 10
-110.0
 20
19.0
 30
0.0
 11
0.0
 21
19.0
 31
0.0
1001
GENIUS_GENREC_14
1002
{
1000
PYDIR
1011
-110.0
1021
40.0
1031
0.0
1002
}
1002
{
1000
PXDIR
1011
0.0
1021
0.0
1031
0.0
1002
}
1002
{
1000
PORI
1011
-110.0
1021
0.0
1031
0.0
1002
}
1002
{
1000
PINS
1011
-110.0
1021
0.0
1031
0.0
1002
}
1002
{
1000
HVAL
1000
40
1002
}
1002
{
1000
H
1070
     2
1002
}
1002
{
1000
WVAL
1000
110
1002
}
1002
{
1000
W
1070
     2
1002
}
1002
{
1000
C
1070
     1
1002
}
1001
GENIUS_GENODEF_13
1002
{
1000
HIER
1070
     0
1002
}
1002
{
1000
MANEDIT
1070
     0
1002
}
1002
{
1000
NOSEL
1070
     0
1002
}
1002
{
1000
BEHIND
1070
     0
1002
}
1002
{
1000
REACTOR
1002
}
1001
GENIUS_GENOBJ-N-REC_13
1002
{
1000
OWNER
1000
GEN
1002
}
  0
LINE
  5
1A3A
330
1A33
100
AcDbEntity
  8
AM_BOR
 62
     5
100
AcDbLine
 10
-110.0
 20
26.0
 30
0.0
 11
0.0
 21
26.0
 31
0.0
1001
GENIUS_GENREC_14
1002
{
1000
PYDIR
1011
-110.0
1021
40.0
1031
0.0
1002
}
1002
{
1000
PXDIR
1011
0.0
1021
0.0
1031
0.0
1002
}
1002
{
1000
PORI
1011
-110.0
1021
0.0
1031
0.0
1002
}
1002
{
1000
PINS
1011
-110.0
1021
0.0
1031
0.0
1002
}
1002
{
1000
HVAL
1000
40
1002
}
1002
{
1000
H
1070
     2
1002
}
1002
{
1000
WVAL
1000
110
1002
}
1002
{
1000
W
1070
     2
1002
}
1002
{
1000
C
1070
     1
1002
}
1001
GENIUS_GENODEF_13
1002
{
1000
HIER
1070
     0
1002
}
1002
{
1000
MANEDIT
1070
     0
1002
}
1002
{
1000
NOSEL
1070
     0
1002
}
1002
{
1000
BEHIND
1070
     0
1002
}
1002
{
1000
REACTOR
1002
}
1001
GENIUS_GENOBJ-N-REC_13
1002
{
1000
OWNER
1000
GEN
1002
}
  0
LINE
  5
1A3B
330
1A33
100
AcDbEntity
  8
AM_BOR
 62
     5
100
AcDbLine
 10
-110.0
 20
33.0
 30
0.0
 11
0.0
 21
33.0
 31
0.0
1001
GENIUS_GENREC_14
1002
{
1000
PYDIR
1011
-110.0
1021
40.0
1031
0.0
1002
}
1002
{
1000
PXDIR
1011
0.0
1021
0.0
1031
0.0
1002
}
1002
{
1000
PORI
1011
-110.0
1021
0.0
1031
0.0
1002
}
1002
{
1000
PINS
1011
-110.0
1021
0.0
1031
0.0
1002
}
1002
{
1000
HVAL
1000
40
1002
}
1002
{
1000
H
1070
     2
1002
}
1002
{
1000
WVAL
1000
110
1002
}
1002
{
1000
W
1070
     2
1002
}
1002
{
1000
C
1070
     1
1002
}
1001
GENIUS_GENODEF_13
1002
{
1000
HIER
1070
     0
1002
}
1002
{
1000
MANEDIT
1070
     0
1002
}
1002
{
1000
NOSEL
1070
     0
1002
}
1002
{
1000
BEHIND
1070
     0
1002
}
1002
{
1000
REACTOR
1002
}
1001
GENIUS_GENOBJ-N-REC_13
1002
{
1000
OWNER
1000
GEN
1002
}
  0
LINE
  5
1A3C
330
1A33
100
AcDbEntity
  8
AM_BOR
 62
     5
100
AcDbLine
 10
-85.0
 20
33.0
 30
0.0
 11
-85.0
 21
18.99999999999998
 31
0.0
1001
GENIUS_GENREC_14
1002
{
1000
PYDIR
1011
-110.0
1021
40.0
1031
0.0
1002
}
1002
{
1000
PXDIR
1011
0.0
1021
0.0
1031
0.0
1002
}
1002
{
1000
PORI
1011
-110.0
1021
0.0
1031
0.0
1002
}
1002
{
1000
PINS
1011
-110.0
1021
0.0
1031
0.0
1002
}
1002
{
1000
HVAL
1000
40
1002
}
1002
{
1000
H
1070
     2
1002
}
1002
{
1000
WVAL
1000
110
1002
}
1002
{
1000
W
1070
     2
1002
}
1002
{
1000
C
1070
     1
1002
}
1001
GENIUS_GENODEF_13
1002
{
1000
HIER
1070
     0
1002
}
1002
{
1000
MANEDIT
1070
     0
1002
}
1002
{
1000
NOSEL
1070
     0
1002
}
1002
{
1000
BEHIND
1070
     0
1002
}
1002
{
1000
REACTOR
1002
}
1001
GENIUS_GENOBJ-N-REC_13
1002
{
1000
OWNER
1000
GEN
1002
}
  0
LINE
  5
1A3D
330
1A33
100
AcDbEntity
  8
AM_BOR
 62
     5
100
AcDbLine
 10
-60.0
 20
40.00000000000001
 30
0.0
 11
-60.0
 21
0.0
 31
0.0
1001
GENIUS_GENREC_14
1002
{
1000
PYDIR
1011
-110.0
1021
40.0
1031
0.0
1002
}
1002
{
1000
PXDIR
1011
0.0
1021
0.0
1031
0.0
1002
}
1002
{
1000
PORI
1011
-110.0
1021
0.0
1031
0.0
1002
}
1002
{
1000
PINS
1011
-110.0
1021
0.0
1031
0.0
1002
}
1002
{
1000
HVAL
1000
40
1002
}
1002
{
1000
H
1070
     2
1002
}
1002
{
1000
WVAL
1000
110
1002
}
1002
{
1000
W
1070
     2
1002
}
1002
{
1000
C
1070
     1
1002
}
1001
GENIUS_GENODEF_13
1002
{
1000
HIER
1070
     0
1002
}
1002
{
1000
MANEDIT
1070
     0
1002
}
1002
{
1000
NOSEL
1070
     0
1002
}
1002
{
1000
BEHIND
1070
     0
1002
}
1002
{
1000
REACTOR
1002
}
1001
GENIUS_GENOBJ-N-REC_13
1002
{
1000
OWNER
1000
GEN
1002
}
  0
LINE
  5
1A3E
330
1A33
100
AcDbEntity
  8
AM_BOR
 62
     5
100
AcDbLine
 10
-20.0
 20
33.0
 30
0.0
 11
-20.0
 21
40.0
 31
0.0
1001
GENIUS_GENREC_14
1002
{
1000
PYDIR
1011
-110.0
1021
40.0
1031
0.0
1002
}
1002
{
1000
PXDIR
1011
0.0
1021
0.0
1031
0.0
1002
}
1002
{
1000
PORI
1011
-110.0
1021
0.0
1031
0.0
1002
}
1002
{
1000
PINS
1011
-110.0
1021
0.0
1031
0.0
1002
}
1002
{
1000
HVAL
1000
40
1002
}
1002
{
1000
H
1070
     2
1002
}
1002
{
1000
WVAL
1000
110
1002
}
1002
{
1000
W
1070
     2
1002
}
1002
{
1000
C
1070
     1
1002
}
1001
GENIUS_GENODEF_13
1002
{
1000
HIER
1070
     0
1002
}
1002
{
1000
MANEDIT
1070
     0
1002
}
1002
{
1000
NOSEL
1070
     0
1002
}
1002
{
1000
BEHIND
1070
     0
1002
}
1002
{
1000
REACTOR
1002
}
1001
GENIUS_GENOBJ-N-REC_13
1002
{
1000
OWNER
1000
GEN
1002
}
  0
LINE
  5
1A3F
330
1A33
100
AcDbEntity
  8
AM_BOR
 62
     5
100
AcDbLine
 10
-40.0
 20
33.0
 30
0.0
 11
-40.0
 21
40.0
 31
0.0
1001
GENIUS_GENREC_14
1002
{
1000
PYDIR
1011
-110.0
1021
40.0
1031
0.0
1002
}
1002
{
1000
PXDIR
1011
0.0
1021
0.0
1031
0.0
1002
}
1002
{
1000
PORI
1011
-110.0
1021
0.0
1031
0.0
1002
}
1002
{
1000
PINS
1011
-110.0
1021
0.0
1031
0.0
1002
}
1002
{
1000
HVAL
1000
40
1002
}
1002
{
1000
H
1070
     2
1002
}
1002
{
1000
WVAL
1000
110
1002
}
1002
{
1000
W
1070
     2
1002
}
1002
{
1000
C
1070
     1
1002
}
1001
GENIUS_GENODEF_13
1002
{
1000
HIER
1070
     0
1002
}
1002
{
1000
MANEDIT
1070
     0
1002
}
1002
{
1000
NOSEL
1070
     0
1002
}
1002
{
1000
BEHIND
1070
     0
1002
}
1002
{
1000
REACTOR
1002
}
1001
GENIUS_GENOBJ-N-REC_13
1002
{
1000
OWNER
1000
GEN
1002
}
  0
LINE
  5
1A40
330
1A33
100
AcDbEntity
  8
AM_BOR
 62
     5
100
AcDbLine
 10
-80.0
 20
33.0
 30
0.0
 11
-80.0
 21
40.0
 31
0.0
1001
GENIUS_GENREC_14
1002
{
1000
PYDIR
1011
-110.0
1021
40.0
1031
0.0
1002
}
1002
{
1000
PXDIR
1011
0.0
1021
0.0
1031
0.0
1002
}
1002
{
1000
PORI
1011
-110.0
1021
0.0
1031
0.0
1002
}
1002
{
1000
PINS
1011
-110.0
1021
0.0
1031
0.0
1002
}
1002
{
1000
HVAL
1000
40
1002
}
1002
{
1000
H
1070
     2
1002
}
1002
{
1000
WVAL
1000
110
1002
}
1002
{
1000
W
1070
     2
1002
}
1002
{
1000
C
1070
     1
1002
}
1001
GENIUS_GENODEF_13
1002
{
1000
HIER
1070
     0
1002
}
1002
{
1000
MANEDIT
1070
     0
1002
}
1002
{
1000
NOSEL
1070
     0
1002
}
1002
{
1000
BEHIND
1070
     0
1002
}
1002
{
1000
REACTOR
1002
}
1001
GENIUS_GENOBJ-N-REC_13
1002
{
1000
OWNER
1000
GEN
1002
}
  0
TEXT
  5
1A41
330
1A33
100
AcDbEntity
  8
AM_BOR
 62
     2
100
AcDbText
 10
-57.4
 20
35.0
 30
0.0
 40
3.0
  1
単位 ｍｍ
 72
     4
 11
-50.0
 21
36.5
 31
0.0
100
AcDbText
  0
TEXT
  5
1A42
330
1A33
100
AcDbEntity
  8
AM_BOR
 62
     2
100
AcDbText
 10
-39.0
 20
35.0
 30
0.0
 40
3.0
  1
尺度
 41
0.9
 11
-39.0
 21
36.5
 31
0.0
100
AcDbText
 73
     2
  0
TEXT
  5
1A43
330
1A33
100
AcDbEntity
  8
AM_BOR
 62
     2
100
AcDbText
 10
-19.0
 20
35.0
 30
0.0
 40
3.0
  1
日付
 41
0.9
 11
-19.0
 21
36.5
 31
0.0
100
AcDbText
 73
     2
  0
TEXT
  5
1A44
330
1A33
100
AcDbEntity
  8
AM_BOR
 62
     2
100
AcDbText
 10
-76.79999999999999
 20
34.99999999999999
 30
0.0
 40
3.0
  1
第３角法
 72
     4
 11
-70.0
 21
36.49999999999999
 31
0.0
100
AcDbText
  0
TEXT
  5
1A45
330
1A33
100
AcDbEntity
  8
AM_BOR
 62
     2
100
AcDbText
 10
-59.0
 20
29.5
 30
0.0
 40
3.0
  1
材 質
 11
-59.0
 21
31.0
 31
0.0
100
AcDbText
 73
     2
  0
TEXT
  5
1A46
330
1A33
100
AcDbEntity
  8
AM_BOR
 62
     2
100
AcDbText
 10
-59.0
 20
22.5
 30
0.0
 40
3.0
  1
備 考
 11
-59.0
 21
24.0
 31
0.0
100
AcDbText
 73
     2
  0
TEXT
  5
1A47
330
1A33
100
AcDbEntity
  8
AM_BOR
 62
     2
100
AcDbText
 10
-59.0
 20
15.5
 30
0.0
 40
3.0
  1
品 名
 11
-59.0
 21
17.0
 31
0.0
100
AcDbText
 73
     2
  0
TEXT
  5
1A48
330
1A33
100
AcDbEntity
  8
AM_BOR
 62
     2
100
AcDbText
 10
-59.0
 20
6.499999999999992
 30
0.0
 40
3.0
  1
図 番
 11
-59.0
 21
7.999999999999992
 31
0.0
100
AcDbText
 73
     2
  0
TEXT
  5
1A49
330
1A33
100
AcDbEntity
  8
AM_BOR
 62
     2
100
AcDbText
 10
-109.0
 20
29.5
 30
0.0
 40
3.0
  1
承認
 11
-109.0
 21
31.0
 31
0.0
100
AcDbText
 73
     2
  0
TEXT
  5
1A4A
330
1A33
100
AcDbEntity
  8
AM_BOR
 62
     2
100
AcDbText
 10
-109.0
 20
22.5
 30
0.0
 40
3.0
  1
設計
 11
-109.0
 21
24.0
 31
0.0
100
AcDbText
 73
     2
  0
TEXT
  5
1A4B
330
1A33
100
AcDbEntity
  8
AM_BOR
 62
     2
100
AcDbText
 10
-84.0
 20
22.5
 30
0.0
 40
3.0
  1
製図
 11
-84.0
 21
24.0
 31
0.0
100
AcDbText
 73
     2
  0
TEXT
  5
1A4C
330
1A33
100
AcDbEntity
  8
AM_BOR
 62
     2
100
AcDbText
 10
-84.0
 20
29.5
 30
0.0
 40
3.0
  1
検図
 11
-84.0
 21
31.0
 31
0.0
100
AcDbText
 73
     2
  0
ATTDEF
  5
1A4D
330
1A33
100
AcDbEntity
  8
AM_BOR
100
AcDbText
 10
-50.25926794017573
 20
12.75
 30
0.0
 40
3.5
  1

 11
-50.25926794017573
 21
14.5
 31
0.0
100
AcDbAttributeDefinition
  3
品名
  2
HINMEI{14}
 70
     0
 74
     2
  0
ATTDEF
  5
1A4E
330
1A33
100
AcDbEntity
  8
AM_BOR
100
AcDbText
 10
-50.10873010396898
 20
3.249999999999992
 30
0.0
 40
3.5
  1

 11
-50.10873010396898
 21
4.999999999999992
 31
0.0
100
AcDbAttributeDefinition
  3
図番
  2
ZUBAN{14}
 70
     0
 74
     2
  0
ATTDEF
  5
1A4F
330
1A33
100
AcDbEntity
  8
AM_BOR
 62
     2
100
AcDbText
 10
-11.91705654530994
 20
35.0
 30
0.0
 40
3.0
  1

 41
0.8
 11
-11.91705654530994
 21
36.5
 31
0.0
100
AcDbAttributeDefinition
  3
日付
  2
GEN-TITLE-DAT{3.5}
 70
     0
 74
     2
  0
ATTDEF
  5
1A50
330
1A33
100
AcDbEntity
  8
AM_BOR
 62
     2
100
AcDbText
 10
-71.63012018472975
 20
20.00000000000001
 30
0.0
 40
3.0
  1
水 田
 72
     4
 11
-67.63012018472974
 21
21.50000000000002
 31
0.0
100
AcDbAttributeDefinition
  3
製図
  2
SEIZU
 70
     0
  0
ATTDEF
  5
1A51
330
1A33
100
AcDbEntity
  8
AM_BOR
 62
     2
100
AcDbText
 10
-31.91705654530995
 20
35.0
 30
0.0
 40
3.0
  1

 11
-31.91705654530995
 21
36.5
 31
0.0
100
AcDbAttributeDefinition
  3
尺度
  2
GEN-TITLE-SCA
 70
     0
 74
     2
  0
LINE
  5
1A52
330
1A33
100
AcDbEntity
  8
0
100
AcDbLine
 10
-106.9502221859465
 20
14.71456568209314
 30
0.0
 11
-107.7139711131768
 21
11.16237652835879
 31
0.0
  0
LINE
  5
1A53
330
1A33
100
AcDbEntity
  8
0
100
AcDbLine
 10
-107.7139711131768
 20
11.16237652835879
 30
0.0
 11
-107.6697551010107
 21
11.22470827233807
 31
0.0
  0
ELLIPSE
  5
1A54
330
1A33
100
AcDbEntity
  8
0
100
AcDbEllipse
 10
-106.5198686826232
 20
9.133166589319488
 30
0.0
 11
0.0200858413762701
 21
2.795177724472429
 31
0.0
210
0.0
220
0.0
230
1.0
 40
0.6250197778053533
 41
-1.051714224928873
 42
0.7298517778971401
1001
GENIUS_GENODEF_13
1002
{
1000
HIER
1070
     0
1002
}
1002
{
1000
MANEDIT
1070
     0
1002
}
1002
{
1000
NOSEL
1070
     0
1002
}
1002
{
1000
BEHIND
1070
     0
1002
}
1002
{
1000
REACTOR
1002
}
1001
GENIUS_GENOBJ-N-FIL_13
1002
{
1000
OWNER
1000
GEN
1002
}
  0
ELLIPSE
  5
1A55
330
1A33
100
AcDbEntity
  8
0
100
AcDbEllipse
 10
-105.2984958385996
 20
13.8219417489321
 30
0.0
 11
0.0200858413762916
 21
2.795177724472415
 31
0.0
210
0.0
220
0.0
230
1.0
 40
0.6250197778053527
 41
-1.051714224928867
 42
1.250253596044828
1001
GENIUS_GENODEF_13
1002
{
1000
HIER
1070
     0
1002
}
1002
{
1000
MANEDIT
1070
     0
1002
}
1002
{
1000
NOSEL
1070
     0
1002
}
1002
{
1000
BEHIND
1070
     0
1002
}
1002
{
1000
REACTOR
1002
}
1001
GENIUS_GENOBJ-N-FIL_13
1002
{
1000
OWNER
1000
GEN
1002
}
  0
LINE
  5
1A56
330
1A33
100
AcDbEntity
  8
0
100
AcDbLine
 10
-98.48721298302093
 20
8.077457208786752
 30
0.0
 11
-99.45177360188811
 21
4.065819878065248
 31
0.0
  0
ELLIPSE
  5
1A57
330
1A33
100
AcDbEntity
  8
0
100
AcDbEllipse
 10
-101.0818809708247
 20
5.053412867376919
 30
0.0
 11
0.0200858413762853
 21
2.795177724472413
 31
0.0
210
0.0
220
0.0
230
1.0
 40
0.6250197778053547
 41
2.089878428660925
 42
4.355766148231805
1001
GENIUS_GENODEF_13
1002
{
1000
HIER
1070
     0
1002
}
1002
{
1000
MANEDIT
1070
     0
1002
}
1002
{
1000
NOSEL
1070
     0
1002
}
1002
{
1000
BEHIND
1070
     0
1002
}
1002
{
1000
REACTOR
1002
}
1001
GENIUS_GENOBJ-N-FIL_13
1002
{
1000
OWNER
1000
GEN
1002
}
  0
LINE
  5
1A58
330
1A33
100
AcDbEntity
  8
0
100
AcDbLine
 10
-98.48721298302093
 20
8.077457208786752
 30
0.0
 11
-98.66382720839389
 21
7.801834007856294
 31
0.0
  0
ELLIPSE
  5
1A59
330
1A33
100
AcDbEntity
  8
0
100
AcDbEllipse
 10
-99.87931293102301
 20
9.796066964505511
 30
0.0
 11
0.0200858413762724
 21
2.795177724472415
 31
0.0
210
0.0
220
0.0
230
0.9999999999999998
 40
0.6250197778053552
 41
2.08987842866092
 42
3.922474143254961
1001
GENIUS_GENODEF_13
1002
{
1000
HIER
1070
     0
1002
}
1002
{
1000
MANEDIT
1070
     0
1002
}
1002
{
1000
NOSEL
1070
     0
1002
}
1002
{
1000
BEHIND
1070
     0
1002
}
1002
{
1000
REACTOR
1002
}
1001
GENIUS_GENOBJ-N-FIL_13
1002
{
1000
OWNER
1000
GEN
1002
}
  0
HATCH
  5
1A5A
330
1A33
100
AcDbEntity
  8
AM_8
100
AcDbHatch
 10
0.0
 20
0.0
 30
0.0
210
0.0
220
0.0
230
1.0
  2
SOLID
 70
     1
 71
     0
 91
        1
 92
        1
 93
        2
 72
     3
 10
-106.7638987916396
 20
4.957358478318376
 11
0.0000000000000547
 21
2.56276973145977
 40
0.8333333333333941
 50
-77.14069946214277
 51
264.4007371808275
 73
     1
 72
     3
 10
-106.7638987916396
 20
4.957358478318376
 11
-0.0000000000003928
 21
2.562769731461267
 40
0.8333333333328997
 50
264.4007371808174
 51
282.8593005378472
 73
     1
 97
        0
 75
     0
 76
     1
 98
        1
 10
65.20293740923941
 20
-32.16820874956388
1001
GENIUS_GENODEF_13
1002
{
1000
HIER
1070
     0
1002
}
1002
{
1000
MANEDIT
1070
     0
1002
}
1002
{
1000
NOSEL
1070
     0
1002
}
1002
{
1000
BEHIND
1070
     0
1002
}
1002
{
1000
REACTOR
1002
}
1001
GENIUS_GENOBJ-N-HTC_13
1002
{
1000
OWNER
1000
GEN
1002
}
1001
GENIUS_GENHATCH_13
1002
{
1000
DATA
1040
0.0
1042
0.0015799698758396
1000
SOLID
1070
     0
1011
70.0136537122014
1021
-14.7540192633455
1031
0.0
1002
}
1002
{
1000
UCS
1010
0.0
1020
0.0
1030
0.0
1010
1.0
1020
0.0
1030
0.0
1010
0.0
1020
1.0
1030
0.0
1002
}
  0
ELLIPSE
  5
1A5B
330
1A33
100
AcDbEntity
  8
0
100
AcDbEllipse
 10
-106.7638987916396
 20
4.957358478318417
 30
0.0
 11
0.0000000000000006
 21
2.562769731459943
 31
0.0
210
0.0
220
0.0
230
1.0
 40
0.8333333333333353
 41
-1.570796326794896
 42
4.712388980384689
  0
HATCH
  5
1A5C
330
1A33
100
AcDbEntity
  8
AM_8
100
AcDbHatch
 10
0.0
 20
0.0
 30
0.0
210
0.0
220
0.0
230
1.0
  2
SOLID
 70
     1
 71
     0
 91
        1
 92
        1
 93
       10
 72
     1
 10
-106.9502221859465
 20
14.71456568209311
 11
-107.7139711131768
 21
11.16237652835879
 72
     1
 10
-107.7139711131768
 20
11.16237652835879
 11
-107.6697551010108
 21
11.22470827233809
 72
     3
 10
-106.5198686826232
 20
9.133166589319488
 11
0.0200858413762859
 21
2.795177724472421
 40
0.6250197778053525
 50
-29.21280058452436
 51
47.56891328106517
 73
     0
 72
     1
 10
-104.9929922696577
 20
10.5089073790986
 11
-102.6087573837903
 21
3.677672077597827
 72
     3
 10
-101.0818809708247
 20
5.053412867376919
 11
0.0200858413762844
 21
2.79517772447242
 40
0.625019777805353
 50
132.4310867189347
 51
239.202331800838
 73
     1
 72
     1
 10
-99.45177360188809
 20
4.065819878065248
 11
-98.48721298302093
 21
8.077457208786761
 72
     1
 10
-98.48721298302095
 20
8.077457208786752
 11
-98.66382720839393
 21
7.801834007856288
 72
     3
 10
-99.87931293102301
 20
9.796066964505511
 11
0.0200858413762811
 21
2.795177724472416
 40
0.6250197778053536
 50
148.2259629226598
 51
227.5689132810653
 73
     0
 72
     1
 10
-101.4061893439886
 20
8.420326174726406
 11
-103.771619425634
 21
15.19768253871121
 72
     3
 10
-105.2984958385996
 20
13.8219417489321
 11
0.02008584137625
 21
2.795177724472417
 40
0.6250197778053583
 50
-47.56891328106589
 51
62.02409398278944
 73
     1
 97
        0
 75
     0
 76
     1
 98
        1
 10
65.20293740923941
 20
-32.16820874956388
1001
GENIUS_GENODEF_13
1002
{
1000
HIER
1070
     0
1002
}
1002
{
1000
MANEDIT
1070
     0
1002
}
1002
{
1000
NOSEL
1070
     0
1002
}
1002
{
1000
BEHIND
1070
     0
1002
}
1002
{
1000
REACTOR
1002
}
1001
GENIUS_GENOBJ-N-HTC_13
1002
{
1000
OWNER
1000
GEN
1002
}
1001
GENIUS_GENHATCH_13
1002
{
1000
DATA
1040
0.0
1042
0.0015799698758396
1000
SOLID
1070
     0
1011
74.07735655451816
1021
-11.90112763631223
1031
0.0
1002
}
1002
{
1000
UCS
1010
0.0
1020
0.0
1030
0.0
1010
1.0
1020
0.0
1030
0.0
1010
0.0
1020
1.0
1030
0.0
1002
}
  0
LINE
  5
1A5D
330
1A33
100
AcDbEntity
  8
0
100
AcDbLine
 10
-104.9929922696577
 20
10.5089073790986
 30
0.0
 11
-102.6087573837903
 21
3.677672077597847
 31
0.0
  0
LINE
  5
1A5E
330
1A33
100
AcDbEntity
  8
0
100
AcDbLine
 10
-101.4061893439886
 20
8.420326174726406
 30
0.0
 11
-103.771619425634
 21
15.1976825387112
 31
0.0
  0
TEXT
  5
1A5F
330
1A33
100
AcDbEntity
  8
0
100
AcDbText
 10
-92.04358977334541
 20
2.736280326823534
 30
0.0
 40
1.397647058823528
  1
ASOH   CO.LTD
 41
2.222222222222219
  7
ｽﾀｲﾙ1
100
AcDbText
  0
TEXT
  5
1A60
330
1A33
100
AcDbEntity
  8
0
100
AcDbText
 10
-96.37601713265375
 20
7.065690057310197
 30
0.0
 40
9.355420606948992
  1
アソー株式会社
 41
0.4444444444444381
  7
ｽﾀｲﾙ1
100
AcDbText
  0
ATTDEF
  5
1A61
330
1A33
100
AcDbEntity
  8
AM_BOR
 62
     2
100
AcDbText
 10
-98.50320560717072
 20
20.29902073441097
 30
0.0
 40
3.0
  1
水 田
 72
     4
 11
-94.50320560717072
 21
21.79902073441097
 31
0.0
100
AcDbAttributeDefinition
  3
設計
  2
SEKKEI
 70
     0
  0
ATTDEF
  5
1A62
330
1A33
100
AcDbEntity
  8
AM_BOR
 62
     2
100
AcDbText
 10
-97.04186970375872
 20
27.05583171251668
 30
0.0
 40
3.0
  1
樫井
 72
     4
 11
-93.8418697037587
 21
28.55583171251668
 31
0.0
100
AcDbAttributeDefinition
  3
承認
  2
SYOUNIN
 70
     0
  0
ATTDEF
  5
1A63
330
1A33
100
AcDbEntity
  8
AM_BOR
 62
     2
100
AcDbText
 10
-72.04186970375871
 20
27.05583171251668
 30
0.0
 40
3.0
  1
樫井
 72
     4
 11
-68.8418697037587
 21
28.55583171251668
 31
0.0
100
AcDbAttributeDefinition
  3
検図
  2
KENZU
 70
     0
  0
ENDBLK
  5
1A66
330
1A33
100
AcDbEntity
  8
0
100
AcDbBlockEnd
  0
BLOCK
  5
1BCA
330
1BBA
100
AcDbEntity
  8
0
100
AcDbBlockBegin
  2
A$C51D15BE4
 70
     0
 10
0.0
 20
0.0
 30
0.0
  3
A$C51D15BE4
  1

  0
LINE
  5
1BBB
330
1BBA
100
AcDbEntity
  8
0
  6
CENTER2
 62
     5
370
     0
100
AcDbLine
 10
-0.0000000000000568
 20
80.26846895597584
 30
0.0
 11
0.0
 21
-32.75474713330999
 31
0.0
  0
LINE
  5
1BBC
330
1BBA
100
AcDbEntity
  8
0
  6
CENTER2
 62
     5
370
     0
100
AcDbLine
 10
45.14929597877517
 20
0.0
 30
0.0
 11
-55.78141808801627
 21
0.0
 31
0.0
  0
LINE
  5
1BBD
330
1BBA
100
AcDbEntity
  8
0
 62
     0
100
AcDbLine
 10
-37.5
 20
6.75
 30
0.0
 11
-37.5
 21
0.0
 31
0.0
  0
LINE
  5
1BBE
330
1BBA
100
AcDbEntity
  8
0
 62
     0
100
AcDbLine
 10
-36.0
 20
6.0
 30
0.0
 11
-35.99999999999997
 21
-0.0000000000000284
 31
0.0
  0
LINE
  5
1BBF
330
1BBA
100
AcDbEntity
  8
0
100
AcDbLine
 10
-18.75
 20
10.76099999999991
 30
0.0
 11
-29.36400000000003
 21
10.76099999999996
 31
0.0
  0
LINE
  5
1BC0
330
1BBA
100
AcDbEntity
  8
0
100
AcDbLine
 10
-16.49999999999983
 20
11.90625000000003
 30
0.0
 11
-28.21875
 21
11.90625000000003
 31
0.0
  0
LINE
  5
1BC1
330
1BBA
100
AcDbEntity
  8
0
 62
     0
100
AcDbLine
 10
-34.125
 20
10.125
 30
0.0
 11
-37.5
 21
6.75
 31
0.0
  0
LINE
  5
1BC2
330
1BBA
100
AcDbEntity
  8
0
100
AcDbLine
 10
-36.0
 20
6.000000000000028
 30
0.0
 11
-34.39230484541326
 21
-0.0000000000000568
 31
0.0
  0
LINE
  5
1BC3
330
1BBA
100
AcDbEntity
  8
0
 62
     0
100
AcDbLine
 10
-36.0
 20
6.000000000000028
 30
0.0
 11
-37.5
 21
6.000000000000028
 31
0.0
  0
LINE
  5
1BC4
330
1BBA
100
AcDbEntity
  8
0
 62
     0
100
AcDbLine
 10
-28.21875
 20
11.90625000000003
 30
0.0
 11
-30.0
 21
10.125
 31
0.0
  0
LINE
  5
1BC5
330
1BBA
100
AcDbEntity
  8
0
100
AcDbLine
 10
-30.0
 20
10.125
 30
0.0
 11
-34.125
 21
10.125
 31
0.0
  0
LINE
  5
1BC6
330
1BBA
100
AcDbEntity
  8
0
100
AcDbLine
 10
-35.53797471799498
 20
4.153807788621122
 30
0.0
 11
-5.390999999999962
 21
9.46953281813964
 31
0.0
  0
LINE
  5
1BC7
330
1BBA
100
AcDbEntity
  8
0
100
AcDbLine
 10
-15.90461068821148
 20
-0.0000000000000284
 30
0.0
 11
-5.390999999999962
 21
1.853833228996563
 31
0.0
  0
LINE
  5
1BC8
330
1BBA
100
AcDbEntity
  8
0
 62
     0
100
AcDbLine
 10
-34.19958158422293
 20
10.1249999989875
 30
0.0
 11
-36.82458158321029
 21
7.500000000000113
 31
0.0
  0
LINE
  5
1BC9
330
1BBA
100
AcDbEntity
  8
0
 62
     0
100
AcDbLine
 10
-16.49999999999983
 20
11.90625000000003
 30
0.0
 11
-18.56358158428662
 21
10.76099999880929
 31
0.0
  0
ENDBLK
  5
1BCB
330
1BBA
100
AcDbEntity
  8
0
100
AcDbBlockEnd
  0
BLOCK
  5
23B9
330
23B8
100
AcDbEntity
  8
0
100
AcDbBlockBegin
  2
*D12
 70
     1
 10
0.0
 20
0.0
 30
0.0
  3
*D12
  1

  0
LINE
  5
2479
330
23B8
100
AcDbEntity
  8
AM_5
100
AcDbLine
 10
128.7207760592689
 20
302.5496082312351
 30
0.0
 11
122.2123468154252
 21
302.5496082312352
 31
0.0
  0
LINE
  5
247A
330
23B8
100
AcDbEntity
  8
AM_5
100
AcDbLine
 10
128.7207760592689
 20
293.5496082312347
 30
0.0
 11
122.2123468154252
 21
293.5496082312348
 31
0.0
  0
LINE
  5
247B
330
23B8
100
AcDbEntity
  8
AM_5
100
AcDbLine
 10
122.7123468154252
 20
301.2996082312351
 30
0.0
 11
122.7123468154252
 21
294.7996082312348
 31
0.0
  0
INSERT
  5
247C
330
23B8
100
AcDbEntity
  8
AM_5
100
AcDbBlockReference
  2
_Open30
 10
122.7123468154252
 20
302.5496082312352
 30
0.0
 41
1.25
 42
1.25
 43
1.25
 50
90.0
  0
INSERT
  5
247D
330
23B8
100
AcDbEntity
  8
AM_5
100
AcDbBlockReference
  2
_Open30
 10
122.7123468154252
 20
293.5496082312348
 30
0.0
 41
1.25
 42
1.25
 43
1.25
 50
270.0
  0
MTEXT
  5
247E
330
23B8
100
AcDbEntity
  8
AM_5
 62
     2
100
AcDbMText
 10
121.0873468154252
 20
298.049608231235
 30
0.0
 40
1.75
 41
0.0
 71
     5
 72
     1
  1
%%c9
 11
0.0000000000000001
 21
1.0
 31
0.0
 73
     1
 44
1.0
1001
ACAD
1000
MTEXTBEGIN
1070
    73
1070
     1
1070
    44
1040
1.0
1070
    74
1070
     0
1000
MTEXTEND
  0
POINT
  5
247F
330
23B8
100
AcDbEntity
  8
Defpoints
 62
     0
100
AcDbPoint
 10
129.2207760592689
 20
302.5496082312351
 30
0.0
  0
POINT
  5
2480
330
23B8
100
AcDbEntity
  8
Defpoints
 62
     0
100
AcDbPoint
 10
129.2207760592689
 20
293.5496082312347
 30
0.0
  0
POINT
  5
2481
330
23B8
100
AcDbEntity
  8
Defpoints
 62
     0
100
AcDbPoint
 10
122.7123468154252
 20
293.5496082312348
 30
0.0
  0
ENDBLK
  5
23BA
330
23B8
100
AcDbEntity
  8
0
100
AcDbBlockEnd
  0
ENDSEC
  0
SECTION
  2
ENTITIES
  0
LINE
  5
277
330
1F
100
AcDbEntity
  8
AM_0
100
AcDbLine
 10
157.7207760592692
 20
312.0496082312361
 30
0.0
 11
157.7207760592693
 21
309.851779837602
 31
0.0
  0
LINE
  5
8F2
330
1F
100
AcDbEntity
  8
AM_0
100
AcDbLine
 10
163.2207760592693
 20
287.5496082312361
 30
0.0
 11
159.7207760592692
 21
287.5496082312361
 31
0.0
  0
LINE
  5
8F3
330
1F
100
AcDbEntity
  8
AM_0
100
AcDbLine
 10
159.2207760592692
 20
288.049608231236
 30
0.0
 11
159.2207760592692
 21
288.049608231236
 31
0.0
  0
ARC
  5
8FE
330
1F
100
AcDbEntity
  8
AM_0
100
AcDbCircle
 10
159.7207760592692
 20
288.0496082312362
 30
0.0
 40
0.5
100
AcDbArc
 50
179.9999999999999
 51
270.0
1001
GENIUS_GENODEF_13
1002
{
1000
HIER
1070
     0
1002
}
1002
{
1000
MANEDIT
1070
     0
1002
}
1002
{
1000
NOSEL
1070
     0
1002
}
1002
{
1000
BEHIND
1070
     0
1002
}
1002
{
1000
REACTOR
1002
}
1001
GENIUS_GENOBJ-N-FIL_13
1002
{
1000
OWNER
1000
GEN
1002
}
  0
LINE
  5
906
330
1F
100
AcDbEntity
  8
AM_0
100
AcDbLine
 10
168.7207760592693
 20
312.0496082312361
 30
0.0
 11
168.7207760592693
 21
308.0496082312368
 31
0.0
  0
LINE
  5
90A
330
1F
100
AcDbEntity
  8
AM_0
100
AcDbLine
 10
163.2207760592693
 20
287.5496082312361
 30
0.0
 11
167.220776059269
 21
287.5496082312361
 31
0.0
  0
LINE
  5
C0B
330
1F
100
AcDbEntity
  8
AM_0
100
AcDbLine
 10
156.9377065170879
 20
308.875592777418
 30
0.0
 11
150.720776059269
 21
307.4940526756804
 31
0.0
  0
LINE
  5
C0D
330
1F
100
AcDbEntity
  8
AM_0
100
AcDbLine
 10
150.7207760592689
 20
289.0496082312361
 30
0.0
 11
158.2207760592693
 21
289.0496082312361
 31
0.0
  0
LINE
  5
C0F
330
1F
100
AcDbEntity
  8
AM_0
100
AcDbLine
 10
167.2207760592693
 20
287.5496082312361
 30
0.0
 11
177.2207760592688
 21
289.0496082312372
 31
0.0
  0
ARC
  5
C18
330
1F
100
AcDbEntity
  8
AM_0
100
AcDbCircle
 10
156.7207760592692
 20
309.8517798376021
 30
0.0
 40
1.0
100
AcDbArc
 50
282.5288077091518
 51
359.9999999999997
1001
GENIUS_GENODEF_13
1002
{
1000
HIER
1070
     0
1002
}
1002
{
1000
MANEDIT
1070
     0
1002
}
1002
{
1000
NOSEL
1070
     0
1002
}
1002
{
1000
BEHIND
1070
     0
1002
}
1002
{
1000
REACTOR
1002
}
1001
GENIUS_GENOBJ-N-FIL_13
1002
{
1000
OWNER
1000
GEN
1002
}
  0
ARC
  5
C2D
330
1F
100
AcDbEntity
  8
AM_0
100
AcDbCircle
 10
158.2207760592693
 20
288.049608231236
 30
0.0
 40
1.0
100
AcDbArc
 50
359.9999999999996
 51
89.99999999999998
1001
GENIUS_GENODEF_13
1002
{
1000
HIER
1070
     0
1002
}
1002
{
1000
MANEDIT
1070
     0
1002
}
1002
{
1000
NOSEL
1070
     0
1002
}
1002
{
1000
BEHIND
1070
     0
1002
}
1002
{
1000
REACTOR
1002
}
1001
GENIUS_GENOBJ-N-FIL_13
1002
{
1000
OWNER
1000
GEN
1002
}
  0
LINE
  5
C7F
330
1F
100
AcDbEntity
  8
AM_4
100
AcDbLine
 10
187.7151095199482
 20
290.7576615186404
 30
0.0
 11
178.1048203088244
 21
290.4573399807921
 31
0.0
  0
LINE
  5
C80
330
1F
100
AcDbEntity
  8
AM_0
100
AcDbLine
 10
188.2207760592691
 20
291.0496082312375
 30
0.0
 11
186.146866625603
 21
289.8522360614353
 31
0.0
  0
LINE
  5
C81
330
1F
100
AcDbEntity
  8
AM_0
100
AcDbLine
 10
186.146866625603
 20
289.8522360614353
 30
0.0
 11
186.1468666256022
 21
298.0496082312374
 31
0.0
  0
LINE
  5
C82
330
1F
100
AcDbEntity
  8
0
100
AcDbLine
 10
186.146866625603
 20
289.8522360614354
 30
0.0
 11
177.2207760592692
 21
289.5732957312368
 31
0.0
  0
LINE
  5
C83
330
1F
100
AcDbEntity
  8
AM_4
100
AcDbLine
 10
177.2207760592692
 20
289.5732957312368
 30
0.0
 11
178.1048203088244
 21
290.4573399807921
 31
0.0
  0
LINE
  5
C84
330
1F
100
AcDbEntity
  8
AM_0
100
AcDbLine
 10
178.1048203088239
 20
298.0496082312371
 30
0.0
 11
178.1048203088245
 21
289.6009221140355
 31
0.0
  0
LINE
  5
C86
330
1F
100
AcDbEntity
  8
AM_4
100
AcDbLine
 10
187.7151095199473
 20
305.3415549438345
 30
0.0
 11
178.1048203088237
 21
305.6418764816815
 31
0.0
  0
LINE
  5
C87
330
1F
100
AcDbEntity
  8
0
100
AcDbLine
 10
186.1468666256019
 20
306.2469804010394
 30
0.0
 11
177.2207760592682
 21
306.5259207312368
 31
0.0
  0
LINE
  5
C88
330
1F
100
AcDbEntity
  8
AM_0
100
AcDbLine
 10
186.1468666256019
 20
306.2469804010394
 30
0.0
 11
186.1468666256031
 21
298.0496082312374
 31
0.0
  0
LINE
  5
C89
330
1F
100
AcDbEntity
  8
AM_0
100
AcDbLine
 10
188.2207760592684
 20
305.0496082312375
 30
0.0
 11
186.1468666256019
 21
306.2469804010394
 31
0.0
  0
LINE
  5
C8A
330
1F
100
AcDbEntity
  8
AM_0
100
AcDbLine
 10
178.104820308824
 20
298.0496082312371
 30
0.0
 11
178.1048203088237
 21
306.4982943484382
 31
0.0
  0
LINE
  5
C8B
330
1F
100
AcDbEntity
  8
AM_4
100
AcDbLine
 10
177.2207760592682
 20
306.5259207312368
 30
0.0
 11
178.1048203088237
 21
305.6418764816815
 31
0.0
  0
LINE
  5
C8D
330
1F
100
AcDbEntity
  8
AM_0
100
AcDbLine
 10
188.2207760592684
 20
305.0496082312374
 30
0.0
 11
188.2207760592691
 21
291.0496082312375
 31
0.0
  0
LINE
  5
12AD
330
1F
100
AcDbEntity
  8
AM_7
100
AcDbLine
 10
123.8732750582339
 20
298.0496082312361
 30
0.0
 11
189.7207760592688
 21
298.0496082312375
 31
0.0
1001
GENIUS_GENODEF_13
1002
{
1000
HIER
1070
     0
1002
}
1002
{
1000
MANEDIT
1070
     0
1002
}
1002
{
1000
NOSEL
1070
     0
1002
}
1002
{
1000
BEHIND
1070
     0
1002
}
1002
{
1000
REACTOR
1002
}
1001
GENIUS_GENOBJ-N-CEN_13
1002
{
1000
OWNER
1000
GEN
1002
}
  0
LINE
  5
18CA
330
1F
100
AcDbEntity
  8
AM_0
100
AcDbLine
 10
160.220776059269
 20
327.6809146826002
 30
0.0
 11
160.220776059269
 21
322.5496082314497
 31
0.0
  0
LINE
  5
18CB
330
1F
100
AcDbEntity
  8
AM_0
100
AcDbLine
 10
166.2207760592689
 20
327.6809146826001
 30
0.0
 11
166.220776059269
 21
322.5496082314497
 31
0.0
  0
LINE
  5
1901
330
1F
100
AcDbEntity
  8
AM_0
100
AcDbLine
 10
160.720776059269
 20
328.1809146826001
 30
0.0
 11
160.220776059269
 21
327.6809146826001
 31
0.0
1001
GENIUS_GENFIL_13
1070
     0
1040
0.5
1040
0.5
1040
0.5
1040
45.0000000000002
1000
~T
1001
GENIUS_GENOREF_13
1005
1903
  0
LINE
  5
1902
330
1F
100
AcDbEntity
  8
AM_0
100
AcDbLine
 10
160.220776059269
 20
327.6809146826001
 30
0.0
 11
166.220776059269
 21
327.6809146826001
 31
0.0
  0
POINT
  5
1903
330
1F
100
AcDbEntity
  8
0
 60
     1
100
AcDbPoint
 10
448.1018749371225
 20
88.69209745007742
 30
0.0
 50
180.0
1001
GENIUS_GENOENT_13
1002
{
1000
MYREF
1005
1903
1002
}
1002
{
1000
GRP
1005
0
1002
}
1001
GENIUS_GENOBJ-N-CHA_13
1002
{
1000
OWNER
1000
GEN
1002
}
1001
GENIUS_GENODEF_13
1002
{
1000
HIER
1070
     1
1002
}
1002
{
1000
MANEDIT
1070
     0
1002
}
1002
{
1000
NOSEL
1070
     0
1002
}
1002
{
1000
BEHIND
1070
     0
1002
}
1002
{
1000
OTHER
1070
     0
1002
}
1002
{
1000
REACTOR
1002
}
1001
GENIUS_GENOLIS_13
1002
{
1000
ENT
1005
1901
1002
}
  0
LINE
  5
1908
330
1F
100
AcDbEntity
  8
AM_7
100
AcDbLine
 10
163.2207760592689
 20
344.7687265043567
 30
0.0
 11
163.2207760592693
 21
286.1526082312361
 31
0.0
1001
GENIUS_GENOBJ-N-CEN_13
1002
{
1000
OWNER
1000
GEN
1002
}
1001
GENIUS_GENODEF_13
1002
{
1000
HIER
1070
     0
1002
}
1002
{
1000
MANEDIT
1070
     0
1002
}
1002
{
1000
NOSEL
1070
     0
1002
}
1002
{
1000
BEHIND
1070
     0
1002
}
1002
{
1000
OTHER
1070
     0
1002
}
1002
{
1000
REACTOR
1002
}
1001
GENIUS_GENCEN_19
1002
{
1040
1.397
1002
}
  0
LINE
  5
1986
330
1F
100
AcDbEntity
  8
AM_7
  6
AM_ISO08W050x2
100
AcDbLine
 10
163.2207760592689
 20
363.1231205690025
 30
0.0
 11
177.2207760592689
 21
363.1231205690025
 31
0.0
1001
GENIUS_GENOREF_13
1005
19B8
  0
LINE
  5
1987
330
1F
100
AcDbEntity
  8
AM_7
  6
AM_ISO08W050x2
100
AcDbLine
 10
163.2207760592689
 20
363.1231205690025
 30
0.0
 11
163.2207760592689
 21
377.1231205690025
 31
0.0
1001
GENIUS_GENOREF_13
1005
19B8
  0
LINE
  5
1988
330
1F
100
AcDbEntity
  8
AM_7
  6
AM_ISO08W050x2
100
AcDbLine
 10
163.2207760592689
 20
363.1231205690025
 30
0.0
 11
149.2207760592689
 21
363.1231205690025
 31
0.0
1001
GENIUS_GENOREF_13
1005
19B8
  0
LINE
  5
1989
330
1F
100
AcDbEntity
  8
AM_7
  6
AM_ISO08W050x2
100
AcDbLine
 10
163.2207760592689
 20
363.1231205690025
 30
0.0
 11
163.2207760592689
 21
349.1231205690025
 31
0.0
1001
GENIUS_GENOREF_13
1005
19B8
  0
ARC
  5
198A
330
1F
100
AcDbEntity
  8
AM_0
100
AcDbCircle
 10
163.2207760592689
 20
363.1231205690025
 30
0.0
 40
12.5
100
AcDbArc
 50
267.0773289794917
 51
272.9226710205083
  0
CIRCLE
  5
198B
330
1F
100
AcDbEntity
  8
AM_0
100
AcDbCircle
 10
163.2207760592689
 20
363.1231205690025
 30
0.0
 40
10.5
  0
CIRCLE
  5
198C
330
1F
100
AcDbEntity
  8
AM_0
100
AcDbCircle
 10
163.2207760592689
 20
363.1231205690025
 30
0.0
 40
9.0
  0
ARC
  5
198D
330
1F
100
AcDbEntity
  8
AM_0
100
AcDbCircle
 10
167.5035753997924
 20
376.3042215923566
 30
0.0
 40
3.361078814551376
100
AcDbArc
 50
198.0557259869353
 51
305.9442740130625
  0
ARC
  5
198E
330
1F
100
AcDbEntity
  8
AM_0
100
AcDbCircle
 10
167.5035753997924
 20
349.9420195456485
 30
0.0
 40
3.361078814551376
100
AcDbArc
 50
54.05572598693755
 51
161.9442740130646
  0
ARC
  5
198F
330
1F
100
AcDbEntity
  8
AM_0
100
AcDbCircle
 10
174.4332902997549
 20
354.9767521274237
 30
0.0
 40
3.361078814551376
100
AcDbArc
 50
90.05572598693659
 51
197.9442740130644
  0
ARC
  5
1990
330
1F
100
AcDbEntity
  8
AM_0
100
AcDbCircle
 10
177.0802058591941
 20
363.1231205690026
 30
0.0
 40
3.361078814551376
100
AcDbArc
 50
126.0557259869373
 51
233.9442740130639
  0
ARC
  5
1991
330
1F
100
AcDbEntity
  8
AM_0
100
AcDbCircle
 10
174.4332902997549
 20
371.2694890105814
 30
0.0
 40
3.361078814551376
100
AcDbArc
 50
162.0557259869356
 51
269.9442740130634
  0
ARC
  5
1992
330
1F
100
AcDbEntity
  8
AM_0
100
AcDbCircle
 10
158.9379767187454
 20
376.3042215923566
 30
0.0
 40
3.361078814551376
100
AcDbArc
 50
234.0557259869376
 51
341.9442740130647
  0
ARC
  5
1993
330
1F
100
AcDbEntity
  8
AM_0
100
AcDbCircle
 10
152.0082618187829
 20
371.2694890105814
 30
0.0
 40
3.361078814551376
100
AcDbArc
 50
270.0557259869366
 51
17.94427401306436
  0
ARC
  5
1994
330
1F
100
AcDbEntity
  8
AM_0
100
AcDbCircle
 10
149.3613462593437
 20
363.1231205690026
 30
0.0
 40
3.361078814551376
100
AcDbArc
 50
306.0557259869361
 51
53.9442740130626
  0
ARC
  5
1995
330
1F
100
AcDbEntity
  8
AM_0
100
AcDbCircle
 10
152.0082618187829
 20
354.9767521274237
 30
0.0
 40
3.361078814551376
100
AcDbArc
 50
342.0557259869356
 51
89.94427401306339
  0
ARC
  5
1996
330
1F
100
AcDbEntity
  8
AM_0
100
AcDbCircle
 10
158.9379767187454
 20
349.9420195456485
 30
0.0
 40
3.361078814551376
100
AcDbArc
 50
18.05572598693531
 51
125.9442740130624
  0
ARC
  5
1997
330
1F
100
AcDbEntity
  8
AM_0
100
AcDbCircle
 10
163.2207760592689
 20
363.1231205690025
 30
0.0
 40
12.5
100
AcDbArc
 50
231.0773289794921
 51
236.9226710205087
  0
ARC
  5
1998
330
1F
100
AcDbEntity
  8
AM_0
100
AcDbCircle
 10
163.2207760592689
 20
363.1231205690025
 30
0.0
 40
12.5
100
AcDbArc
 50
195.0773289794923
 51
200.9226710205091
  0
ARC
  5
1999
330
1F
100
AcDbEntity
  8
AM_0
100
AcDbCircle
 10
163.2207760592689
 20
363.1231205690025
 30
0.0
 40
12.5
100
AcDbArc
 50
159.0773289794909
 51
164.9226710205076
  0
ARC
  5
199A
330
1F
100
AcDbEntity
  8
AM_0
100
AcDbCircle
 10
163.2207760592689
 20
363.1231205690025
 30
0.0
 40
12.5
100
AcDbArc
 50
123.0773289794912
 51
128.9226710205079
  0
ARC
  5
199B
330
1F
100
AcDbEntity
  8
AM_0
100
AcDbCircle
 10
163.2207760592689
 20
363.1231205690025
 30
0.0
 40
12.5
100
AcDbArc
 50
87.07732897949167
 51
92.92267102050834
  0
ARC
  5
199C
330
1F
100
AcDbEntity
  8
AM_0
100
AcDbCircle
 10
163.2207760592689
 20
363.1231205690025
 30
0.0
 40
12.5
100
AcDbArc
 50
51.07732897949212
 51
56.92267102050873
  0
ARC
  5
199D
330
1F
100
AcDbEntity
  8
AM_0
100
AcDbCircle
 10
163.2207760592689
 20
363.1231205690025
 30
0.0
 40
12.5
100
AcDbArc
 50
15.07732897949233
 51
20.92267102050903
  0
ARC
  5
199E
330
1F
100
AcDbEntity
  8
AM_0
100
AcDbCircle
 10
163.2207760592689
 20
363.1231205690025
 30
0.0
 40
12.5
100
AcDbArc
 50
339.0773289794909
 51
344.9226710205077
  0
ARC
  5
199F
330
1F
100
AcDbEntity
  8
AM_0
100
AcDbCircle
 10
163.2207760592689
 20
363.1231205690025
 30
0.0
 40
12.5
100
AcDbArc
 50
303.0773289794912
 51
308.9226710205079
  0
ARC
  5
19A0
330
1F
100
AcDbEntity
  8
AM_0
100
AcDbCircle
 10
170.760027420961
 20
372.4590559214578
 30
0.0
 40
0.5
100
AcDbArc
 50
342.0557259869387
 51
51.07732897949336
1001
GENIUS_GENODEF_13
1002
{
1000
HIER
1070
     0
1002
}
1002
{
1000
MANEDIT
1070
     0
1002
}
1002
{
1000
NOSEL
1070
     0
1002
}
1002
{
1000
BEHIND
1070
     0
1002
}
1002
{
1000
REACTOR
1002
}
1001
GENIUS_GENOBJ-N-FIL_13
1002
{
1000
OWNER
1000
GEN
1002
}
  0
ARC
  5
19A1
330
1F
100
AcDbEntity
  8
AM_0
100
AcDbCircle
 10
169.7700214163045
 20
373.1783373868215
 30
0.0
 40
0.5
100
AcDbArc
 50
56.92267102050736
 51
125.9442740130624
1001
GENIUS_GENODEF_13
1002
{
1000
HIER
1070
     0
1002
}
1002
{
1000
MANEDIT
1070
     0
1002
}
1002
{
1000
NOSEL
1070
     0
1002
}
1002
{
1000
BEHIND
1070
     0
1002
}
1002
{
1000
REACTOR
1002
}
1001
GENIUS_GENOBJ-N-FIL_13
1002
{
1000
OWNER
1000
GEN
1002
}
  0
ARC
  5
19A2
330
1F
100
AcDbEntity
  8
AM_0
100
AcDbCircle
 10
163.8326334192132
 20
375.1075116912533
 30
0.0
 40
0.5
100
AcDbArc
 50
18.05572598693531
 51
87.07732897949167
1001
GENIUS_GENODEF_13
1002
{
1000
HIER
1070
     0
1002
}
1002
{
1000
MANEDIT
1070
     0
1002
}
1002
{
1000
NOSEL
1070
     0
1002
}
1002
{
1000
BEHIND
1070
     0
1002
}
1002
{
1000
REACTOR
1002
}
1001
GENIUS_GENOBJ-N-FIL_13
1002
{
1000
OWNER
1000
GEN
1002
}
  0
ARC
  5
19A3
330
1F
100
AcDbEntity
  8
AM_0
100
AcDbCircle
 10
162.6089186993246
 20
375.1075116912533
 30
0.0
 40
0.5
100
AcDbArc
 50
92.92267102050834
 51
161.9442740130646
1001
GENIUS_GENODEF_13
1002
{
1000
HIER
1070
     0
1002
}
1002
{
1000
MANEDIT
1070
     0
1002
}
1002
{
1000
NOSEL
1070
     0
1002
}
1002
{
1000
BEHIND
1070
     0
1002
}
1002
{
1000
REACTOR
1002
}
1001
GENIUS_GENOBJ-N-FIL_13
1002
{
1000
OWNER
1000
GEN
1002
}
  0
ARC
  5
19A4
330
1F
100
AcDbEntity
  8
AM_0
100
AcDbCircle
 10
156.6715307022334
 20
373.1783373868215
 30
0.0
 40
0.5
100
AcDbArc
 50
54.05572598693755
 51
123.0773289794926
1001
GENIUS_GENODEF_13
1002
{
1000
HIER
1070
     0
1002
}
1002
{
1000
MANEDIT
1070
     0
1002
}
1002
{
1000
NOSEL
1070
     0
1002
}
1002
{
1000
BEHIND
1070
     0
1002
}
1002
{
1000
REACTOR
1002
}
1001
GENIUS_GENOBJ-N-FIL_13
1002
{
1000
OWNER
1000
GEN
1002
}
  0
ARC
  5
19A5
330
1F
100
AcDbEntity
  8
AM_0
100
AcDbCircle
 10
155.6815246975768
 20
372.4590559214578
 30
0.0
 40
0.5
100
AcDbArc
 50
128.9226710205066
 51
197.9442740130613
1001
GENIUS_GENODEF_13
1002
{
1000
HIER
1070
     0
1002
}
1002
{
1000
MANEDIT
1070
     0
1002
}
1002
{
1000
NOSEL
1070
     0
1002
}
1002
{
1000
BEHIND
1070
     0
1002
}
1002
{
1000
REACTOR
1002
}
1001
GENIUS_GENOBJ-N-FIL_13
1002
{
1000
OWNER
1000
GEN
1002
}
  0
ARC
  5
19A6
330
1F
100
AcDbEntity
  8
AM_0
100
AcDbCircle
 10
152.0120171109788
 20
367.4084120222324
 30
0.0
 40
0.5
100
AcDbArc
 50
90.05572598693987
 51
159.077328979494
1001
GENIUS_GENODEF_13
1002
{
1000
HIER
1070
     0
1002
}
1002
{
1000
MANEDIT
1070
     0
1002
}
1002
{
1000
NOSEL
1070
     0
1002
}
1002
{
1000
BEHIND
1070
     0
1002
}
1002
{
1000
REACTOR
1002
}
1001
GENIUS_GENOBJ-N-FIL_13
1002
{
1000
OWNER
1000
GEN
1002
}
  0
ARC
  5
19A7
330
1F
100
AcDbEntity
  8
AM_0
100
AcDbCircle
 10
151.6338684662664
 20
366.2445901637962
 30
0.0
 40
0.5
100
AcDbArc
 50
164.9226710205076
 51
233.9442740130626
1001
GENIUS_GENODEF_13
1002
{
1000
HIER
1070
     0
1002
}
1002
{
1000
MANEDIT
1070
     0
1002
}
1002
{
1000
NOSEL
1070
     0
1002
}
1002
{
1000
BEHIND
1070
     0
1002
}
1002
{
1000
REACTOR
1002
}
1001
GENIUS_GENOBJ-N-FIL_13
1002
{
1000
OWNER
1000
GEN
1002
}
  0
ARC
  5
19A8
330
1F
100
AcDbEntity
  8
AM_0
100
AcDbCircle
 10
151.6338684662664
 20
360.001650974209
 30
0.0
 40
0.5
100
AcDbArc
 50
126.0557259869347
 51
195.0773289794923
1001
GENIUS_GENODEF_13
1002
{
1000
HIER
1070
     0
1002
}
1002
{
1000
MANEDIT
1070
     0
1002
}
1002
{
1000
NOSEL
1070
     0
1002
}
1002
{
1000
BEHIND
1070
     0
1002
}
1002
{
1000
REACTOR
1002
}
1001
GENIUS_GENOBJ-N-FIL_13
1002
{
1000
OWNER
1000
GEN
1002
}
  0
ARC
  5
19A9
330
1F
100
AcDbEntity
  8
AM_0
100
AcDbCircle
 10
152.0120171109788
 20
358.8378291157727
 30
0.0
 40
0.5
100
AcDbArc
 50
200.922671020506
 51
269.9442740130601
1001
GENIUS_GENODEF_13
1002
{
1000
HIER
1070
     0
1002
}
1002
{
1000
MANEDIT
1070
     0
1002
}
1002
{
1000
NOSEL
1070
     0
1002
}
1002
{
1000
BEHIND
1070
     0
1002
}
1002
{
1000
REACTOR
1002
}
1001
GENIUS_GENOBJ-N-FIL_13
1002
{
1000
OWNER
1000
GEN
1002
}
  0
ARC
  5
19AA
330
1F
100
AcDbEntity
  8
AM_0
100
AcDbCircle
 10
155.6815246975768
 20
353.7871852165473
 30
0.0
 40
0.5
100
AcDbArc
 50
162.0557259869387
 51
231.0773289794934
1001
GENIUS_GENODEF_13
1002
{
1000
HIER
1070
     0
1002
}
1002
{
1000
MANEDIT
1070
     0
1002
}
1002
{
1000
NOSEL
1070
     0
1002
}
1002
{
1000
BEHIND
1070
     0
1002
}
1002
{
1000
REACTOR
1002
}
1001
GENIUS_GENOBJ-N-FIL_13
1002
{
1000
OWNER
1000
GEN
1002
}
  0
ARC
  5
19AB
330
1F
100
AcDbEntity
  8
AM_0
100
AcDbCircle
 10
156.6715307022334
 20
353.0679037511836
 30
0.0
 40
0.5
100
AcDbArc
 50
236.9226710205074
 51
305.9442740130625
1001
GENIUS_GENODEF_13
1002
{
1000
HIER
1070
     0
1002
}
1002
{
1000
MANEDIT
1070
     0
1002
}
1002
{
1000
NOSEL
1070
     0
1002
}
1002
{
1000
BEHIND
1070
     0
1002
}
1002
{
1000
REACTOR
1002
}
1001
GENIUS_GENOBJ-N-FIL_13
1002
{
1000
OWNER
1000
GEN
1002
}
  0
ARC
  5
19AC
330
1F
100
AcDbEntity
  8
AM_0
100
AcDbCircle
 10
162.6089186993246
 20
351.1387294467518
 30
0.0
 40
0.5
100
AcDbArc
 50
198.0557259869353
 51
267.0773289794917
1001
GENIUS_GENODEF_13
1002
{
1000
HIER
1070
     0
1002
}
1002
{
1000
MANEDIT
1070
     0
1002
}
1002
{
1000
NOSEL
1070
     0
1002
}
1002
{
1000
BEHIND
1070
     0
1002
}
1002
{
1000
REACTOR
1002
}
1001
GENIUS_GENOBJ-N-FIL_13
1002
{
1000
OWNER
1000
GEN
1002
}
  0
ARC
  5
19AD
330
1F
100
AcDbEntity
  8
AM_0
100
AcDbCircle
 10
163.8326334192132
 20
351.1387294467518
 30
0.0
 40
0.5
100
AcDbArc
 50
272.9226710205083
 51
341.9442740130647
1001
GENIUS_GENODEF_13
1002
{
1000
HIER
1070
     0
1002
}
1002
{
1000
MANEDIT
1070
     0
1002
}
1002
{
1000
NOSEL
1070
     0
1002
}
1002
{
1000
BEHIND
1070
     0
1002
}
1002
{
1000
REACTOR
1002
}
1001
GENIUS_GENOBJ-N-FIL_13
1002
{
1000
OWNER
1000
GEN
1002
}
  0
ARC
  5
19AE
330
1F
100
AcDbEntity
  8
AM_0
100
AcDbCircle
 10
169.7700214163045
 20
353.0679037511836
 30
0.0
 40
0.5
100
AcDbArc
 50
234.0557259869376
 51
303.0773289794926
1001
GENIUS_GENODEF_13
1002
{
1000
HIER
1070
     0
1002
}
1002
{
1000
MANEDIT
1070
     0
1002
}
1002
{
1000
NOSEL
1070
     0
1002
}
1002
{
1000
BEHIND
1070
     0
1002
}
1002
{
1000
REACTOR
1002
}
1001
GENIUS_GENOBJ-N-FIL_13
1002
{
1000
OWNER
1000
GEN
1002
}
  0
ARC
  5
19AF
330
1F
100
AcDbEntity
  8
AM_0
100
AcDbCircle
 10
170.760027420961
 20
353.7871852165473
 30
0.0
 40
0.5
100
AcDbArc
 50
308.9226710205066
 51
17.94427401306125
1001
GENIUS_GENODEF_13
1002
{
1000
HIER
1070
     0
1002
}
1002
{
1000
MANEDIT
1070
     0
1002
}
1002
{
1000
NOSEL
1070
     0
1002
}
1002
{
1000
BEHIND
1070
     0
1002
}
1002
{
1000
REACTOR
1002
}
1001
GENIUS_GENOBJ-N-FIL_13
1002
{
1000
OWNER
1000
GEN
1002
}
  0
ARC
  5
19B0
330
1F
100
AcDbEntity
  8
AM_0
100
AcDbCircle
 10
174.4295350075591
 20
358.8378291157727
 30
0.0
 40
0.5
100
AcDbArc
 50
270.0557259869399
 51
339.0773289794939
1001
GENIUS_GENODEF_13
1002
{
1000
HIER
1070
     0
1002
}
1002
{
1000
MANEDIT
1070
     0
1002
}
1002
{
1000
NOSEL
1070
     0
1002
}
1002
{
1000
BEHIND
1070
     0
1002
}
1002
{
1000
REACTOR
1002
}
1001
GENIUS_GENOBJ-N-FIL_13
1002
{
1000
OWNER
1000
GEN
1002
}
  0
ARC
  5
19B1
330
1F
100
AcDbEntity
  8
AM_0
100
AcDbCircle
 10
174.8076836522714
 20
360.001650974209
 30
0.0
 40
0.5
100
AcDbArc
 50
344.9226710205077
 51
53.94427401306525
1001
GENIUS_GENODEF_13
1002
{
1000
HIER
1070
     0
1002
}
1002
{
1000
MANEDIT
1070
     0
1002
}
1002
{
1000
NOSEL
1070
     0
1002
}
1002
{
1000
BEHIND
1070
     0
1002
}
1002
{
1000
REACTOR
1002
}
1001
GENIUS_GENOBJ-N-FIL_13
1002
{
1000
OWNER
1000
GEN
1002
}
  0
ARC
  5
19B2
330
1F
100
AcDbEntity
  8
AM_0
100
AcDbCircle
 10
174.8076836522714
 20
366.2445901637962
 30
0.0
 40
0.5
100
AcDbArc
 50
306.0557259869374
 51
15.07732897949233
1001
GENIUS_GENODEF_13
1002
{
1000
HIER
1070
     0
1002
}
1002
{
1000
MANEDIT
1070
     0
1002
}
1002
{
1000
NOSEL
1070
     0
1002
}
1002
{
1000
BEHIND
1070
     0
1002
}
1002
{
1000
REACTOR
1002
}
1001
GENIUS_GENOBJ-N-FIL_13
1002
{
1000
OWNER
1000
GEN
1002
}
  0
ARC
  5
19B3
330
1F
100
AcDbEntity
  8
AM_0
100
AcDbCircle
 10
174.4295350075591
 20
367.4084120222324
 30
0.0
 40
0.5
100
AcDbArc
 50
20.92267102050598
 51
89.94427401306012
1001
GENIUS_GENODEF_13
1002
{
1000
HIER
1070
     0
1002
}
1002
{
1000
MANEDIT
1070
     0
1002
}
1002
{
1000
NOSEL
1070
     0
1002
}
1002
{
1000
BEHIND
1070
     0
1002
}
1002
{
1000
REACTOR
1002
}
1001
GENIUS_GENOBJ-N-FIL_13
1002
{
1000
OWNER
1000
GEN
1002
}
  0
TEXT
  5
19B4
330
1F
100
AcDbEntity
  8
AM_0
100
AcDbText
 10
154.2872753644558
 20
362.0310741708248
 30
0.0
 40
3.0
  1
clccolo
 41
1.5
  7
ｽﾀｲﾙ1
100
AcDbText
  0
TEXT
  5
19B5
330
1F
100
AcDbEntity
  8
AM_0
100
AcDbText
 10
155.3625494618663
 20
365.1881418679147
 30
0.0
 40
3.0
  1
▲
 41
0.5
  7
ｽﾀｲﾙ1
100
AcDbText
  0
TEXT
  5
19B6
330
1F
100
AcDbEntity
  8
AM_0
100
AcDbText
 10
171.2323042310419
 20
361.372324890388
 30
0.0
 40
3.0
  1
▲
 50
180.0
 41
0.5
  7
ｽﾀｲﾙ1
100
AcDbText
  0
POINT
  5
19B8
330
1F
100
AcDbEntity
  8
0
 60
     1
100
AcDbPoint
 10
-5.680665671161364
 20
5.417438333635345
 30
0.0
1001
GENIUS_GENODEF_13
1002
{
1000
HIER
1070
    10
1002
}
1002
{
1000
MANEDIT
1070
     0
1002
}
1002
{
1000
NOSEL
1070
     0
1002
}
1002
{
1000
BEHIND
1070
     0
1002
}
1002
{
1000
REACTOR
1002
}
1001
GENIUS_GENOBJ-N-CRS_13
1002
{
1000
OWNER
1000
GEN
1002
}
1001
GENIUS_GENOENT_13
1002
{
1000
MYREF
1005
19B8
1002
}
1002
{
1000
GRP
1005
0
1002
}
1001
GENIUS_GENOLIS_13
1002
{
1000
ENT
1005
1989
1005
1988
1005
1987
1005
1986
1002
}
  0
CIRCLE
  5
19DB
330
1F
100
AcDbEntity
  8
0
 62
     0
100
AcDbCircle
 10
220.5975040439832
 20
298.0496082312375
 30
0.0
 40
9.0
  0
LINE
  5
19DC
330
1F
100
AcDbEntity
  8
0
 62
     0
100
AcDbLine
 10
211.5975040439832
 20
304.0496082312375
 30
0.0
 11
211.5975040439832
 21
292.0496082312375
 31
0.0
  0
LINE
  5
19DD
330
1F
100
AcDbEntity
  8
0
 62
     0
100
AcDbLine
 10
229.5975040439832
 20
304.0496082312375
 30
0.0
 11
229.5975040439832
 21
292.0496082312375
 31
0.0
  0
ARC
  5
19DE
330
1F
100
AcDbEntity
  8
0
 62
     0
100
AcDbCircle
 10
211.5975040439832
 20
310.0496082312375
 30
0.0
 40
6.0
100
AcDbArc
 50
270.0
 51
306.8698976458435
  0
ARC
  5
19DF
330
1F
100
AcDbEntity
  8
0
 62
     0
100
AcDbCircle
 10
211.5975040439832
 20
286.0496082312375
 30
0.0
 40
6.0
100
AcDbArc
 50
53.13010235415646
 51
90.0
  0
LINE
  5
19E0
330
1F
100
AcDbEntity
  8
0
 62
     0
100
AcDbLine
 10
229.5975040439832
 20
304.0496082312375
 30
0.0
 11
229.5975040439832
 21
304.0496082312375
 31
0.0
  0
ARC
  5
19E1
330
1F
100
AcDbEntity
  8
0
 62
     0
100
AcDbCircle
 10
229.5975040439832
 20
310.0496082312375
 30
0.0
 40
6.0
100
AcDbArc
 50
233.1301023541565
 51
270.0
  0
ARC
  5
19E2
330
1F
100
AcDbEntity
  8
0
 62
     0
100
AcDbCircle
 10
229.5975040439832
 20
286.0496082312375
 30
0.0
 40
6.0
100
AcDbArc
 50
90.0
 51
126.8698976458435
  0
LINE
  5
19FA
330
1F
100
AcDbEntity
  8
AM_7
100
AcDbLine
 10
220.5975040439832
 20
344.4719025598209
 30
0.0
 11
220.5975040439832
 21
286.4001202068715
 31
0.0
1001
GENIUS_GENODEF_13
1002
{
1000
HIER
1070
     0
1002
}
1002
{
1000
MANEDIT
1070
     0
1002
}
1002
{
1000
NOSEL
1070
     0
1002
}
1002
{
1000
BEHIND
1070
     0
1002
}
1002
{
1000
OTHER
1070
     0
1002
}
1002
{
1000
REACTOR
1002
}
1001
GENIUS_GENOBJ-N-CEN_13
1002
{
1000
OWNER
1000
GEN
1002
}
1001
GENIUS_GENCEN_19
1002
{
1040
1.397
1002
}
  0
LINE
  5
19FB
330
1F
100
AcDbEntity
  8
AM_7
100
AcDbLine
 10
210.2005040439832
 20
298.0496082312375
 30
0.0
 11
230.9945040439832
 21
298.0496082312375
 31
0.0
1001
GENIUS_GENOBJ-N-CEN_13
1002
{
1000
OWNER
1000
GEN
1002
}
1001
GENIUS_GENODEF_13
1002
{
1000
HIER
1070
     0
1002
}
1002
{
1000
MANEDIT
1070
     0
1002
}
1002
{
1000
NOSEL
1070
     0
1002
}
1002
{
1000
BEHIND
1070
     0
1002
}
1002
{
1000
OTHER
1070
     0
1002
}
1002
{
1000
REACTOR
1002
}
1001
GENIUS_GENCEN_19
1002
{
1040
1.397
1002
}
  0
CIRCLE
  5
1A08
330
1F
100
AcDbEntity
  8
AM_0
100
AcDbCircle
 10
220.5975040439832
 20
298.0496082312375
 30
0.0
 40
8.476312499999323
  0
CIRCLE
  5
1A0A
330
1F
100
AcDbEntity
  8
AM_0
100
AcDbCircle
 10
220.5975040439832
 20
298.0496082312375
 30
0.0
 40
6.999999999999943
  0
CIRCLE
  5
1A0B
330
1F
100
AcDbEntity
  8
AM_0
100
AcDbCircle
 10
220.5975040439832
 20
298.0496082312375
 30
0.0
 40
5.499999999998408
  0
CIRCLE
  5
1A0C
330
1F
100
AcDbEntity
  8
AM_0
100
AcDbCircle
 10
220.5975040439832
 20
298.0496082312375
 30
0.0
 40
4.999999999998863
  0
ARC
  5
1A11
330
1F
100
AcDbEntity
  8
AM_0
100
AcDbCircle
 10
220.5860459884186
 20
296.2549798098785
 30
0.0
 40
2.488667736418961
100
AcDbArc
 50
89.73620401989908
 51
269.4239204168454
  0
ARC
  5
1A12
330
1F
100
AcDbEntity
  8
AM_0
100
AcDbCircle
 10
220.6096979624311
 20
296.2546295704675
 30
0.0
 40
2.488667736418961
100
AcDbArc
 50
268.879327042681
 51
88.56704343962539
  0
LINE
  5
200D
330
1F
100
AcDbEntity
  8
0
 62
     0
100
AcDbLine
 10
169.6792760592973
 20
313.4508667698904
 30
0.0
 11
170.2207760592997
 21
313.4508667698538
 31
0.0
  0
LINE
  5
200F
330
1F
100
AcDbEntity
  8
0
 62
     0
100
AcDbLine
 10
163.2207760592689
 20
322.5496082314497
 30
0.0
 11
154.7207760600818
 21
322.5496082314496
 31
0.0
  0
ARC
  5
2015
330
1F
100
AcDbEntity
  8
0
 62
     0
100
AcDbCircle
 10
156.7207760598906
 20
312.0074910979277
 30
0.0
 40
0.9999999999043879
100
AcDbArc
 50
0.0
 51
59.99999999999946
  0
LINE
  5
2018
330
1F
100
AcDbEntity
  8
0
 62
     0
100
AcDbLine
 10
169.2207760592953
 20
312.8735165006616
 30
0.0
 11
170.2207760592997
 21
313.4508667698538
 31
0.0
  0
ARC
  5
201C
330
1F
100
AcDbEntity
  8
0
 62
     0
100
AcDbCircle
 10
169.7207760592975
 20
312.0074910968734
 30
0.0
 40
1.000000000004388
100
AcDbArc
 50
120.0000000000005
 51
180.0
  0
LINE
  5
2020
330
1F
100
AcDbEntity
  8
AM_4
100
AcDbLine
 10
169.6792760592974
 20
314.5496082314144
 30
0.0
 11
169.6792760592974
 21
313.138231599086
 31
0.0
  0
LINE
  5
2021
330
1F
100
AcDbEntity
  8
0
 62
     0
100
AcDbLine
 10
170.2207760592998
 20
314.5496082314145
 30
0.0
 11
170.2207760592998
 21
313.4508667698535
 31
0.0
  0
LINE
  5
2022
330
1F
100
AcDbEntity
  8
0
 62
     0
100
AcDbLine
 10
169.6792760592975
 20
313.4508667698901
 30
0.0
 11
170.2207760592998
 21
313.4508667698535
 31
0.0
  0
LINE
  5
2023
330
1F
100
AcDbEntity
  8
AM_0
100
AcDbLine
 10
169.6792760592975
 20
313.4508667698901
 30
0.0
 11
163.2207760592689
 21
313.450866770327
 31
0.0
  0
LINE
  5
2031
330
1F
100
AcDbEntity
  8
0
 62
     0
100
AcDbLine
 10
156.762276059611
 20
313.4508667707643
 30
0.0
 11
156.2207760596086
 21
313.4508667708009
 31
0.0
  0
LINE
  5
2032
330
1F
100
AcDbEntity
  8
AM_4
100
AcDbLine
 10
156.7622760597595
 20
314.5496082322883
 30
0.0
 11
156.7622760595685
 21
313.1382315999598
 31
0.0
  0
LINE
  5
2033
330
1F
100
AcDbEntity
  8
0
 62
     0
100
AcDbLine
 10
156.2207760597572
 20
314.5496082323616
 30
0.0
 11
156.2207760596085
 21
313.4508667708006
 31
0.0
  0
LINE
  5
2034
330
1F
100
AcDbEntity
  8
0
 62
     0
100
AcDbLine
 10
156.7622760596108
 20
313.4508667707641
 30
0.0
 11
156.2207760596085
 21
313.4508667708006
 31
0.0
  0
LINE
  5
2035
330
1F
100
AcDbEntity
  8
AM_0
100
AcDbLine
 10
156.7622760596108
 20
313.4508667707641
 30
0.0
 11
163.2207760596394
 21
313.450866770327
 31
0.0
  0
LINE
  5
2036
330
1F
100
AcDbEntity
  8
0
 62
     0
100
AcDbLine
 10
157.2207760587347
 20
312.8735165014735
 30
0.0
 11
156.2207760588084
 21
313.4508667708011
 31
0.0
  0
LINE
  5
2037
330
1F
100
AcDbEntity
  8
AM_0
100
AcDbLine
 10
157.720776059795
 20
312.0074910978985
 30
0.0
 11
168.7207760592931
 21
312.0074910968734
 31
0.0
  0
LINE
  5
204B
330
1F
100
AcDbEntity
  8
AM_0
100
AcDbLine
 10
165.7207760592688
 20
328.1809146826001
 30
0.0
 11
166.2207760592688
 21
327.6809146826001
 31
0.0
1001
GENIUS_GENFIL_13
1070
     0
1040
0.5
1040
0.5
1040
0.5
1040
45.0000000000002
1000
~T
1001
GENIUS_GENOREF_13
1005
204C
  0
POINT
  5
204C
330
1F
100
AcDbEntity
  8
0
 60
     1
100
AcDbPoint
 10
-121.6603228185847
 20
88.69209745007742
 30
0.0
 50
0.000000000000007
1001
GENIUS_GENOENT_13
1002
{
1000
MYREF
1005
204C
1002
}
1002
{
1000
GRP
1005
0
1002
}
1001
GENIUS_GENOBJ-N-CHA_13
1002
{
1000
OWNER
1000
GEN
1002
}
1001
GENIUS_GENODEF_13
1002
{
1000
HIER
1070
     1
1002
}
1002
{
1000
MANEDIT
1070
     0
1002
}
1002
{
1000
NOSEL
1070
     0
1002
}
1002
{
1000
BEHIND
1070
     0
1002
}
1002
{
1000
OTHER
1070
     0
1002
}
1002
{
1000
REACTOR
1002
}
1001
GENIUS_GENOLIS_13
1002
{
1000
ENT
1005
204B
1002
}
  0
LINE
  5
204D
330
1F
100
AcDbEntity
  8
AM_0
100
AcDbLine
 10
177.2207760592682
 20
307.0496082312368
 30
0.0
 11
177.2207760592692
 21
289.5732957312368
 31
0.0
  0
LINE
  5
20A3
330
1F
100
AcDbEntity
  8
0
 62
     0
100
AcDbLine
 10
163.5774222533939
 20
301.247093661796
 30
0.0
 11
164.8224374406652
 21
297.4153309163979
 31
0.0
  0
LINE
  5
20A4
330
1F
100
AcDbEntity
  8
0
 62
     0
100
AcDbLine
 10
162.8641298662439
 20
301.247093661796
 30
0.0
 11
161.6191146789726
 21
297.4153309163979
 31
0.0
  0
LINE
  5
20A5
330
1F
100
AcDbEntity
  8
0
 62
     0
100
AcDbLine
 10
162.5311340046335
 20
296.9170715028385
 30
0.0
 11
163.9104181150043
 21
296.9170715028385
 31
0.0
  0
ARC
  5
20A6
330
1F
100
AcDbEntity
  8
0
 62
     0
100
AcDbCircle
 10
163.2207760598189
 20
293.0920715032211
 30
0.0
 40
2.999999999699999
100
AcDbArc
 50
55.822409278222
 51
124.177590721778
  0
ARC
  5
20A7
330
1F
100
AcDbEntity
  8
0
 62
     0
100
AcDbCircle
 10
163.2207760598189
 20
299.1895715026112
 30
0.0
 40
0.149999999985
100
AcDbArc
 50
17.99999999999898
 51
162.000000000001
  0
ARC
  5
20A8
330
1F
100
AcDbEntity
  8
0
 62
     0
100
AcDbCircle
 10
161.084485574848
 20
296.7812122893519
 30
0.0
 40
0.3749999999625
100
AcDbArc
 50
90.0
 51
195.0000000000011
  0
LINE
  5
20A9
330
1F
100
AcDbEntity
  8
0
 62
     0
100
AcDbLine
 10
160.7222633900258
 20
296.6841551474482
 30
0.0
 11
160.9626143791373
 21
295.787153044435
 31
0.0
  0
LINE
  5
20AA
330
1F
100
AcDbEntity
  8
0
 62
     0
100
AcDbLine
 10
160.9626143791373
 20
295.787153044435
 30
0.0
 11
160.7222633900258
 21
296.6841551474482
 31
0.0
  0
LINE
  5
20AB
330
1F
100
AcDbEntity
  8
0
 62
     0
100
AcDbLine
 10
161.2624684853976
 20
297.1562122893144
 30
0.0
 11
161.084485574848
 21
297.1562122893144
 31
0.0
  0
ARC
  5
20AC
330
1F
100
AcDbEntity
  8
0
 62
     0
100
AcDbCircle
 10
161.3248365639594
 20
295.8842101863387
 30
0.0
 40
0.3749999999625
100
AcDbArc
 50
194.999999999998
 51
304.1775907217779
  0
ARC
  5
20AD
330
1F
100
AcDbEntity
  8
0
 62
     0
100
AcDbCircle
 10
162.5311340046335
 20
297.0670715028235
 30
0.0
 40
0.149999999985
100
AcDbArc
 50
162.000000000001
 51
270.0
  0
LINE
  5
20AE
330
1F
100
AcDbEntity
  8
0
 62
     0
100
AcDbLine
 10
161.084485574848
 20
297.1562122893145
 30
0.0
 11
161.2624684853976
 21
297.1562122893145
 31
0.0
  0
ARC
  5
20AF
330
1F
100
AcDbEntity
  8
0
 62
     0
100
AcDbCircle
 10
161.2624684853976
 20
297.531212289277
 30
0.0
 40
0.3749999999625
100
AcDbArc
 50
270.0
 51
342.000000000001
  0
LINE
  5
20B0
330
1F
100
AcDbEntity
  8
0
 62
     0
100
AcDbLine
 10
160.9626143791372
 20
295.787153044435
 30
0.0
 11
160.7222633900258
 21
296.6841551474482
 31
0.0
  0
ARC
  5
20B1
330
1F
100
AcDbEntity
  8
0
 62
     0
100
AcDbCircle
 10
161.084485574848
 20
296.781212289352
 30
0.0
 40
0.3749999999625
100
AcDbArc
 50
90.0
 51
195.0000000000011
  0
LINE
  5
20B2
330
1F
100
AcDbEntity
  8
0
 62
     0
100
AcDbLine
 10
163.0781175823889
 20
299.2359240517629
 30
0.0
 11
162.3884755272035
 21
297.1134240519751
 31
0.0
  0
LINE
  5
20B3
330
1F
100
AcDbEntity
  8
0
 62
     0
100
AcDbLine
 10
163.3634345372489
 20
299.2359240517629
 30
0.0
 11
164.0530765924343
 21
297.1134240519751
 31
0.0
  0
ARC
  5
20B4
330
1F
100
AcDbEntity
  8
0
 62
     0
100
AcDbCircle
 10
165.1167155556785
 20
295.8842101863387
 30
0.0
 40
0.3749999999625
100
AcDbArc
 50
235.822409278222
 51
345.000000000002
  0
ARC
  5
20B5
330
1F
100
AcDbEntity
  8
0
 62
     0
100
AcDbCircle
 10
165.1790836342402
 20
297.5312122892769
 30
0.0
 40
0.3749999999625
100
AcDbArc
 50
197.9999999999989
 51
270.0
  0
ARC
  5
20B6
330
1F
100
AcDbEntity
  8
0
 62
     0
100
AcDbCircle
 10
163.9104181150043
 20
297.0670715028235
 30
0.0
 40
0.149999999985
100
AcDbArc
 50
270.0
 51
17.99999999999898
  0
LINE
  5
20B7
330
1F
100
AcDbEntity
  8
0
 62
     0
100
AcDbLine
 10
165.1790836342402
 20
297.1562122893144
 30
0.0
 11
165.3570665447899
 21
297.1562122893144
 31
0.0
  0
LINE
  5
20B8
330
1F
100
AcDbEntity
  8
0
 62
     0
100
AcDbLine
 10
165.4789377405006
 20
295.787153044435
 30
0.0
 11
165.719288729612
 21
296.6841551474482
 31
0.0
  0
LINE
  5
20B9
330
1F
100
AcDbEntity
  8
0
 62
     0
100
AcDbLine
 10
165.719288729612
 20
296.6841551474482
 30
0.0
 11
165.4789377405006
 21
295.787153044435
 31
0.0
  0
ARC
  5
20BA
330
1F
100
AcDbEntity
  8
0
 62
     0
100
AcDbCircle
 10
165.3570665447899
 20
296.7812122893519
 30
0.0
 40
0.3749999999625
100
AcDbArc
 50
344.9999999999989
 51
90.0
  0
ARC
  5
20BB
330
1F
100
AcDbEntity
  8
0
 62
     0
100
AcDbCircle
 10
163.2207760598189
 20
301.131212288917
 30
0.0
 40
0.3749999999625
100
AcDbArc
 50
17.99999999999898
 51
162.000000000001
  0
LINE
  5
2157
330
1F
100
AcDbEntity
  8
0
 62
     0
100
AcDbLine
 10
227.0560040440116
 20
313.4508667698908
 30
0.0
 11
227.5975040440139
 21
313.4508667698542
 31
0.0
  0
ARC
  5
215C
330
1F
100
AcDbEntity
  8
0
 62
     0
100
AcDbCircle
 10
214.0975040446049
 20
312.007491097928
 30
0.0
 40
0.9999999999043879
100
AcDbArc
 50
0.0
 51
59.99999999999947
  0
LINE
  5
215D
330
1F
100
AcDbEntity
  8
0
 62
     0
100
AcDbLine
 10
226.5975040440096
 20
312.873516500662
 30
0.0
 11
227.5975040440139
 21
313.4508667698542
 31
0.0
  0
ARC
  5
2160
330
1F
100
AcDbEntity
  8
0
 62
     0
100
AcDbCircle
 10
227.0975040440118
 20
312.0074910968737
 30
0.0
 40
1.000000000004388
100
AcDbArc
 50
120.0000000000005
 51
180.0
  0
LINE
  5
2162
330
1F
100
AcDbEntity
  8
AM_0
100
AcDbLine
 10
217.5975040439833
 20
327.6809146826007
 30
0.0
 11
217.5975040439834
 21
322.54960823145
 31
0.0
  0
LINE
  5
2163
330
1F
100
AcDbEntity
  8
AM_0
100
AcDbLine
 10
223.5975040439833
 20
327.6809146826007
 30
0.0
 11
223.5975040439833
 21
322.54960823145
 31
0.0
  0
LINE
  5
216F
330
1F
100
AcDbEntity
  8
AM_0
100
AcDbLine
 10
218.0975040439832
 20
328.1809146826008
 30
0.0
 11
217.5975040439833
 21
327.6809146826007
 31
0.0
1001
GENIUS_GENFIL_13
1070
     0
1040
0.5
1040
0.5
1040
0.5
1040
45.0000000000002
1000
~T
1001
GENIUS_GENOREF_13
1005
21A1
  0
LINE
  5
2170
330
1F
100
AcDbEntity
  8
AM_0
100
AcDbLine
 10
217.5975040439833
 20
327.6809146826007
 30
0.0
 11
223.5975040439833
 21
327.6809146826007
 31
0.0
  0
LINE
  5
2178
330
1F
100
AcDbEntity
  8
AM_0
100
AcDbLine
 10
223.0975040439845
 20
328.1809146826009
 30
0.0
 11
223.5975040439845
 21
327.680914682601
 31
0.0
1001
GENIUS_GENFIL_13
1070
     0
1040
0.5
1040
0.5
1040
0.5
1040
45.0000000000002
1000
~T
1001
GENIUS_GENOREF_13
1005
21A0
  0
LINE
  5
2179
330
1F
100
AcDbEntity
  8
AM_0
100
AcDbLine
 10
223.5975040439845
 20
327.680914682601
 30
0.0
 11
217.5975040439844
 21
327.6809146826005
 31
0.0
  0
LINE
  5
217A
330
1F
100
AcDbEntity
  8
AM_4
100
AcDbLine
 10
227.0560040440118
 20
314.5496082314148
 30
0.0
 11
227.0560040440118
 21
313.1382315990864
 31
0.0
  0
LINE
  5
217B
330
1F
100
AcDbEntity
  8
0
 62
     0
100
AcDbLine
 10
227.5975040440141
 20
314.5496082314148
 30
0.0
 11
227.5975040440141
 21
313.4508667698539
 31
0.0
  0
LINE
  5
217C
330
1F
100
AcDbEntity
  8
0
 62
     0
100
AcDbLine
 10
227.0560040440118
 20
313.4508667698905
 30
0.0
 11
227.5975040440141
 21
313.4508667698539
 31
0.0
  0
LINE
  5
217D
330
1F
100
AcDbEntity
  8
AM_0
100
AcDbLine
 10
227.0560040440118
 20
313.4508667698905
 30
0.0
 11
220.5975040439833
 21
313.4508667703274
 31
0.0
  0
LINE
  5
217F
330
1F
100
AcDbEntity
  8
0
 62
     0
100
AcDbLine
 10
214.1390040443253
 20
313.4508667707647
 30
0.0
 11
213.597504044323
 21
313.4508667708013
 31
0.0
  0
LINE
  5
2180
330
1F
100
AcDbEntity
  8
AM_4
100
AcDbLine
 10
214.1390040444739
 20
314.5496082322887
 30
0.0
 11
214.1390040442828
 21
313.1382315999602
 31
0.0
  0
LINE
  5
2181
330
1F
100
AcDbEntity
  8
0
 62
     0
100
AcDbLine
 10
213.5975040444715
 20
314.5496082323619
 30
0.0
 11
213.5975040443228
 21
313.450866770801
 31
0.0
  0
LINE
  5
2182
330
1F
100
AcDbEntity
  8
0
 62
     0
100
AcDbLine
 10
214.1390040443252
 20
313.4508667707644
 30
0.0
 11
213.5975040443228
 21
313.450866770801
 31
0.0
  0
LINE
  5
2183
330
1F
100
AcDbEntity
  8
AM_0
100
AcDbLine
 10
214.1390040443252
 20
313.4508667707644
 30
0.0
 11
220.5975040443536
 21
313.4508667703274
 31
0.0
  0
LINE
  5
2184
330
1F
100
AcDbEntity
  8
0
 62
     0
100
AcDbLine
 10
214.597504043449
 20
312.8735165014739
 30
0.0
 11
213.5975040435227
 21
313.4508667708014
 31
0.0
  0
LINE
  5
2185
330
1F
100
AcDbEntity
  8
AM_0
100
AcDbLine
 10
215.0975040445093
 20
312.0074910978989
 30
0.0
 11
226.0975040440074
 21
312.0074910968737
 31
0.0
  0
POINT
  5
21A0
330
1F
100
AcDbEntity
  8
0
 60
     1
100
AcDbPoint
 10
-79.09326625842993
 20
96.08909745006251
 30
0.0
 50
180.0000000000031
1001
GENIUS_GENOENT_13
1002
{
1000
MYREF
1005
21A0
1002
}
1002
{
1000
GRP
1005
0
1002
}
1001
GENIUS_GENOBJ-N-CHA_13
1002
{
1000
OWNER
1000
GEN
1002
}
1001
GENIUS_GENODEF_13
1002
{
1000
HIER
1070
     1
1002
}
1002
{
1000
MANEDIT
1070
     0
1002
}
1002
{
1000
NOSEL
1070
     0
1002
}
1002
{
1000
BEHIND
1070
     0
1002
}
1002
{
1000
OTHER
1070
     0
1002
}
1002
{
1000
REACTOR
1002
}
1001
GENIUS_GENOLIS_13
1002
{
1000
ENT
1005
2178
1002
}
  0
POINT
  5
21A1
330
1F
100
AcDbEntity
  8
0
 60
     1
100
AcDbPoint
 10
490.6689314972626
 20
96.08909745007807
 30
0.0
1001
GENIUS_GENOENT_13
1002
{
1000
MYREF
1005
21A1
1002
}
1002
{
1000
GRP
1005
0
1002
}
1001
GENIUS_GENOBJ-N-CHA_13
1002
{
1000
OWNER
1000
GEN
1002
}
1001
GENIUS_GENODEF_13
1002
{
1000
HIER
1070
     1
1002
}
1002
{
1000
MANEDIT
1070
     0
1002
}
1002
{
1000
NOSEL
1070
     0
1002
}
1002
{
1000
BEHIND
1070
     0
1002
}
1002
{
1000
OTHER
1070
     0
1002
}
1002
{
1000
REACTOR
1002
}
1001
GENIUS_GENOLIS_13
1002
{
1000
ENT
1005
216F
1002
}
  0
LINE
  5
21A2
330
1F
100
AcDbEntity
  8
AM_0
100
AcDbLine
 10
226.0975040440074
 20
312.0074910968734
 30
0.0
 11
226.0975040440074
 21
305.1762110588156
 31
0.0
  0
LINE
  5
21A3
330
1F
100
AcDbEntity
  8
AM_0
100
AcDbLine
 10
215.0975040439591
 20
312.0074910968734
 30
0.0
 11
215.0975040439591
 21
305.1762110588156
 31
0.0
  0
MTEXT
  5
21B1
330
1F
100
AcDbEntity
  8
AM_0
100
AcDbMText
 10
203.4926563686067
 20
363.6510509735469
 30
0.0
 40
1.6
 41
32.31955848564906
 71
     1
 72
     5
  1
{\fMS PGothic|b0|i0|c128|p50;チッコロ　ストレート　CH-1309}
 73
     1
 44
1.0
1001
ACAD
1000
ACAD_MTEXT_COLUMN_INFO_BEGIN
1070
    75
1070
     2
1070
    79
1070
     0
1070
    76
1070
     1
1070
    78
1070
     0
1070
    48
1040
32.31955848564906
1070
    49
1040
8.0
1070
    50
1070
     1
1040
0.0
1000
ACAD_MTEXT_COLUMN_INFO_END
1000
MTEXTBEGIN
1070
    73
1070
     1
1070
    44
1040
1.0
1070
    74
1070
     0
1000
MTEXTEND
  0
LINE
  5
237B
330
1F
100
AcDbEntity
  8
AM_0
100
AcDbLine
 10
149.2207760592689
 20
290.6051637867902
 30
0.0
 11
149.2207760592688
 21
298.0496082312366
 31
0.0
1001
GENIUS_GENOREF_13
1005
23B5
  0
LINE
  5
2381
330
1F
100
AcDbEntity
  8
AM_0
100
AcDbLine
 10
149.2207760592689
 20
305.549608231235
 30
0.0
 11
150.720776059269
 21
305.5496082312349
 31
0.0
  0
LINE
  5
2382
330
1F
100
AcDbEntity
  8
AM_0
100
AcDbLine
 10
150.7207760592692
 20
298.0496082312367
 30
0.0
 11
150.720776059269
 21
307.494052675679
 31
0.0
  0
LINE
  5
2383
330
1F
100
AcDbEntity
  8
AM_0
100
AcDbLine
 10
149.2207760592689
 20
290.6051637867902
 30
0.0
 11
150.720776059269
 21
290.6051637867901
 31
0.0
  0
LINE
  5
2384
330
1F
100
AcDbEntity
  8
AM_0
100
AcDbLine
 10
150.7207760592691
 20
298.0496082312367
 30
0.0
 11
150.7207760592689
 21
289.0496082312346
 31
0.0
  0
LINE
  5
2385
330
1F
100
AcDbEntity
  8
AM_0
100
AcDbLine
 10
145.2207760592689
 20
302.5496082312351
 30
0.0
 11
149.2207760592689
 21
302.5496082312351
 31
0.0
  0
LINE
  5
2386
330
1F
100
AcDbEntity
  8
AM_0
100
AcDbLine
 10
141.2207760592689
 20
301.8996082312349
 30
0.0
 11
145.2207760592689
 21
302.5496082312351
 31
0.0
  0
ARC
  5
2387
330
1F
100
AcDbEntity
  8
AM_0
100
AcDbCircle
 10
125.7207760592689
 20
301.4742996832861
 30
0.0
 40
0.5
100
AcDbArc
 50
99.22988624373084
 51
180.0
1001
GENIUS_GENODEF_13
1002
{
1000
HIER
1070
     0
1002
}
1002
{
1000
MANEDIT
1070
     0
1002
}
1002
{
1000
NOSEL
1070
     0
1002
}
1002
{
1000
BEHIND
1070
     0
1002
}
1002
{
1000
REACTOR
1002
}
1001
GENIUS_GENOBJ-N-FIL_13
1002
{
1000
OWNER
1000
GEN
1002
}
  0
LINE
  5
2388
330
1F
100
AcDbEntity
  8
AM_0
100
AcDbLine
 10
129.2207760592689
 20
301.8996082312349
 30
0.0
 11
133.2207760592689
 21
302.5496082312351
 31
0.0
  0
LINE
  5
2389
330
1F
100
AcDbEntity
  8
AM_0
100
AcDbLine
 10
125.6405780245807
 20
301.9678260505981
 30
0.0
 11
129.2207760592689
 21
302.5496082312351
 31
0.0
  0
LINE
  5
238A
330
1F
100
AcDbEntity
  8
AM_0
100
AcDbLine
 10
129.2207760592689
 20
302.5496082312351
 30
0.0
 11
129.2207760592689
 21
298.0496082312362
 31
0.0
  0
LINE
  5
238B
330
1F
100
AcDbEntity
  8
AM_0
100
AcDbLine
 10
137.2207760592689
 20
301.8996082312349
 30
0.0
 11
141.2207760592689
 21
302.5496082312351
 31
0.0
  0
LINE
  5
238C
330
1F
100
AcDbEntity
  8
AM_0
100
AcDbLine
 10
133.2207760592689
 20
301.8996082312349
 30
0.0
 11
137.2207760592689
 21
302.5496082312351
 31
0.0
  0
LINE
  5
238D
330
1F
100
AcDbEntity
  8
AM_0
100
AcDbLine
 10
133.2207760592689
 20
302.5496082312351
 30
0.0
 11
133.2207760592689
 21
298.0496082312363
 31
0.0
  0
LINE
  5
238E
330
1F
100
AcDbEntity
  8
AM_0
100
AcDbLine
 10
137.2207760592689
 20
302.5496082312351
 30
0.0
 11
137.2207760592689
 21
298.0496082312364
 31
0.0
  0
LINE
  5
238F
330
1F
100
AcDbEntity
  8
AM_0
100
AcDbLine
 10
141.2207760592689
 20
302.5496082312351
 30
0.0
 11
141.2207760592689
 21
298.0496082312365
 31
0.0
  0
LINE
  5
2390
330
1F
100
AcDbEntity
  8
AM_0
100
AcDbLine
 10
125.2207760592689
 20
301.4742996832861
 30
0.0
 11
125.2207760592689
 21
298.0496082312349
 31
0.0
  0
LINE
  5
23A1
330
1F
100
AcDbEntity
  8
AM_0
100
AcDbLine
 10
133.2207760592689
 20
294.1996082312349
 30
0.0
 11
137.2207760592689
 21
293.5496082312347
 31
0.0
  0
LINE
  5
23A2
330
1F
100
AcDbEntity
  8
AM_0
100
AcDbLine
 10
129.2207760592689
 20
294.1996082312349
 30
0.0
 11
133.2207760592689
 21
293.5496082312347
 31
0.0
  0
LINE
  5
23A3
330
1F
100
AcDbEntity
  8
AM_0
100
AcDbLine
 10
133.2207760592689
 20
293.5496082312347
 30
0.0
 11
133.2207760592689
 21
298.0496082312363
 31
0.0
  0
LINE
  5
23A4
330
1F
100
AcDbEntity
  8
AM_0
100
AcDbLine
 10
141.2207760592689
 20
294.1996082312349
 30
0.0
 11
145.2207760592689
 21
293.5496082312347
 31
0.0
  0
LINE
  5
23A5
330
1F
100
AcDbEntity
  8
AM_0
100
AcDbLine
 10
137.2207760592689
 20
294.1996082312349
 30
0.0
 11
141.2207760592689
 21
293.5496082312347
 31
0.0
  0
LINE
  5
23A6
330
1F
100
AcDbEntity
  8
AM_0
100
AcDbLine
 10
137.2207760592689
 20
293.5496082312347
 30
0.0
 11
137.2207760592689
 21
298.0496082312364
 31
0.0
  0
LINE
  5
23A7
330
1F
100
AcDbEntity
  8
AM_0
100
AcDbLine
 10
141.2207760592689
 20
293.5496082312347
 30
0.0
 11
141.2207760592689
 21
298.0496082312365
 31
0.0
  0
LINE
  5
23A8
330
1F
100
AcDbEntity
  8
AM_0
100
AcDbLine
 10
145.2207760592689
 20
293.5496082312347
 30
0.0
 11
149.2207760592689
 21
293.5496082312347
 31
0.0
  0
LINE
  5
23A9
330
1F
100
AcDbEntity
  8
AM_0
100
AcDbLine
 10
125.6405780245807
 20
294.1313904118717
 30
0.0
 11
129.2207760592689
 21
293.5496082312347
 31
0.0
  0
LINE
  5
23AA
330
1F
100
AcDbEntity
  8
AM_0
100
AcDbLine
 10
125.2207760592689
 20
294.6249167791837
 30
0.0
 11
125.2207760592689
 21
298.0496082312349
 31
0.0
  0
ARC
  5
23AB
330
1F
100
AcDbEntity
  8
AM_0
100
AcDbCircle
 10
125.7207760592689
 20
294.6249167791837
 30
0.0
 40
0.5
100
AcDbArc
 50
180.0
 51
260.7701137562691
1001
GENIUS_GENODEF_13
1002
{
1000
HIER
1070
     0
1002
}
1002
{
1000
MANEDIT
1070
     0
1002
}
1002
{
1000
NOSEL
1070
     0
1002
}
1002
{
1000
BEHIND
1070
     0
1002
}
1002
{
1000
REACTOR
1002
}
1001
GENIUS_GENOBJ-N-FIL_13
1002
{
1000
OWNER
1000
GEN
1002
}
  0
LINE
  5
23AC
330
1F
100
AcDbEntity
  8
AM_0
100
AcDbLine
 10
129.2207760592689
 20
293.5496082312347
 30
0.0
 11
129.2207760592689
 21
298.0496082312362
 31
0.0
  0
LINE
  5
23AD
330
1F
100
AcDbEntity
  8
AM_0
100
AcDbLine
 10
149.2207760592689
 20
298.0496082312366
 30
0.0
 11
149.2207760592689
 21
305.5496082312349
 31
0.0
1001
GENIUS_GENOREF_13
1005
23B5
  0
POINT
  5
23B5
102
{ACAD_XDICTIONARY
360
23B6
102
}
330
1F
100
AcDbEntity
  8
0
 60
     1
100
AcDbPoint
 10
-2.992831131296441
 20
-0.0277777777791357
 30
0.0
1001
GENIUS_GENOBJ-F-SHS_13
1002
{
1000
OWNER
1000
GEF
1002
}
1001
GENIUS_GENOENT_13
1002
{
1000
MYREF
1005
23B5
1002
}
1002
{
1000
GRP
1005
0
1002
}
1001
GENIUS_GENOLIS_13
1002
{
1000
ENT
1005
2380
1005
237F
1005
237E
1005
237D
1005
237C
1005
237B
1005
237A
1005
2379
1005
2378
1005
2377
1005
2376
1005
2375
1002
}
1001
GENIUS_GEFSH_13
1002
{
1000
DIFF
1040
0.0
1002
}
1002
{
1000
V15
1070
     1
1002
}
1002
{
1000
INSR
1002
{
1002
}
1002
}
1002
{
1000
SVIEW
1000
~T
1002
}
1002
{
1000
CUT
1000
~T
1002
}
1002
{
1000
FLIP
1002
{
1002
}
1002
}
1002
{
1000
VGR
1000
/AMSTD/JIS/FEAT/SHFT/ISHFTSGMNT/JI1624/F
1002
}
1002
{
1000
VIEW
1000
V
1002
}
1002
{
1000
D
1040
9.0
1002
}
1002
{
1000
TYPE
1000
EXTERN
1002
}
1002
{
1000
GD
1005
0
1002
{
1002
}
1002
{
1002
}
1000
JIS B 0207 M9 x 1
1070
     0
1040
6.0
1002
}
1001
GENIUS_GENODEF_13
1002
{
1000
HIER
1070
   300
1002
}
1002
{
1000
MANEDIT
1070
     1
1002
}
1002
{
1000
NOSEL
1070
     0
1002
}
1002
{
1000
BEHIND
1070
     0
1002
}
1002
{
1000
REACTOR
1002
}
  0
LINE
  5
23FC
330
1F
100
AcDbEntity
  8
AM_0
100
AcDbLine
 10
145.2207760592689
 20
302.5496082312351
 30
0.0
 11
145.2207760592689
 21
293.5496082312347
 31
0.0
  0
LINE
  5
2460
330
1F
100
AcDbEntity
  8
AM_0
100
AcDbLine
 10
220.5975040439832
 20
287.5496082312375
 30
0.0
 11
217.0975040439832
 21
287.5496082312375
 31
0.0
  0
ARC
  5
2461
330
1F
100
AcDbEntity
  8
AM_0
100
AcDbCircle
 10
217.0975040439832
 20
288.0496082312376
 30
0.0
 40
0.5
100
AcDbArc
 50
180.0
 51
270.0
1001
GENIUS_GENODEF_13
1002
{
1000
HIER
1070
     0
1002
}
1002
{
1000
MANEDIT
1070
     0
1002
}
1002
{
1000
NOSEL
1070
     0
1002
}
1002
{
1000
BEHIND
1070
     0
1002
}
1002
{
1000
REACTOR
1002
}
1001
GENIUS_GENOBJ-N-FIL_13
1002
{
1000
OWNER
1000
GEN
1002
}
  0
LINE
  5
2462
330
1F
100
AcDbEntity
  8
AM_0
100
AcDbLine
 10
220.5975040439832
 20
287.5496082312375
 30
0.0
 11
224.0975040439832
 21
287.5496082312375
 31
0.0
  0
LINE
  5
2463
330
1F
100
AcDbEntity
  8
AM_0
100
AcDbLine
 10
224.5975040439832
 20
288.0496082312374
 30
0.0
 11
224.5975040439832
 21
289.9873504829389
 31
0.0
  0
ARC
  5
2464
330
1F
100
AcDbEntity
  8
AM_0
100
AcDbCircle
 10
224.0975040439831
 20
288.0496082312374
 30
0.0
 40
0.5
100
AcDbArc
 50
270.0
 51
0.0
1001
GENIUS_GENODEF_13
1002
{
1000
HIER
1070
     0
1002
}
1002
{
1000
MANEDIT
1070
     0
1002
}
1002
{
1000
NOSEL
1070
     0
1002
}
1002
{
1000
BEHIND
1070
     0
1002
}
1002
{
1000
REACTOR
1002
}
1001
GENIUS_GENOBJ-N-FIL_13
1002
{
1000
OWNER
1000
GEN
1002
}
  0
LINE
  5
2465
330
1F
100
AcDbEntity
  8
AM_0
100
AcDbLine
 10
216.5975040439833
 20
288.0496082312374
 30
0.0
 11
216.5975040439833
 21
289.9873504829389
 31
0.0
  0
ARC
  5
253A
330
1F
100
AcDbEntity
  8
0
 62
     0
100
AcDbCircle
 10
168.7207760592636
 20
303.5999020165358
 30
0.0
 40
1.889572893129809
100
AcDbArc
 50
90.0
 51
180.0
  0
LINE
  5
253B
330
1F
100
AcDbEntity
  8
0
 62
     0
100
AcDbLine
 10
159.6103489524045
 20
303.5999020165358
 30
0.0
 11
159.6103489524044
 21
292.4355842905815
 31
0.0
  0
ARC
  5
253C
330
1F
100
AcDbEntity
  8
0
 62
     0
100
AcDbCircle
 10
157.7207760592747
 20
292.4355842905816
 30
0.0
 40
1.889572893129809
100
AcDbArc
 50
310.2249957735891
 51
0.0
  0
ARC
  5
253D
330
1F
100
AcDbEntity
  8
0
 62
     0
100
AcDbCircle
 10
157.7207760592747
 20
303.5999020165358
 30
0.0
 40
1.889572893129809
100
AcDbArc
 50
0.0
 51
90.0
  0
LINE
  5
253E
330
1F
100
AcDbEntity
  8
0
 62
     0
100
AcDbLine
 10
166.8312031661339
 20
303.5999020165358
 30
0.0
 11
166.8312031661339
 21
292.4355842905815
 31
0.0
  0
ARC
  5
253F
330
1F
100
AcDbEntity
  8
0
 62
     0
100
AcDbCircle
 10
168.7207760592637
 20
292.4355842905816
 30
0.0
 40
1.889572893129809
100
AcDbArc
 50
180.0
 51
229.775004226411
  0
LINE
  5
2542
330
1F
100
AcDbEntity
  8
0
100
AcDbLine
 10
170.7207760592693
 20
303.049608231237
 30
0.0
 11
170.7207760592692
 21
293.049608231237
 31
0.0
  0
LINE
  5
2543
330
1F
100
AcDbEntity
  8
0
100
AcDbLine
 10
155.7207760592692
 20
303.0496082312369
 30
0.0
 11
155.7207760592692
 21
293.0496082312369
 31
0.0
  0
LINE
  5
2544
330
1F
100
AcDbEntity
  8
0
100
AcDbLine
 10
177.2207760592684
 20
304.0496082312373
 30
0.0
 11
171.7207760592692
 21
304.0496082312369
 31
0.0
  0
LINE
  5
2545
330
1F
100
AcDbEntity
  8
0
100
AcDbLine
 10
177.2207760592691
 20
292.0496082312372
 30
0.0
 11
171.7207760592693
 21
292.049608231237
 31
0.0
  0
LINE
  5
2546
330
1F
100
AcDbEntity
  8
0
100
AcDbLine
 10
154.7207760592692
 20
304.0496082312369
 30
0.0
 11
150.7207760592691
 21
304.0496082312369
 31
0.0
  0
LINE
  5
2547
330
1F
100
AcDbEntity
  8
0
100
AcDbLine
 10
154.7207760592692
 20
292.0496082312369
 30
0.0
 11
150.720776059269
 21
292.049608231237
 31
0.0
  0
LINE
  5
2594
330
1F
100
AcDbEntity
  8
AM_0
100
AcDbLine
 10
177.2207760592686
 20
307.0496082312368
 30
0.0
 11
169.7207760592693
 21
307.0496082312368
 31
0.0
  0
LINE
  5
2595
330
1F
100
AcDbEntity
  8
AM_0
100
AcDbLine
 10
177.2207760592688
 20
298.0496082312372
 30
0.0
 11
177.2207760592688
 21
289.0496082312372
 31
0.0
  0
ARC
  5
25B2
330
1F
100
AcDbEntity
  8
0
100
AcDbCircle
 10
171.7207760592692
 20
303.049608231237
 30
0.0
 40
1.0
100
AcDbArc
 50
90.000000000003
 51
179.9999999999998
  0
ARC
  5
25B3
330
1F
100
AcDbEntity
  8
0
100
AcDbCircle
 10
171.7207760592692
 20
293.049608231237
 30
0.0
 40
1.0
100
AcDbArc
 50
179.9999999999998
 51
270.000000000003
  0
ARC
  5
25B4
330
1F
100
AcDbEntity
  8
0
100
AcDbCircle
 10
154.7207760592692
 20
303.0496082312369
 30
0.0
 40
1.0
100
AcDbArc
 50
359.9999999999999
 51
90.00000000000067
  0
ARC
  5
25B5
330
1F
100
AcDbEntity
  8
0
100
AcDbCircle
 10
154.7207760592692
 20
293.0496082312369
 30
0.0
 40
1.0
100
AcDbArc
 50
269.9999999999993
 51
359.9999999999998
  0
ARC
  5
25B6
330
1F
100
AcDbEntity
  8
AM_0
100
AcDbCircle
 10
169.7207760592693
 20
308.0496082312368
 30
0.0
 40
1.0
100
AcDbArc
 50
180.0
 51
270.0
  0
LINE
  5
2732
330
1F
100
AcDbEntity
  8
AM_0
100
AcDbLine
 10
166.2207760596387
 20
322.5496082314497
 30
0.0
 11
166.2207760596387
 21
322.5496082314497
 31
0.0
  0
LINE
  5
2733
330
1F
100
AcDbEntity
  8
0
 62
     0
100
AcDbLine
 10
153.9707760601529
 20
322.1165955295988
 30
0.0
 11
154.7207760600811
 21
322.5496082314496
 31
0.0
  0
LINE
  5
2735
330
1F
100
AcDbEntity
  8
0
 62
     0
100
AcDbLine
 10
153.9701856551392
 20
316.7712961412369
 30
0.0
 11
154.7200783940622
 21
316.3380977109915
 31
0.0
  0
LINE
  5
2736
330
1F
100
AcDbEntity
  8
0
 62
     0
100
AcDbLine
 10
155.220776059595
 20
316.0496082317104
 30
0.0
 11
153.9707760597145
 21
316.7712960681285
 31
0.0
  0
LINE
  5
2737
330
1F
100
AcDbEntity
  8
0
 62
     0
100
AcDbLine
 10
155.220776059595
 20
316.0496082317104
 30
0.0
 11
155.2207760600334
 21
314.5496082322146
 31
0.0
  0
LINE
  5
2738
330
1F
100
AcDbEntity
  8
0
 62
     0
100
AcDbLine
 10
155.2207760600334
 20
314.5496082322146
 30
0.0
 11
163.2207760592683
 21
314.5496082314143
 31
0.0
  0
LINE
  5
2739
330
1F
100
AcDbEntity
  8
0
 62
     0
100
AcDbLine
 10
153.9707760601529
 20
322.1165955295988
 30
0.0
 11
153.9707760587959
 21
316.7712960693901
 31
0.0
  0
LINE
  5
273A
330
1F
100
AcDbEntity
  8
0
 62
     0
100
AcDbLine
 10
171.7207760593054
 20
322.5496082314496
 30
0.0
 11
172.4707760593088
 21
322.1165955295554
 31
0.0
  0
LINE
  5
273B
330
1F
100
AcDbEntity
  8
0
 62
     0
100
AcDbLine
 10
171.220776058865
 20
316.0496082311181
 30
0.0
 11
172.4707760588705
 21
316.7712960676082
 31
0.0
  0
LINE
  5
273C
330
1F
100
AcDbEntity
  8
0
 62
     0
100
AcDbLine
 10
171.2207760593034
 20
314.5496082314145
 30
0.0
 11
163.2207760592683
 21
314.5496082314143
 31
0.0
  0
LINE
  5
273D
330
1F
100
AcDbEntity
  8
0
 62
     0
100
AcDbLine
 10
171.220776059378
 20
316.0496082314143
 30
0.0
 11
171.2207760593034
 21
314.5496082314145
 31
0.0
  0
LINE
  5
273E
330
1F
100
AcDbEntity
  8
0
 62
     0
100
AcDbLine
 10
172.4707760593088
 20
322.1165955295554
 30
0.0
 11
172.4707760593088
 21
316.7712960678614
 31
0.0
  0
LINE
  5
273F
330
1F
100
AcDbEntity
  8
0
 62
     0
100
AcDbLine
 10
171.7207760593055
 20
322.5496082314496
 30
0.0
 11
163.2207760592683
 21
322.5496082314497
 31
0.0
  0
LINE
  5
2740
330
1F
100
AcDbEntity
  8
AM_0
100
AcDbLine
 10
168.6932079236046
 20
322.1165955295643
 30
0.0
 11
168.6932079231661
 21
316.7712960675994
 31
0.0
  0
LINE
  5
2741
330
1F
100
AcDbEntity
  8
AM_0
100
AcDbLine
 10
166.9983441949337
 20
322.1165955295643
 30
0.0
 11
166.9983441949336
 21
316.7712960675995
 31
0.0
  0
LINE
  5
2742
330
1F
100
AcDbEntity
  8
AM_0
100
AcDbLine
 10
157.748344194932
 20
322.1165955285101
 30
0.0
 11
157.7483441939024
 21
316.7712960686535
 31
0.0
  0
LINE
  5
2743
330
1F
100
AcDbEntity
  8
AM_0
100
AcDbLine
 10
159.4432079236029
 20
322.1165955288366
 30
0.0
 11
159.4432079199386
 21
316.7712960683271
 31
0.0
  0
ARC
  5
2744
330
1F
100
AcDbEntity
  8
AM_0
100
AcDbCircle
 10
163.2207760592301
 20
305.8555009257568
 30
0.0
 40
16.69410730569285
100
AcDbArc
 50
76.92175184739949
 51
103.0782481523327
  0
ARC
  5
2745
330
1F
100
AcDbEntity
  8
AM_0
100
AcDbCircle
 10
170.5819919914476
 20
318.2137016418941
 30
0.0
 40
4.335906589555475
100
AcDbArc
 50
64.17559387687216
 51
115.8244061228554
  0
LINE
  5
2746
330
1F
100
AcDbEntity
  8
AM_0
100
AcDbLine
 10
168.6932079236046
 20
322.1165955295643
 30
0.0
 11
166.9983441949337
 21
322.1165955295643
 31
0.0
  0
ARC
  5
2747
330
1F
100
AcDbEntity
  8
AM_0
100
AcDbCircle
 10
155.8595601278476
 20
318.2137016404761
 30
0.0
 40
4.335906589555475
100
AcDbArc
 50
64.17559388818007
 51
115.8244061341663
  0
LINE
  5
2748
330
1F
100
AcDbEntity
  8
AM_0
100
AcDbLine
 10
157.7483441949387
 20
322.1165955285101
 30
0.0
 11
159.4432079236096
 21
322.1165955288366
 31
0.0
  0
ARC
  5
2749
330
1F
100
AcDbEntity
  8
AM_0
100
AcDbCircle
 10
163.2207760587917
 20
333.0323906714069
 30
0.0
 40
16.69410730569285
100
AcDbArc
 50
256.9217518476673
 51
283.0782481526005
  0
ARC
  5
274A
330
1F
100
AcDbEntity
  8
AM_0
100
AcDbCircle
 10
170.5819919910092
 20
320.6741899552695
 30
0.0
 40
4.335906589555475
100
AcDbArc
 50
244.1755938771402
 51
295.8244061231308
  0
LINE
  5
274B
330
1F
100
AcDbEntity
  8
AM_0
100
AcDbLine
 10
168.6932079231663
 20
316.7712960675994
 30
0.0
 11
166.9983441944953
 21
316.7712960675995
 31
0.0
  0
ARC
  5
274C
330
1F
100
AcDbEntity
  8
AM_0
100
AcDbCircle
 10
155.8595601274092
 20
320.6741899566875
 30
0.0
 40
4.335906589555475
100
AcDbArc
 50
244.1755938658337
 51
295.8244061118199
  0
LINE
  5
274D
330
1F
100
AcDbEntity
  8
AM_0
100
AcDbLine
 10
157.7483441945003
 20
316.7712960686535
 30
0.0
 11
159.4432079231713
 21
316.7712960683271
 31
0.0
  0
LINE
  5
274E
330
1F
100
AcDbEntity
  8
AM_0
100
AcDbLine
 10
171.220776058865
 20
316.0496082311181
 30
0.0
 11
155.220776059595
 21
316.0496082317104
 31
0.0
  0
LINE
  5
274F
330
1F
100
AcDbEntity
  8
0
 62
     0
100
AcDbLine
 10
220.5975040439832
 20
322.5496082314498
 30
0.0
 11
212.5975040447483
 21
322.5496082314498
 31
0.0
  0
LINE
  5
2750
330
1F
100
AcDbEntity
  8
0
 62
     0
100
AcDbLine
 10
212.5975040447483
 20
316.0496082314144
 30
0.0
 11
212.5975040447483
 21
314.5496082322147
 31
0.0
  0
LINE
  5
2751
330
1F
100
AcDbEntity
  8
0
 62
     0
100
AcDbLine
 10
212.5975040447483
 20
314.5496082322147
 30
0.0
 11
220.5975040439832
 21
314.5496082314145
 31
0.0
  0
LINE
  5
2752
330
1F
100
AcDbEntity
  8
0
 62
     0
100
AcDbLine
 10
228.5975040440184
 20
314.5496082314147
 30
0.0
 11
220.5975040439832
 21
314.5496082314145
 31
0.0
  0
LINE
  5
2753
330
1F
100
AcDbEntity
  8
0
 62
     0
100
AcDbLine
 10
228.5975040440184
 20
316.0496082318764
 30
0.0
 11
228.5975040440184
 21
314.5496082314147
 31
0.0
  0
LINE
  5
2754
330
1F
100
AcDbEntity
  8
0
 62
     0
100
AcDbLine
 10
228.5975040432183
 20
322.5496082314498
 30
0.0
 11
220.5975040439832
 21
322.5496082314498
 31
0.0
  0
LINE
  5
2755
330
1F
100
AcDbEntity
  8
AM_0
100
AcDbLine
 10
228.5975040440184
 20
316.0496082308221
 30
0.0
 11
212.5975040447483
 21
316.0496082314144
 31
0.0
  0
LINE
  5
2756
330
1F
100
AcDbEntity
  8
AM_0
100
AcDbLine
 10
212.0975040439832
 20
322.1165955295989
 30
0.0
 11
212.5975040447483
 21
322.5496082314498
 31
0.0
  0
ARC
  5
2757
330
1F
100
AcDbEntity
  8
AM_0
100
AcDbCircle
 10
216.3475040439537
 20
309.9749011641335
 30
0.0
 40
12.57470706731631
100
AcDbArc
 50
74.92028252247374
 51
105.0797174772499
  0
LINE
  5
2758
330
1F
100
AcDbEntity
  8
AM_0
100
AcDbLine
 10
219.6189740139954
 20
322.1165955295806
 30
0.0
 11
221.5760340739711
 21
322.1165955295806
 31
0.0
  0
LINE
  5
2759
330
1F
100
AcDbEntity
  8
AM_0
100
AcDbLine
 10
219.6189740139951
 20
316.7712960671887
 30
0.0
 11
219.6189740139954
 21
322.1165955295806
 31
0.0
  0
LINE
  5
275A
330
1F
100
AcDbEntity
  8
AM_0
100
AcDbLine
 10
221.5760340741904
 20
316.7712960671888
 30
0.0
 11
221.5760340741904
 21
322.1165955295806
 31
0.0
  0
LINE
  5
275B
330
1F
100
AcDbEntity
  8
AM_0
100
AcDbLine
 10
213.0760340739712
 20
322.1165955295966
 30
0.0
 11
212.0975040439832
 21
322.1165955295966
 31
0.0
  0
LINE
  5
275C
330
1F
100
AcDbEntity
  8
AM_0
100
AcDbLine
 10
213.0760340739712
 20
322.1165955295966
 30
0.0
 11
213.0760340739712
 21
316.7712960671729
 31
0.0
  0
LINE
  5
275D
330
1F
100
AcDbEntity
  8
AM_0
100
AcDbLine
 10
212.0975040439832
 20
322.1165955295966
 30
0.0
 11
212.0975040439832
 21
316.4826209329691
 31
0.0
  0
ARC
  5
275E
330
1F
100
AcDbEntity
  8
AM_0
100
AcDbCircle
 10
216.3475040439537
 20
328.9129904326359
 30
0.0
 40
12.57470706731631
100
AcDbArc
 50
254.9202825227502
 51
285.0797174775262
  0
LINE
  5
275F
330
1F
100
AcDbEntity
  8
AM_0
100
AcDbLine
 10
213.0760340739712
 20
316.7712960671729
 30
0.0
 11
212.0975040439832
 21
316.7712960671729
 31
0.0
  0
LINE
  5
2760
330
1F
100
AcDbEntity
  8
AM_0
100
AcDbLine
 10
219.6189740139953
 20
316.7712960671888
 30
0.0
 11
221.5760340741904
 21
316.7712960671888
 31
0.0
  0
ARC
  5
2761
330
1F
100
AcDbEntity
  8
AM_0
100
AcDbCircle
 10
224.8475040430819
 20
309.9749011638188
 30
0.0
 40
12.57470706731631
100
AcDbArc
 50
74.92028251850683
 51
105.0797174732829
  0
LINE
  5
2762
330
1F
100
AcDbEntity
  8
AM_0
100
AcDbLine
 10
228.1189740139633
 20
322.1165955290397
 30
0.0
 11
229.0975040439512
 21
322.1165955289673
 31
0.0
  0
LINE
  5
2763
330
1F
100
AcDbEntity
  8
AM_0
100
AcDbLine
 10
228.1189740139632
 20
322.1165955290397
 30
0.0
 11
228.1189740137868
 21
316.7712960666159
 31
0.0
  0
ARC
  5
2764
330
1F
100
AcDbEntity
  8
AM_0
100
AcDbCircle
 10
224.8475040445268
 20
328.9129904323212
 30
0.0
 40
12.57470706731631
100
AcDbArc
 50
254.9202825182303
 51
285.0797174730064
  0
LINE
  5
2765
330
1F
100
AcDbEntity
  8
AM_0
100
AcDbLine
 10
228.1189740136103
 20
316.7712960666159
 30
0.0
 11
229.0975040435982
 21
316.7712960665435
 31
0.0
  0
LINE
  5
2766
330
1F
100
AcDbEntity
  8
AM_0
100
AcDbLine
 10
229.0975040439832
 20
322.1165955295989
 30
0.0
 11
228.5975040432183
 21
322.5496082314498
 31
0.0
  0
LINE
  5
2767
330
1F
100
AcDbEntity
  8
AM_0
100
AcDbLine
 10
229.0975040439832
 20
322.1165955295966
 30
0.0
 11
229.0975040439832
 21
316.4826209329691
 31
0.0
  0
LINE
  5
2768
330
1F
100
AcDbEntity
  8
0
100
AcDbLine
 10
171.2207760593034
 20
316.0496082314143
 30
0.0
 11
155.2207760600334
 21
316.0496082314143
 31
0.0
  0
LINE
  5
2769
330
1F
100
AcDbEntity
  8
AM_0
100
AcDbLine
 10
212.0975040439832
 20
316.4826209329691
 30
0.0
 11
212.5975040447483
 21
316.0496082311183
 31
0.0
  0
LINE
  5
276A
330
1F
100
AcDbEntity
  8
AM_0
100
AcDbLine
 10
229.0975040439832
 20
316.4826209329691
 30
0.0
 11
228.5975040432181
 21
316.0496082311183
 31
0.0
  0
ARC
  5
2873
330
1F
100
AcDbEntity
  8
AM_0
100
AcDbCircle
 10
153.4653078845397
 20
338.4266466138772
 30
0.0
 40
1.754268068723236
100
AcDbArc
 50
8.052279597304682
 51
171.9477204026921
  0
ARC
  5
2874
330
1F
100
AcDbEntity
  8
AM_0
100
AcDbCircle
 10
159.4945187926902
 20
337.2062152420543
 30
0.0
 40
2.97469944054606
100
AcDbArc
 50
19.12700048611884
 51
160.8729995138811
  0
LINE
  5
2875
330
1F
100
AcDbEntity
  8
AM_0
100
AcDbLine
 10
151.7283357273383
 20
338.672378545154
 30
0.0
 11
151.7283357273383
 21
329.1809146826004
 31
0.0
  0
LINE
  5
2876
330
1F
100
AcDbEntity
  8
AM_0
100
AcDbLine
 10
162.3049987805542
 20
338.1809146826004
 30
0.0
 11
162.3049987805543
 21
329.1809146826004
 31
0.0
  0
LINE
  5
2877
330
1F
100
AcDbEntity
  8
AM_0
100
AcDbLine
 10
156.6840388048261
 20
338.1809146826002
 30
0.0
 11
156.6840388048261
 21
329.1809146826004
 31
0.0
  0
LINE
  5
2878
330
1F
100
AcDbEntity
  8
AM_0
100
AcDbLine
 10
155.202280041741
 20
338.6723785451545
 30
0.0
 11
155.2022800417411
 21
329.1809146826004
 31
0.0
  0
ARC
  5
2879
330
1F
100
AcDbEntity
  8
AM_0
100
AcDbCircle
 10
152.7207760592689
 20
338.1809146826004
 30
0.0
 40
2.0
100
AcDbArc
 50
90.0
 51
180.0
1001
GENIUS_GENODEF_13
1002
{
1000
HIER
1070
     0
1002
}
1002
{
1000
MANEDIT
1070
     0
1002
}
1002
{
1000
NOSEL
1070
     0
1002
}
1002
{
1000
BEHIND
1070
     0
1002
}
1002
{
1000
REACTOR
1002
}
1001
GENIUS_GENOBJ-N-FIL_13
1002
{
1000
OWNER
1000
GEN
1002
}
  0
LINE
  5
287A
330
1F
100
AcDbEntity
  8
AM_0
100
AcDbLine
 10
152.7207760592689
 20
340.1809146826004
 30
0.0
 11
163.220776059269
 21
340.1809146826004
 31
0.0
  0
LINE
  5
287B
330
1F
100
AcDbEntity
  8
AM_0
100
AcDbLine
 10
152.7207760592685
 20
328.1809146826001
 30
0.0
 11
163.220776059269
 21
328.1809146826001
 31
0.0
  0
LINE
  5
287C
330
1F
100
AcDbEntity
  8
AM_0
100
AcDbLine
 10
151.220776059269
 20
329.1809146826001
 30
0.0
 11
163.220776059269
 21
329.1809146826004
 31
0.0
  0
LINE
  5
287D
330
1F
100
AcDbEntity
  8
AM_0
100
AcDbLine
 10
152.7207760592685
 20
329.1809146826001
 30
0.0
 11
152.7207760592685
 21
328.1809146826001
 31
0.0
  0
LINE
  5
287E
330
1F
100
AcDbEntity
  8
AM_0
100
AcDbLine
 10
150.7207760592689
 20
338.1809146826004
 30
0.0
 11
150.720776059269
 21
329.6809146826001
 31
0.0
  0
ARC
  5
287F
330
1F
100
AcDbEntity
  8
AM_0
100
AcDbCircle
 10
151.220776059269
 20
329.6809146826001
 30
0.0
 40
0.5
100
AcDbArc
 50
180.0
 51
270.0000000000017
  0
LINE
  5
2880
330
1F
100
AcDbEntity
  8
AM_0
100
AcDbLine
 10
153.2207760592689
 20
342.1809146826004
 30
0.0
 11
173.220776059269
 21
342.1809146826004
 31
0.0
  0
ARC
  5
2881
330
1F
100
AcDbEntity
  8
AM_0
100
AcDbCircle
 10
153.2207760592689
 20
341.6809146826004
 30
0.0
 40
0.5
100
AcDbArc
 50
90.0
 51
180.0
  0
ARC
  5
2882
330
1F
100
AcDbEntity
  8
AM_0
100
AcDbCircle
 10
173.220776059269
 20
341.6809146826004
 30
0.0
 40
0.5
100
AcDbArc
 50
0.0
 51
90.0
  0
LINE
  5
2883
330
1F
100
AcDbEntity
  8
AM_0
100
AcDbLine
 10
152.7207760592689
 20
340.1809146826004
 30
0.0
 11
152.7207760592689
 21
341.6809146826004
 31
0.0
  0
ARC
  5
2884
330
1F
100
AcDbEntity
  8
AM_0
100
AcDbCircle
 10
172.9762442339982
 20
338.4266466138771
 30
0.0
 40
1.754268068723236
100
AcDbArc
 50
8.052279597307906
 51
171.9477204026953
  0
ARC
  5
2885
330
1F
100
AcDbEntity
  8
AM_0
100
AcDbCircle
 10
166.9470333258477
 20
337.2062152420543
 30
0.0
 40
2.97469944054606
100
AcDbArc
 50
19.12700048611884
 51
160.8729995138811
  0
LINE
  5
2886
330
1F
100
AcDbEntity
  8
AM_0
100
AcDbLine
 10
174.7132163911996
 20
338.6723785451539
 30
0.0
 11
174.7132163911995
 21
329.1809146826004
 31
0.0
  0
LINE
  5
2887
330
1F
100
AcDbEntity
  8
AM_0
100
AcDbLine
 10
164.1365533379836
 20
338.1809146826004
 30
0.0
 11
164.1365533379835
 21
329.1809146826004
 31
0.0
  0
LINE
  5
2888
330
1F
100
AcDbEntity
  8
AM_0
100
AcDbLine
 10
169.7575133137118
 20
338.1809146826002
 30
0.0
 11
169.7575133137116
 21
329.1809146826004
 31
0.0
  0
LINE
  5
2889
330
1F
100
AcDbEntity
  8
AM_0
100
AcDbLine
 10
171.2392720767968
 20
338.6723785451544
 30
0.0
 11
171.2392720767967
 21
329.1809146826004
 31
0.0
  0
ARC
  5
288A
330
1F
100
AcDbEntity
  8
AM_0
100
AcDbCircle
 10
173.720776059269
 20
338.1809146826004
 30
0.0
 40
2.0
100
AcDbArc
 50
0.0
 51
90.0
1001
GENIUS_GENODEF_13
1002
{
1000
HIER
1070
     0
1002
}
1002
{
1000
MANEDIT
1070
     0
1002
}
1002
{
1000
NOSEL
1070
     0
1002
}
1002
{
1000
BEHIND
1070
     0
1002
}
1002
{
1000
REACTOR
1002
}
1001
GENIUS_GENOBJ-N-FIL_13
1002
{
1000
OWNER
1000
GEN
1002
}
  0
LINE
  5
288B
330
1F
100
AcDbEntity
  8
AM_0
100
AcDbLine
 10
173.720776059269
 20
340.1809146826004
 30
0.0
 11
163.2207760592689
 21
340.1809146826004
 31
0.0
  0
LINE
  5
288C
330
1F
100
AcDbEntity
  8
AM_0
100
AcDbLine
 10
173.7207760592693
 20
328.1809146826001
 30
0.0
 11
163.2207760592688
 21
328.1809146826001
 31
0.0
  0
LINE
  5
288D
330
1F
100
AcDbEntity
  8
AM_0
100
AcDbLine
 10
175.2207760592687
 20
329.1809146826
 30
0.0
 11
163.2207760592688
 21
329.1809146826004
 31
0.0
  0
LINE
  5
288E
330
1F
100
AcDbEntity
  8
AM_0
100
AcDbLine
 10
173.7207760592693
 20
329.1809146826001
 30
0.0
 11
173.7207760592693
 21
328.1809146826001
 31
0.0
  0
LINE
  5
288F
330
1F
100
AcDbEntity
  8
AM_0
100
AcDbLine
 10
175.720776059269
 20
338.1809146826003
 30
0.0
 11
175.7207760592688
 21
329.6809146826
 31
0.0
  0
ARC
  5
2890
330
1F
100
AcDbEntity
  8
AM_0
100
AcDbCircle
 10
175.2207760592687
 20
329.6809146826
 30
0.0
 40
0.5
100
AcDbArc
 50
269.9999999999984
 51
0.0
  0
LINE
  5
2891
330
1F
100
AcDbEntity
  8
AM_0
100
AcDbLine
 10
173.720776059269
 20
340.1809146826004
 30
0.0
 11
173.720776059269
 21
341.6809146826004
 31
0.0
  0
ARC
  5
2892
330
1F
100
AcDbEntity
  8
AM_0
100
AcDbCircle
 10
220.597504043983
 20
337.0003998088559
 30
0.0
 40
3.182186574793173
100
AcDbArc
 50
21.77582284696155
 51
158.2241771530348
  0
LINE
  5
2893
330
1F
100
AcDbEntity
  8
AM_0
100
AcDbLine
 10
223.5526175831997
 20
338.1809146826004
 30
0.0
 11
223.5526175831997
 21
329.1809146826004
 31
0.0
  0
LINE
  5
2894
330
1F
100
AcDbEntity
  8
AM_0
100
AcDbLine
 10
217.6423905047663
 20
338.1809146826002
 30
0.0
 11
217.6423905047663
 21
329.1809146826004
 31
0.0
  0
ARC
  5
2895
330
1F
100
AcDbEntity
  8
AM_0
100
AcDbCircle
 10
210.097504043983
 20
338.1809146826004
 30
0.0
 40
2.0
100
AcDbArc
 50
90.0
 51
180.0
1001
GENIUS_GENODEF_13
1002
{
1000
HIER
1070
     0
1002
}
1002
{
1000
MANEDIT
1070
     0
1002
}
1002
{
1000
NOSEL
1070
     0
1002
}
1002
{
1000
BEHIND
1070
     0
1002
}
1002
{
1000
REACTOR
1002
}
1001
GENIUS_GENOBJ-N-FIL_13
1002
{
1000
OWNER
1000
GEN
1002
}
  0
LINE
  5
2896
330
1F
100
AcDbEntity
  8
AM_0
100
AcDbLine
 10
210.097504043983
 20
340.1809146826004
 30
0.0
 11
220.5975040439831
 21
340.1809146826004
 31
0.0
  0
LINE
  5
2897
330
1F
100
AcDbEntity
  8
AM_0
100
AcDbLine
 10
210.0975040439826
 20
328.1809146826001
 30
0.0
 11
220.5975040439831
 21
328.1809146826001
 31
0.0
  0
LINE
  5
2898
330
1F
100
AcDbEntity
  8
AM_0
100
AcDbLine
 10
208.5975040439831
 20
329.1809146826001
 30
0.0
 11
220.5975040439831
 21
329.1809146826004
 31
0.0
  0
LINE
  5
2899
330
1F
100
AcDbEntity
  8
AM_0
100
AcDbLine
 10
210.0975040439826
 20
329.1809146826001
 30
0.0
 11
210.0975040439826
 21
328.1809146826001
 31
0.0
  0
LINE
  5
289A
330
1F
100
AcDbEntity
  8
AM_0
100
AcDbLine
 10
208.097504043983
 20
338.1809146826004
 30
0.0
 11
208.0975040439831
 21
329.6809146826001
 31
0.0
  0
ARC
  5
289B
330
1F
100
AcDbEntity
  8
AM_0
100
AcDbCircle
 10
208.5975040439831
 20
329.6809146826001
 30
0.0
 40
0.5
100
AcDbArc
 50
180.0
 51
270.0000000000017
  0
LINE
  5
289C
330
1F
100
AcDbEntity
  8
AM_0
100
AcDbLine
 10
210.597504043983
 20
342.1809146826004
 30
0.0
 11
230.5975040439835
 21
342.1809146826004
 31
0.0
  0
ARC
  5
289D
330
1F
100
AcDbEntity
  8
AM_0
100
AcDbCircle
 10
210.597504043983
 20
341.6809146826004
 30
0.0
 40
0.5
100
AcDbArc
 50
90.0
 51
180.0
  0
ARC
  5
289E
330
1F
100
AcDbEntity
  8
AM_0
100
AcDbCircle
 10
230.5975040439835
 20
341.6809146826004
 30
0.0
 40
0.5
100
AcDbArc
 50
0.0000000000032569
 51
90.0
  0
LINE
  5
289F
330
1F
100
AcDbEntity
  8
AM_0
100
AcDbLine
 10
210.097504043983
 20
340.1809146826004
 30
0.0
 11
210.097504043983
 21
341.6809146826004
 31
0.0
  0
ARC
  5
28A0
330
1F
100
AcDbEntity
  8
AM_0
100
AcDbCircle
 10
231.0975040439837
 20
338.180914682601
 30
0.0
 40
2.0
100
AcDbArc
 50
0.0000000000032569
 51
90.00000000000325
1001
GENIUS_GENODEF_13
1002
{
1000
HIER
1070
     0
1002
}
1002
{
1000
MANEDIT
1070
     0
1002
}
1002
{
1000
NOSEL
1070
     0
1002
}
1002
{
1000
BEHIND
1070
     0
1002
}
1002
{
1000
REACTOR
1002
}
1001
GENIUS_GENOBJ-N-FIL_13
1002
{
1000
OWNER
1000
GEN
1002
}
  0
LINE
  5
28A1
330
1F
100
AcDbEntity
  8
AM_0
100
AcDbLine
 10
231.0975040439836
 20
340.180914682601
 30
0.0
 11
220.5975040439835
 21
340.1809146826004
 31
0.0
  0
LINE
  5
28A2
330
1F
100
AcDbEntity
  8
AM_0
100
AcDbLine
 10
231.0975040439847
 20
328.1809146826006
 30
0.0
 11
220.5975040439842
 21
328.1809146826001
 31
0.0
  0
LINE
  5
28A3
330
1F
100
AcDbEntity
  8
AM_0
100
AcDbLine
 10
232.597504043984
 20
329.1809146826008
 30
0.0
 11
220.5975040439842
 21
329.1809146826004
 31
0.0
  0
LINE
  5
28A4
330
1F
100
AcDbEntity
  8
AM_0
100
AcDbLine
 10
231.0975040439846
 20
329.1809146826007
 30
0.0
 11
231.0975040439847
 21
328.1809146826006
 31
0.0
  0
LINE
  5
28A5
330
1F
100
AcDbEntity
  8
AM_0
100
AcDbLine
 10
233.0975040439837
 20
338.1809146826011
 30
0.0
 11
233.0975040439841
 21
329.6809146826007
 31
0.0
  0
ARC
  5
28A6
330
1F
100
AcDbEntity
  8
AM_0
100
AcDbCircle
 10
232.597504043984
 20
329.6809146826007
 30
0.0
 40
0.5
100
AcDbArc
 50
270.0000000000017
 51
0.0000000000032569
  0
LINE
  5
28A7
330
1F
100
AcDbEntity
  8
AM_0
100
AcDbLine
 10
231.0975040439836
 20
340.180914682601
 30
0.0
 11
231.0975040439835
 21
341.6809146826005
 31
0.0
  0
LINE
  5
28A8
330
1F
100
AcDbEntity
  8
AM_0
100
AcDbLine
 10
215.9004786079732
 20
338.1809146826004
 30
0.0
 11
215.9004786079732
 21
329.1809146826003
 31
0.0
  0
LINE
  5
28A9
330
1F
100
AcDbEntity
  8
AM_0
100
AcDbLine
 10
211.1190044609056
 20
338.1809146826004
 30
0.0
 11
211.1190044609056
 21
329.1809146826001
 31
0.0
  0
LINE
  5
28AA
330
1F
100
AcDbEntity
  8
AM_0
100
AcDbLine
 10
215.9004786079732
 20
340.1809146826004
 30
0.0
 11
211.1190044609056
 21
340.1809146826004
 31
0.0
  0
ARC
  5
28AB
330
1F
100
AcDbEntity
  8
AM_0
100
AcDbCircle
 10
213.5097415344394
 20
337.7520087439082
 30
0.0
 40
2.428905938692222
100
AcDbArc
 50
10.17085060932879
 51
169.8291493906712
  0
LINE
  5
28AC
330
1F
100
AcDbEntity
  8
AM_0
100
AcDbLine
 10
225.2945294799928
 20
338.1809146826004
 30
0.0
 11
225.2945294799928
 21
329.1809146826003
 31
0.0
  0
LINE
  5
28AD
330
1F
100
AcDbEntity
  8
AM_0
100
AcDbLine
 10
230.0760036270605
 20
338.1809146826004
 30
0.0
 11
230.0760036270605
 21
329.1809146826001
 31
0.0
  0
ARC
  5
28AE
330
1F
100
AcDbEntity
  8
AM_0
100
AcDbCircle
 10
227.6852665535266
 20
337.7520087439082
 30
0.0
 40
2.428905938692222
100
AcDbArc
 50
10.17085060933198
 51
169.829149390668
  0
LINE
  5
28AF
330
1F
100
AcDbEntity
  8
AM_0
100
AcDbLine
 10
150.7207760592689
 20
338.1809146826002
 30
0.0
 11
151.7283357273383
 21
338.1809146826004
 31
0.0
  0
LINE
  5
28B0
330
1F
100
AcDbEntity
  8
AM_0
100
AcDbLine
 10
155.202280041741
 20
338.1809146826002
 30
0.0
 11
156.6840388048261
 21
338.1809146826005
 31
0.0
  0
LINE
  5
28B1
330
1F
100
AcDbEntity
  8
AM_0
100
AcDbLine
 10
162.3049987805543
 20
338.1809146826002
 30
0.0
 11
164.1365533379836
 21
338.1809146826002
 31
0.0
  0
LINE
  5
28B2
330
1F
100
AcDbEntity
  8
AM_0
100
AcDbLine
 10
169.7575133137118
 20
338.1809146826002
 30
0.0
 11
171.2392720767968
 21
338.1809146826001
 31
0.0
  0
LINE
  5
28B3
330
1F
100
AcDbEntity
  8
AM_0
100
AcDbLine
 10
174.7132163911996
 20
338.1809146826002
 30
0.0
 11
175.720776059269
 21
338.1809146826001
 31
0.0
  0
LINE
  5
28B4
330
1F
100
AcDbEntity
  8
AM_0
100
AcDbLine
 10
208.097504043983
 20
338.1809146826002
 30
0.0
 11
211.1190044609056
 21
338.1809146826005
 31
0.0
  0
LINE
  5
28B5
330
1F
100
AcDbEntity
  8
AM_0
100
AcDbLine
 10
215.9004786079732
 20
338.1809146826002
 30
0.0
 11
217.6423905047662
 21
338.1809146826002
 31
0.0
  0
LINE
  5
28B6
330
1F
100
AcDbEntity
  8
AM_0
100
AcDbLine
 10
223.5526175831997
 20
338.1809146826002
 30
0.0
 11
225.2945294799928
 21
338.1809146826004
 31
0.0
  0
LINE
  5
28B7
330
1F
100
AcDbEntity
  8
AM_0
100
AcDbLine
 10
230.0760036270605
 20
338.1809146826004
 30
0.0
 11
233.0975040439837
 21
338.1809146826021
 31
0.0
  0
ARC
  5
28B8
330
1F
100
AcDbEntity
  8
AM_0
100
AcDbCircle
 10
220.5975040439832
 20
291.5496082312375
 30
0.0
 40
4.0
100
AcDbArc
 50
205.9444797723699
 51
334.0555202276301
  0
ENDSEC
  0
SECTION
  2
OBJECTS
  0
DICTIONARY
  5
C
330
0
100
AcDbDictionary
281
     1
  3
ACAD_2007HEADERVARS_RT
350
2916
  3
ACAD_COLOR
350
180A
  3
ACAD_GROUP
350
D
  3
ACAD_LAYOUT
350
1A
  3
ACAD_MATERIAL
350
17F5
  3
ACAD_MLEADERSTYLE
350
1F93
  3
ACAD_MLINESTYLE
350
17
  3
ACAD_PLOTSETTINGS
350
19
  3
ACAD_PLOTSTYLENAME
350
E
  3
ACAD_SCALELIST
350
1F81
  3
ACAD_TABLESTYLE
350
180B
  3
ACAD_VISUALSTYLE
350
17F9
  3
ACDB_RECOMPOSE_DATA
350
2914
  3
AcDbVariableDictionary
350
34
  3
AcmDictionary
350
43
  3
AMG
350
2B
  3
AMGSNAPSETTINGS
350
74
  3
DWGPROPS
350
2915
  0
DICTIONARY
  5
1AA2
330
8
100
AcDbDictionary
280
     1
281
     1
  0
DICTIONARY
  5
1C17
330
2
100
AcDbDictionary
280
     1
281
     1
  3
ACAD_LAYERSTATES
360
1FDA
  3
AMLAYER_GROUPCOLORS
360
1C18
  0
DICTIONARY
  5
21BD
330
10
100
AcDbDictionary
280
     1
281
     1
  3
ADSK_XREC_LAYER_RECONCILED
360
21BE
  0
DICTIONARY
  5
21BF
330
59
100
AcDbDictionary
280
     1
281
     1
  3
ADSK_XREC_LAYER_RECONCILED
360
21C0
  0
DICTIONARY
  5
21C1
330
5A
100
AcDbDictionary
280
     1
281
     1
  3
ADSK_XREC_LAYER_RECONCILED
360
21C2
  0
DICTIONARY
  5
21C3
330
24D
100
AcDbDictionary
280
     1
281
     1
  3
ADSK_XREC_LAYER_RECONCILED
360
21C4
  0
DICTIONARY
  5
21C5
330
280
100
AcDbDictionary
280
     1
281
     1
  3
ADSK_XREC_LAYER_RECONCILED
360
21C6
  0
DICTIONARY
  5
21C7
330
2C6
100
AcDbDictionary
280
     1
281
     1
  3
ADSK_XREC_LAYER_RECONCILED
360
21C8
  0
DICTIONARY
  5
21C9
330
2C7
100
AcDbDictionary
280
     1
281
     1
  3
ADSK_XREC_LAYER_RECONCILED
360
21CA
  0
DICTIONARY
  5
21CB
330
2C8
100
AcDbDictionary
280
     1
281
     1
  3
ADSK_XREC_LAYER_RECONCILED
360
21CC
  0
DICTIONARY
  5
21CD
330
2C9
100
AcDbDictionary
280
     1
281
     1
  3
ADSK_XREC_LAYER_RECONCILED
360
21CE
  0
DICTIONARY
  5
21CF
330
5A5
100
AcDbDictionary
280
     1
281
     1
  3
ADSK_XREC_LAYER_RECONCILED
360
21D0
  0
DICTIONARY
  5
21D1
330
782
100
AcDbDictionary
280
     1
281
     1
  3
ADSK_XREC_LAYER_RECONCILED
360
21D2
  0
DICTIONARY
  5
21D3
330
D32
100
AcDbDictionary
280
     1
281
     1
  3
ADSK_XREC_LAYER_RECONCILED
360
21D4
  0
DICTIONARY
  5
21D5
330
D7F
100
AcDbDictionary
280
     1
281
     1
  3
ADSK_XREC_LAYER_RECONCILED
360
21D6
  0
DICTIONARY
  5
C9
330
1F
100
AcDbDictionary
280
     1
281
     1
  3
ACAD_SORTENTS
360
190B
  0
DICTIONARY
  5
1A64
330
1A33
100
AcDbDictionary
280
     1
281
     1
  0
DICTIONARY
  5
23B6
330
23B5
100
AcDbDictionary
280
     1
281
     1
  3
AmgParList
360
23B7
  0
DICTIONARY
  5
2916
102
{ACAD_REACTORS
330
C
102
}
330
C
100
AcDbDictionary
281
     1
  3
DIMARCSYM
350
2917
  3
DIMLTEX1
350
2919
  3
DIMLTEX2
350
291A
  3
DIMLTYPE
350
2918
  0
DICTIONARY
  5
180A
102
{ACAD_REACTORS
330
C
102
}
330
C
100
AcDbDictionary
281
     1
  0
DICTIONARY
  5
D
102
{ACAD_REACTORS
330
C
102
}
330
C
100
AcDbDictionary
281
     1
  0
DICTIONARY
  5
1A
102
{ACAD_REACTORS
330
C
102
}
330
C
100
AcDbDictionary
281
     1
  3
Model
350
22
  3
ﾚｲｱｳﾄ1
350
1E
  3
ﾚｲｱｳﾄ2
350
26
  0
DICTIONARY
  5
17F5
102
{ACAD_REACTORS
330
C
102
}
330
C
100
AcDbDictionary
281
     1
  3
ByBlock
350
17F7
  3
ByLayer
350
17F6
  3
Global
350
17F8
  0
DICTIONARY
  5
1F93
102
{ACAD_REACTORS
330
C
102
}
330
C
100
AcDbDictionary
281
     1
  3
Standard
350
1F94
  0
DICTIONARY
  5
17
102
{ACAD_REACTORS
330
C
102
}
330
C
100
AcDbDictionary
281
     1
  3
Standard
350
18
  0
DICTIONARY
  5
19
102
{ACAD_REACTORS
330
C
102
}
330
C
100
AcDbDictionary
281
     1
  0
ACDBDICTIONARYWDFLT
  5
E
102
{ACAD_REACTORS
330
C
102
}
330
C
100
AcDbDictionary
281
     1
  3
Normal
350
F
100
AcDbDictionaryWithDefault
340
F
  0
DICTIONARY
  5
1F81
102
{ACAD_REACTORS
330
C
102
}
330
C
100
AcDbDictionary
281
     1
  3
A0
350
1F82
  3
A1
350
1F83
  3
A2
350
1F84
  3
A3
350
1F85
  3
A4
350
1F86
  3
A5
350
1F87
  3
A6
350
1F88
  3
A7
350
1F89
  3
A8
350
1F8A
  3
A9
350
1F8B
  3
B0
350
1F8C
  3
B1
350
1F8D
  3
B2
350
1F8E
  3
B3
350
1F8F
  3
B4
350
1F90
  3
B5
350
1F91
  3
B6
350
1F92
  0
DICTIONARY
  5
180B
102
{ACAD_REACTORS
330
C
102
}
330
C
100
AcDbDictionary
281
     1
  3
Standard
350
180C
  0
DICTIONARY
  5
17F9
102
{ACAD_REACTORS
330
C
102
}
330
C
100
AcDbDictionary
281
     1
  3
2dWireframe
350
17FF
  3
3D Hidden
350
1801
  3
3dWireframe
350
1800
  3
Basic
350
17FE
  3
Brighten
350
1805
  3
ColorChange
350
1809
  3
Conceptual
350
1802
  3
Dim
350
1804
  3
EdgeColorOff
350
1F80
  3
Facepattern
350
1808
  3
Flat
350
17FA
  3
FlatWithEdges
350
17FB
  3
Gouraud
350
17FC
  3
GouraudWithEdges
350
17FD
  3
Hidden
350
1F78
  3
JitterOff
350
1F7E
  3
Linepattern
350
1807
  3
OverhangOff
350
1F7F
  3
Realistic
350
1803
  3
Shaded
350
1F7D
  3
Shaded with edges
350
1F7C
  3
Shades of Gray
350
1F79
  3
Sketchy
350
1F7A
  3
Thicken
350
1806
  3
Wireframe
350
1F77
  3
X-Ray
350
1F7B
  0
XRECORD
  5
2914
102
{ACAD_REACTORS
330
C
102
}
330
C
100
AcDbXrecord
280
     1
 90
        1
330
180C
330
21B1
  0
DICTIONARY
  5
34
102
{ACAD_REACTORS
330
C
102
}
330
C
100
AcDbDictionary
281
     1
  3
CANNOSCALE
350
222F
  3
CMLEADERSTYLE
350
222E
  3
CTABLESTYLE
350
1AD5
  3
DIMASSOC
350
2912
  3
INDEXCTL
350
35
  3
SORTENTS
350
2910
  3
XCLIPFRAME
350
2911
  0
DICTIONARY
  5
43
102
{ACAD_REACTORS
330
C
102
}
330
C
100
AcDbDictionary
281
     1
  3
AcmBOM
350
1553
  3
AcmStdDictionary
350
15F
  3
AMDTSECTSYM_ARROWCOLOR
350
186D
  0
DICTIONARY
  5
2B
102
{ACAD_REACTORS
330
C
102
}
330
C
100
AcDbDictionary
281
     1
  0
DICTIONARY
  5
74
102
{ACAD_REACTORS
330
C
102
}
330
C
100
AcDbDictionary
281
     1
  0
XRECORD
  5
2915
102
{ACAD_REACTORS
330
C
102
}
330
C
100
AcDbXrecord
280
     1
  1
DWGPROPS COOKIE
  2

  3

  4

  6

  7

  8
user
  9

300
AmdtFileType=84
301
=
302
=
303
=
304
=
305
=
306
=
307
=
308
=
309
=
 40
0.2057947685185185
 41
2453060.746216852
 42
2455694.501590891
  1

 90
        1
  0
DICTIONARY
  5
1FDA
102
{ACAD_REACTORS
330
1C17
102
}
330
1C17
100
AcDbDictionary
281
     1
  0
DICTIONARY
  5
1C18
102
{ACAD_REACTORS
330
1C17
102
}
330
1C17
100
AcDbDictionary
280
     1
281
     1
  0
XRECORD
  5
21BE
102
{ACAD_REACTORS
330
21BD
102
}
330
21BD
100
AcDbXrecord
280
     1
290
     1
  0
XRECORD
  5
21C0
102
{ACAD_REACTORS
330
21BF
102
}
330
21BF
100
AcDbXrecord
280
     1
290
     1
  0
XRECORD
  5
21C2
102
{ACAD_REACTORS
330
21C1
102
}
330
21C1
100
AcDbXrecord
280
     1
290
     1
  0
XRECORD
  5
21C4
102
{ACAD_REACTORS
330
21C3
102
}
330
21C3
100
AcDbXrecord
280
     1
290
     1
  0
XRECORD
  5
21C6
102
{ACAD_REACTORS
330
21C5
102
}
330
21C5
100
AcDbXrecord
280
     1
290
     1
  0
XRECORD
  5
21C8
102
{ACAD_REACTORS
330
21C7
102
}
330
21C7
100
AcDbXrecord
280
     1
290
     1
  0
XRECORD
  5
21CA
102
{ACAD_REACTORS
330
21C9
102
}
330
21C9
100
AcDbXrecord
280
     1
290
     1
  0
XRECORD
  5
21CC
102
{ACAD_REACTORS
330
21CB
102
}
330
21CB
100
AcDbXrecord
280
     1
290
     1
  0
XRECORD
  5
21CE
102
{ACAD_REACTORS
330
21CD
102
}
330
21CD
100
AcDbXrecord
280
     1
290
     1
  0
XRECORD
  5
21D0
102
{ACAD_REACTORS
330
21CF
102
}
330
21CF
100
AcDbXrecord
280
     1
290
     1
  0
XRECORD
  5
21D2
102
{ACAD_REACTORS
330
21D1
102
}
330
21D1
100
AcDbXrecord
280
     1
290
     1
  0
XRECORD
  5
21D4
102
{ACAD_REACTORS
330
21D3
102
}
330
21D3
100
AcDbXrecord
280
     1
290
     1
  0
XRECORD
  5
21D6
102
{ACAD_REACTORS
330
21D5
102
}
330
21D5
100
AcDbXrecord
280
     1
290
     1
  0
SORTENTSTABLE
  5
190B
102
{ACAD_REACTORS
330
C9
102
}
330
C9
100
AcDbSortentsTable
330
1F
331
2179
  5
217F
331
20B2
  5
20BD
331
2023
  5
2041
331
2465
  5
253C
331
2386
  5
238C
331
20BA
  5
215B
331
238E
  5
23A4
331
1998
  5
19A3
331
19A0
  5
19AB
331
1901
  5
198E
331
19A8
  5
19B3
331
19B0
  5
19DE
331
2740
  5
2742
331
253A
  5
253D
331
2748
  5
274A
331
2542
  5
2545
331
2750
  5
2752
331
2758
  5
275A
331
25B2
  5
2547
331
12AD
  5
18E5
331
C86
  5
18CD
331
2181
  5
2187
331
2033
  5
2044
331
23A6
  5
23AC
331
21B1
  5
2385
331
2162
  5
2168
331
204B
  5
20AC
331
18CA
  5
18E7
331
1989
  5
1994
331
19E0
  5
1A12
331
1991
  5
199C
331
2760
  5
2762
331
2768
  5
276A
331
2739
  5
273B
331
C0F
  5
C8A
331
20A3
  5
20AE
331
C7F
  5
C8D
331
20AB
  5
20B6
331
201C
  5
202A
331
217A
  5
2180
331
20B3
  5
20BE
331
2387
  5
238D
331
20BB
  5
2160
331
238F
  5
23A5
331
1999
  5
19A4
331
19A1
  5
19AC
331
1902
  5
198F
331
1A08
  5
1C66
331
19A9
  5
19B4
331
19B1
  5
19DF
331
2741
  5
2743
331
253B
  5
253E
331
2749
  5
274B
331
2543
  5
2572
331
2751
  5
2753
331
2759
  5
275B
331
25B3
  5
2546
331
C87
  5
18CE
331
2182
  5
2188
331
2034
  5
2045
331
23A7
  5
23AD
331
21A2
  5
2383
331
2163
  5
2169
331
200D
  5
201E
331
18CB
  5
18E8
331
198A
  5
1995
331
19E1
  5
1A14
331
1992
  5
199D
331
2761
  5
2763
331
2769
  5
2824
331
2732
  5
2735
331
273A
  5
273C
331
C18
  5
C8B
331
20A4
  5
20AF
331
2015
  5
2025
331
20AC
  5
20B7
331
217B
  5
2181
331
20B4
  5
20BF
331
2388
  5
238E
331
199A
  5
19A5
331
19A2
  5
19AD
331
19AA
  5
19B5
331
19B2
  5
19E0
331
2742
  5
2744
331
253C
  5
253F
331
274A
  5
274C
331
2544
  5
25B2
331
2752
  5
2754
331
2594
  5
2732
331
275A
  5
275C
331
25B4
  5
2595
331
C80
  5
CA5
331
C88
  5
18D9
331
2390
  5
23A6
331
2183
  5
2189
331
2035
  5
2046
331
23A8
  5
23AF
331
21A3
  5
2384
331
215C
  5
2164
331
204D
  5
20AD
331
1A11
  5
2016
331
198B
  5
1996
331
19E2
  5
1C0E
331
1993
  5
199E
331
2762
  5
2764
331
276A
  5
2825
331
2733
  5
2736
331
273B
  5
273D
331
20A5
  5
20B0
331
20AD
  5
20B8
331
2460
  5
2463
331
2381
  5
2387
331
217C
  5
2183
331
20B5
  5
20C0
331
2389
  5
238F
331
19FA
  5
1C14
331
199B
  5
19A6
331
19A3
  5
19AE
331
1A0A
  5
2013
331
19AB
  5
19B6
331
19B3
  5
19E1
331
2743
  5
2745
331
253D
  5
2542
331
274B
  5
274D
331
2545
  5
25B3
331
2753
  5
2755
331
2595
  5
2733
331
275B
  5
275D
331
25B5
  5
2594
331
C81
  5
CA6
331
8F2
  5
C47
331
C89
  5
18DB
331
90A
  5
C85
331
2184
  5
219D
331
2036
  5
2047
331
23A1
  5
23A7
331
23A9
  5
23FC
331
215D
  5
2166
331
200F
  5
2021
331
1A12
  5
2018
331
19DB
  5
1A09
331
198C
  5
1997
331
1994
  5
199F
331
2763
  5
2765
331
273C
  5
273E
331
20A6
  5
20B1
331
20AE
  5
20B9
331
2461
  5
2464
331
2382
  5
2388
331
217D
  5
2184
331
20B6
  5
20C1
331
238A
  5
2390
331
19FB
  5
1C15
331
199C
  5
19A7
331
19A4
  5
19AF
331
1A0B
  5
2014
331
19AC
  5
19B7
331
19B4
  5
19E2
331
2744
  5
2746
331
253E
  5
2543
331
274C
  5
274E
331
2546
  5
25B5
331
2754
  5
2756
331
275C
  5
275E
331
25B6
  5
C84
331
C82
  5
1487
331
8F3
  5
C48
331
C8A
  5
18DC
331
2185
  5
219E
331
2037
  5
2048
331
23A2
  5
23A8
331
23AA
  5
244A
331
19DC
  5
1A0A
331
198D
  5
1998
331
1995
  5
19A0
331
2764
  5
2766
331
2735
  5
2737
331
273D
  5
273F
331
C0B
  5
C87
331
20A7
  5
20B2
331
2018
  5
2029
331
237B
  5
2386
331
20AF
  5
20BA
331
2020
  5
202B
331
2462
  5
2465
331
2383
  5
2389
331
20B7
  5
20CB
331
238B
  5
23A1
331
199D
  5
19A8
331
19A5
  5
19B0
331
1A0C
  5
2015
331
19AD
  5
19DB
331
19B5
  5
19FB
331
2745
  5
2747
331
253F
  5
2544
331
274D
  5
274F
331
2547
  5
25B6
331
2755
  5
2757
331
275D
  5
275F
331
C83
  5
14D9
331
C8B
  5
18DD
331
23A3
  5
23A9
331
2157
  5
2161
331
23AB
  5
244B
331
1986
  5
1991
331
19DD
  5
1A0B
331
198E
  5
1999
331
1996
  5
19A1
331
2765
  5
2767
331
2736
  5
2738
331
273E
  5
2740
331
216F
  5
2175
331
20A8
  5
20B3
331
20B0
  5
20BB
331
2021
  5
202C
331
2463
  5
253A
331
2384
  5
238A
331
217F
  5
2185
331
20B8
  5
20FF
331
238C
  5
23A2
331
199E
  5
19A9
331
19A6
  5
19B1
331
19AE
  5
19DC
331
19B6
  5
1A08
331
2746
  5
2748
331
274E
  5
2750
331
2756
  5
2758
331
275E
  5
2760
331
C84
  5
158B
331
2031
  5
2042
331
23A4
  5
23AA
331
23AC
  5
2460
331
2160
  5
2167
331
1987
  5
1992
331
19DE
  5
1A0C
331
198F
  5
199A
331
1997
  5
19A2
331
2766
  5
2768
331
2737
  5
2739
331
273F
  5
2741
331
C0D
  5
C89
331
C2D
  5
C8C
331
2170
  5
2176
331
20A9
  5
20B4
331
23FC
  5
2462
331
2178
  5
217E
331
20B1
  5
20BC
331
2022
  5
2040
331
2464
  5
253B
331
2385
  5
238B
331
20B9
  5
215A
331
238D
  5
23A3
331
199F
  5
19AA
331
19A7
  5
19B2
331
1908
  5
1990
331
19AF
  5
19DD
331
2747
  5
2749
331
274F
  5
2751
331
2757
  5
2759
331
275F
  5
2761
331
277
  5
C46
331
C8D
  5
18E4
331
8FE
  5
C82
331
906
  5
C83
331
2180
  5
2186
331
2032
  5
2043
331
23A5
  5
23AB
331
23AD
  5
2461
331
1988
  5
1993
331
19DF
  5
1A11
331
1990
  5
199B
331
2767
  5
2769
331
2738
  5
273A
331
20AA
  5
20B5
  0
NEWSTDPARTPARLIST
  5
23B7
102
{ACAD_REACTORS
330
23B6
102
}
330
23B6
100
AmgNewParListFiler
 90
        0
 90
     8192
 90
        8
 90
        6
300
Version
 90
     8192
 90
        3
 40
15.0
300
Info
 90
     8192
 90
        8
 90
        1
300
AmInfo
 90
     8192
 90
        8
 90
        3
300
5
 90
     8192
 90
        4
300
(gefmsg gefscrnt 1260)
300
7
 90
     8192
 90
        4
300
JIS B 0207 - M9 x 1
300
DefPos
 90
     8192
 90
        6
 10
149.2207760592692
 20
298.0496082312365
 30
0.0
300
AmValTable
 90
     8192
 90
        8
 90
       23
300
NND
 90
     8961
 90
        3
 40
9.0
300
PRE
 90
     8192
 90
        4
300
M
300
SIZE
 90
     8192
 90
        4
300
M9 x 1
300
INFO
 90
     8192
 90
        1
 90
        0
300
STDRT
 90
     8192
 90
        4
300
JIS B 0207 - M9 x 1
300
TOA
 90
     8962
 90
        3
 40
0.5235987755982988
300
GEV_BRK
 90
     8192
 90
        1
 90
        1
300
PLMSK
 90
     8192
 90
        4
300

300
CON
 90
     8192
 90
        4
300
x
300
GD1
 90
     8961
 90
        3
 40
7.917468245269537
300
DESCR
 90
     8192
 90
        4
300
(gefmsg gefscrnt 1260)
300
PAST
 90
     8192
 90
        4
300
C
300
REST
 90
     8192
 90
        4
300
O
300
STDPART
 90
     8192
 90
        1
 90
        0
300
PTC
 90
     8961
 90
        3
 40
1.0
300
IDN
 90
     8192
 90
        4
300

300
TPU
 90
     8192
 90
        3
 40
1.0
300
ThreadID
 90
     8192
 90
        4
300
M9x1
300
RID
 90
     8192
 90
        4
300
G_200
300
GAL
 90
     8961
 90
        3
 40
0.5412660000000001
300
GUL
 90
     8961
 90
        3
 40
0.5412660000000001
300
DESCR_1
 90
     8192
 90
        4
300
(gefmsg gefscrnt 1260)
300
STDRT_1
 90
     8192
 90
        4
300
JIS B 0207
300
System
 90
     8192
 90
        8
 90
       32
300
Info
 90
     8192
 90
        1
 90
        0
300
InsVecX
 90
     8192
 90
        7
210
1.0
220
0.0
230
0.0
300
InsVecY
 90
     8192
 90
        7
210
0.0
220
1.0
230
0.0
300
InsPnt
 90
     8192
 90
        6
 10
149.2207760592692
 20
298.0496082312365
 30
0.0
300
DBBranch
 90
     8192
 90
        4
300
/AMSTD/JIS/FEAT/SHFT/ISHFTSGMNT/JI1624/F
300
Locator
 90
     8192
 90
        4
300

300
LGroup1
 90
     8192
 90
     4100
300
AM_0
300
LGroup0
 90
     8192
 90
     4100
300
AM_0
300
Desc
 90
     8192
 90
        4
300

300
CHtc
 90
     8192
 90
        1
 90
        1
300
Hide
 90
     8192
 90
        1
 90
        1
300
CenPLen
 90
     8192
 90
        3
 40
-1.5
300
Gupi
 90
     8192
 90
        4
300
G3V<></AMSTD/JIS/FEAT/SHFT/ISHFTSGMNT/JI1624><AmValTable.RID="G_200">
300
Length
 90
     8192
 90
        4
300
mm
300
DwgScaleType
 90
     8192
 90
        1
 90
        0
300
PV_AMSTD
 90
     9219
 90
 16777220
300
\
300
PartType
 90
     8192
 90
        1
 90
       -1
300
FLIPX
 90
     8192
 90
603979777
 90
        1
300
FLIPY
 90
     8192
 90
603979777
 90
        1
300
HideRep
 90
     8192
 90
        1
 90
        0
300
dimArrange
 90
     8192
 90
        1
 90
        1
300
CHid
 90
     8192
 90
        1
 90
        1
300
RepType
 90
     8192
 90
        1
 90
        3
300
CSym
 90
     8192
 90
        1
 90
        1
300
CCen
 90
     8192
 90
        1
 90
        0
300
DwgScale
 90
     8192
 90
        3
 40
0.5
300
LGroup
 90
     8192
 90
        4
300
AM_0
300
PV_JIS
 90
     9219
 90
 16777220
300
c:\program files\mdt\acadm\gef\gdb\jis\
300
Var
 90
     9217
 90
 16777220
300
c:\program files\mdt\acadm\gef\gdb\sys\Feat\Shft\IShftSgmnt\SY6500_V.DXF
300
AMSYS
 90
     9219
 90
 16777220
300
c:\program files\mdt\acadm\gef\gdb\jis\..\SYS\
300
3VIEW
 90
     9217
 90
 16777220
300
c:\program files\mdt\acadm\gef\gdb\sys\Feat\Shft\IShftSgmnt\sy6500.jpg
300
PVIEW
 90
     9217
 90
 16777220
300
c:\program files\mdt\acadm\gef\gdb\sys\Feat\Shft\IShftSgmnt\sy6500_V.sle
300
Parameter
 90
     8192
 90
        8
 90
        5
300
EGR
 90
     8192
 90
        1
 90
        2
300
AMVALFNAME
 90
     9217
 90
  2097156
300
c:\program files\mdt\acadm\gef\gdb\jis\Feat\IThread\Thrgh\ji1624.val
300
nlg
 90
     8192
 90
     4099
 40
6.0
300
l
 90
     8192
 90
     4099
 40
6.0
300
AmValTable.RID
 90
     8192
 90
603979780
300
G_200
300
Caller
 90
     8192
 90
        8
 90
        3
300
Service
 90
     8192
 90
        4
300
AmSrv/SrvSgl
300
UknSrv
 90
     8192
 90
        1
 90
        1
300
Rule
 90
     8192
 90
        4
300
Amrul/Rulsgl/IShaftThread
  0
XRECORD
  5
2917
102
{ACAD_REACTORS
330
2916
102
}
330
2916
100
AcDbXrecord
280
     1
 70
     1
  0
XRECORD
  5
2919
102
{ACAD_REACTORS
330
2916
102
}
330
2916
100
AcDbXrecord
280
     1
340
14
  0
XRECORD
  5
291A
102
{ACAD_REACTORS
330
2916
102
}
330
2916
100
AcDbXrecord
280
     1
340
14
  0
XRECORD
  5
2918
102
{ACAD_REACTORS
330
2916
102
}
330
2916
100
AcDbXrecord
280
     1
340
14
  0
LAYOUT
  5
22
102
{ACAD_XDICTIONARY
360
21DE
102
}
102
{ACAD_REACTORS
330
1A
102
}
330
1A
100
AcDbPlotSettings
  1

  2
RICOH imagio MP 5000 RPCS
  4
A3
  6
AM_VIEW1
 40
5.873749732971191
 41
5.873747825622558
 42
5.873748779296875
 43
5.873748779296875
 44
296.9259948730469
 45
419.9466552734374
 46
-5.910751819610652
 47
-5.921849237169567
 48
0.0
 49
0.0
140
0.0
141
0.0
142
1.0
143
0.5
 70
 11956
 72
     1
 73
     1
 74
     2
  7
IMAGIO.ctb
 75
    27
147
2.0
148
-111.9519891780935
149
-253.7721357807053
100
AcDbLayout
  1
Model
 70
     1
 71
     0
 10
0.0
 20
0.0
 11
12.0
 21
9.0
 12
0.0
 22
0.0
 32
0.0
 14
0.0
 24
0.0
 34
0.0
 15
0.0
 25
0.0
 35
0.0
146
0.0
 13
0.0
 23
0.0
 33
0.0
 16
1.0
 26
0.0
 36
0.0
 17
0.0
 27
1.0
 37
0.0
 76
     0
330
1F
331
17F3
1001
ACAD_PSEXT
1000
RICOH imagio MP 5000 RPCS
1000
RICOH imagio MP 5000 RPCS
1000
192.168.1.151@
1000
RPCS Driver (Windows 2000/XP/Server 2003/Vista)
1070
     0
  0
LAYOUT
  5
1E
102
{ACAD_XDICTIONARY
360
291B
102
}
102
{ACAD_REACTORS
330
1A
102
}
330
1A
100
AcDbPlotSettings
  1

  2
MF2730
  4

  6

 40
0.0
 41
0.0
 42
0.0
 43
0.0
 44
0.0
 45
0.0
 46
0.0
 47
0.0
 48
0.0
 49
0.0
140
0.0
141
0.0
142
1.0
143
1.0
 70
   688
 72
     0
 73
     0
 74
     5
  7
IMAGIO.ctb
 75
    16
147
1.0
148
0.0
149
0.0
100
AcDbLayout
  1
ﾚｲｱｳﾄ1
 70
     1
 71
     1
 10
0.0
 20
0.0
 11
420.0
 21
297.0
 12
0.0
 22
0.0
 32
0.0
 14
1.000000000000000E+20
 24
1.000000000000000E+20
 34
1.000000000000000E+20
 15
-1.000000000000000E+20
 25
-1.000000000000000E+20
 35
-1.000000000000000E+20
146
0.0
 13
0.0
 23
0.0
 33
0.0
 16
1.0
 26
0.0
 36
0.0
 17
0.0
 27
1.0
 37
0.0
 76
     0
330
1B
  0
LAYOUT
  5
26
102
{ACAD_XDICTIONARY
360
291E
102
}
102
{ACAD_REACTORS
330
1A
102
}
330
1A
100
AcDbPlotSettings
  1

  2
MF2730
  4

  6

 40
0.0
 41
0.0
 42
0.0
 43
0.0
 44
0.0
 45
0.0
 46
0.0
 47
0.0
 48
0.0
 49
0.0
140
0.0
141
0.0
142
1.0
143
1.0
 70
   688
 72
     0
 73
     0
 74
     5
  7
IMAGIO.ctb
 75
    16
147
1.0
148
0.0
149
0.0
100
AcDbLayout
  1
ﾚｲｱｳﾄ2
 70
     1
 71
     2
 10
0.0
 20
0.0
 11
12.0
 21
9.0
 12
0.0
 22
0.0
 32
0.0
 14
0.0
 24
0.0
 34
0.0
 15
0.0
 25
0.0
 35
0.0
146
0.0
 13
0.0
 23
0.0
 33
0.0
 16
1.0
 26
0.0
 36
0.0
 17
0.0
 27
1.0
 37
0.0
 76
     0
330
23
  0
MATERIAL
  5
17F7
102
{ACAD_XDICTIONARY
360
2922
102
}
102
{ACAD_REACTORS
330
17F5
102
}
330
17F5
100
AcDbMaterial
  1
ByBlock
 73
     1
 78
     1
172
     1
176
     1
270
     1
274
     1
  0
MATERIAL
  5
17F6
102
{ACAD_XDICTIONARY
360
2920
102
}
102
{ACAD_REACTORS
330
17F5
102
}
330
17F5
100
AcDbMaterial
  1
ByLayer
 73
     1
 78
     1
172
     1
176
     1
270
     1
274
     1
  0
MATERIAL
  5
17F8
102
{ACAD_XDICTIONARY
360
2924
102
}
102
{ACAD_REACTORS
330
17F5
102
}
330
17F5
100
AcDbMaterial
  1
Global
 73
     1
 78
     1
172
     1
176
     1
270
     1
274
     1
  0
MLEADERSTYLE
  5
1F94
102
{ACAD_REACTORS
330
1F93
102
}
330
1F93
100
AcDbMLeaderStyle
170
     2
171
     1
172
     0
 90
        2
 40
0.0
 41
0.0
173
     1
 91
-1056964608
340
14
 92
       -2
290
     1
 42
2.0
291
     1
 43
0.36
  3
Standard
 44
4.0
300

342
11
174
     1
178
     6
175
     1
176
     0
 93
-1056964608
 45
4.0
292
     0
297
     0
 46
4.0
 94
-1056964608
 47
1.0
 49
1.0
140
1.0
293
     1
141
0.0
294
     1
177
     0
142
1.0
295
     0
296
     0
143
0.125
1001
ACAD_MLEADERVER
1070
     2
  0
MLINESTYLE
  5
18
102
{ACAD_REACTORS
330
17
102
}
330
17
100
AcDbMlineStyle
  2
STANDARD
 70
     0
  3

 62
   256
 51
90.0
 52
90.0
 71
     2
 49
0.5
 62
   256
  6
BYLAYER
 49
-0.5
 62
   256
  6
BYLAYER
  0
ACDBPLACEHOLDER
  5
F
102
{ACAD_REACTORS
330
E
102
}
330
E
  0
SCALE
  5
1F82
102
{ACAD_REACTORS
330
1F81
102
}
330
1F81
100
AcDbScale
 70
     0
300
1:1
140
1.0
141
1.0
290
     1
  0
SCALE
  5
1F83
102
{ACAD_REACTORS
330
1F81
102
}
330
1F81
100
AcDbScale
 70
     0
300
1:2
140
1.0
141
2.0
290
     0
  0
SCALE
  5
1F84
102
{ACAD_REACTORS
330
1F81
102
}
330
1F81
100
AcDbScale
 70
     0
300
1:4
140
1.0
141
4.0
290
     0
  0
SCALE
  5
1F85
102
{ACAD_REACTORS
330
1F81
102
}
330
1F81
100
AcDbScale
 70
     0
300
1:5
140
1.0
141
5.0
290
     0
  0
SCALE
  5
1F86
102
{ACAD_REACTORS
330
1F81
102
}
330
1F81
100
AcDbScale
 70
     0
300
1:8
140
1.0
141
8.0
290
     0
  0
SCALE
  5
1F87
102
{ACAD_REACTORS
330
1F81
102
}
330
1F81
100
AcDbScale
 70
     0
300
1:10
140
1.0
141
10.0
290
     0
  0
SCALE
  5
1F88
102
{ACAD_REACTORS
330
1F81
102
}
330
1F81
100
AcDbScale
 70
     0
300
1:16
140
1.0
141
16.0
290
     0
  0
SCALE
  5
1F89
102
{ACAD_REACTORS
330
1F81
102
}
330
1F81
100
AcDbScale
 70
     0
300
1:20
140
1.0
141
20.0
290
     0
  0
SCALE
  5
1F8A
102
{ACAD_REACTORS
330
1F81
102
}
330
1F81
100
AcDbScale
 70
     0
300
1:30
140
1.0
141
30.0
290
     0
  0
SCALE
  5
1F8B
102
{ACAD_REACTORS
330
1F81
102
}
330
1F81
100
AcDbScale
 70
     0
300
1:40
140
1.0
141
40.0
290
     0
  0
SCALE
  5
1F8C
102
{ACAD_REACTORS
330
1F81
102
}
330
1F81
100
AcDbScale
 70
     0
300
1:50
140
1.0
141
50.0
290
     0
  0
SCALE
  5
1F8D
102
{ACAD_REACTORS
330
1F81
102
}
330
1F81
100
AcDbScale
 70
     0
300
1:100
140
1.0
141
100.0
290
     0
  0
SCALE
  5
1F8E
102
{ACAD_REACTORS
330
1F81
102
}
330
1F81
100
AcDbScale
 70
     0
300
2:1
140
2.0
141
1.0
290
     0
  0
SCALE
  5
1F8F
102
{ACAD_REACTORS
330
1F81
102
}
330
1F81
100
AcDbScale
 70
     0
300
4:1
140
4.0
141
1.0
290
     0
  0
SCALE
  5
1F90
102
{ACAD_REACTORS
330
1F81
102
}
330
1F81
100
AcDbScale
 70
     0
300
8:1
140
8.0
141
1.0
290
     0
  0
SCALE
  5
1F91
102
{ACAD_REACTORS
330
1F81
102
}
330
1F81
100
AcDbScale
 70
     0
300
10:1
140
10.0
141
1.0
290
     0
  0
SCALE
  5
1F92
102
{ACAD_REACTORS
330
1F81
102
}
330
1F81
100
AcDbScale
 70
     0
300
100:1
140
100.0
141
1.0
290
     0
  0
TABLESTYLE
  5
180C
102
{ACAD_XDICTIONARY
360
21E0
102
}
102
{ACAD_REACTORS
330
180B
102
}
330
180B
100
AcDbTableStyle
  3
Standard
 70
     0
 71
     0
 40
1.5
 41
1.5
280
     0
281
     0
  7
STANDARD
140
4.5
170
     2
 62
     0
 63
     7
283
     0
274
    -2
284
     1
 64
     0
275
    -2
285
     1
 65
     0
276
    -2
286
     1
 66
     0
277
    -2
287
     1
 67
     0
278
    -2
288
     1
 68
     0
279
    -2
289
     1
 69
     0
  7
STANDARD
140
6.0
170
     5
 62
     0
 63
     7
283
     0
274
    -2
284
     1
 64
     0
275
    -2
285
     1
 65
     0
276
    -2
286
     1
 66
     0
277
    -2
287
     1
 67
     0
278
    -2
288
     1
 68
     0
279
    -2
289
     1
 69
     0
  7
STANDARD
140
4.5
170
     5
 62
     0
 63
     7
283
     0
274
    -2
284
     1
 64
     0
275
    -2
285
     1
 65
     0
276
    -2
286
     1
 66
     0
277
    -2
287
     1
 67
     0
278
    -2
288
     1
 68
     0
279
    -2
289
     1
 69
     0
  0
VISUALSTYLE
  5
17FF
102
{ACAD_XDICTIONARY
360
2930
102
}
102
{ACAD_REACTORS
330
17F9
102
}
330
17F9
100
AcDbVisualStyle
  2
2dWireframe
 70
     4
 71
     0
 72
     2
 73
     0
 90
        0
 40
-0.6
 41
-30.0
 62
     5
 63
     7
 74
     1
 91
        4
 64
     7
 65
   257
 75
     1
175
     1
 42
1.0
 92
        0
 66
   257
 43
1.0
 76
     1
 77
     6
 78
     2
 67
     7
 79
     5
170
     0
171
     0
290
     0
174
     0
 93
        1
 44
0.0
173
     0
291
     0
 45
0.0
1001
ACAD
1000
AcDbSavedByObjectVersion
1070
     0
  0
VISUALSTYLE
  5
1801
102
{ACAD_XDICTIONARY
360
2934
102
}
102
{ACAD_REACTORS
330
17F9
102
}
330
17F9
100
AcDbVisualStyle
  2
3D Hidden
 70
     6
 71
     1
 72
     2
 73
     2
 90
        0
 40
-0.6
 41
-30.0
 62
     5
 63
     7
 74
     2
 91
        2
 64
     7
 65
   257
 75
     2
175
     1
 42
40.0
 92
        0
 66
   257
 43
1.0
 76
     1
 77
     6
 78
     2
 67
     7
 79
     3
170
     0
171
     0
290
     0
174
     0
 93
        1
 44
0.0
173
     0
291
     0
 45
0.0
1001
ACAD
1000
AcDbSavedByObjectVersion
1070
     0
  0
VISUALSTYLE
  5
1800
102
{ACAD_XDICTIONARY
360
2932
102
}
102
{ACAD_REACTORS
330
17F9
102
}
330
17F9
100
AcDbVisualStyle
  2
3dWireframe
 70
     5
 71
     0
 72
     2
 73
     0
 90
        0
 40
-0.6
 41
-30.0
 62
     5
 63
     7
 74
     1
 91
        4
 64
     7
 65
   257
 75
     1
175
     1
 42
1.0
 92
        0
 66
   257
 43
1.0
 76
     1
 77
     6
 78
     2
 67
     7
 79
     5
170
     0
171
     0
290
     0
174
     0
 93
        1
 44
0.0
173
     0
291
     0
 45
0.0
1001
ACAD
1000
AcDbSavedByObjectVersion
1070
     0
  0
VISUALSTYLE
  5
17FE
102
{ACAD_XDICTIONARY
360
292E
102
}
102
{ACAD_REACTORS
330
17F9
102
}
330
17F9
100
AcDbVisualStyle
  2
Basic
 70
     7
 71
     1
 72
     0
 73
     1
 90
        0
 40
-0.6
 41
-30.0
 62
     5
 63
     7
 74
     0
 91
        4
 64
     7
 65
   257
 75
     1
175
     1
 42
1.0
 92
        8
 66
     7
 43
1.0
 76
     1
 77
     6
 78
     2
 67
     7
 79
     5
170
     0
171
     0
290
     0
174
     0
 93
        1
 44
0.0
173
     0
291
     1
 45
0.0
1001
ACAD
1000
AcDbSavedByObjectVersion
1070
     0
  0
VISUALSTYLE
  5
1805
102
{ACAD_XDICTIONARY
360
293C
102
}
102
{ACAD_REACTORS
330
17F9
102
}
330
17F9
100
AcDbVisualStyle
  2
Brighten
 70
    12
 71
     2
 72
     2
 73
     0
 90
        0
 40
-0.6
 41
-30.0
 62
     5
 63
     7
 74
     1
 91
        4
 64
     7
 65
   257
 75
     1
175
     1
 42
1.0
 92
        8
 66
     7
 43
1.0
 76
     1
 77
     6
 78
     2
 67
     7
 79
     5
170
     0
171
     0
290
     0
174
     0
 93
        1
 44
50.0
173
     0
291
     1
 45
0.0
1001
ACAD
1000
AcDbSavedByObjectVersion
1070
     0
  0
VISUALSTYLE
  5
1809
102
{ACAD_XDICTIONARY
360
2944
102
}
102
{ACAD_REACTORS
330
17F9
102
}
330
17F9
100
AcDbVisualStyle
  2
ColorChange
 70
    16
 71
     2
 72
     2
 73
     3
 90
        0
 40
-0.6
 41
-30.0
 62
     5
 63
     8
 74
     1
 91
        4
 64
     7
 65
   257
 75
     1
175
     1
 42
1.0
 92
        8
 66
     8
 43
1.0
 76
     1
 77
     6
 78
     2
 67
     7
 79
     5
170
     0
171
     0
290
     0
174
     0
 93
        1
 44
0.0
173
     0
291
     1
 45
0.0
1001
ACAD
1000
AcDbSavedByObjectVersion
1070
     0
  0
VISUALSTYLE
  5
1802
102
{ACAD_XDICTIONARY
360
2936
102
}
102
{ACAD_REACTORS
330
17F9
102
}
330
17F9
100
AcDbVisualStyle
  2
Conceptual
 70
     9
 71
     3
 72
     2
 73
     0
 90
        0
 40
-0.6
 41
-30.0
 62
     5
 63
     7
 74
     2
 91
        2
 64
     7
 65
   257
 75
     1
175
     1
 42
40.0
 92
        8
 66
     7
 43
1.0
 76
     1
 77
     6
 78
     2
 67
     7
 79
     3
170
     0
171
     0
290
     0
174
     0
 93
        1
 44
0.0
173
     0
291
     0
 45
0.0
1001
ACAD
1000
AcDbSavedByObjectVersion
1070
     0
  0
VISUALSTYLE
  5
1804
102
{ACAD_XDICTIONARY
360
293A
102
}
102
{ACAD_REACTORS
330
17F9
102
}
330
17F9
100
AcDbVisualStyle
  2
Dim
 70
    11
 71
     2
 72
     2
 73
     0
 90
        0
 40
-0.6
 41
-30.0
 62
     5
 63
     7
 74
     1
 91
        4
 64
     7
 65
   257
 75
     1
175
     1
 42
1.0
 92
        8
 66
     7
 43
1.0
 76
     1
 77
     6
 78
     2
 67
     7
 79
     5
170
     0
171
     0
290
     0
174
     0
 93
        1
 44
-50.0
173
     0
291
     1
 45
0.0
1001
ACAD
1000
AcDbSavedByObjectVersion
1070
     0
  0
VISUALSTYLE
  5
1F80
102
{ACAD_XDICTIONARY
360
2959
102
}
102
{ACAD_REACTORS
330
17F9
102
}
330
17F9
100
AcDbVisualStyle
  2
EdgeColorOff
 70
    22
 71
     2
 72
     2
 73
     0
 90
        0
 40
-0.6
 41
-30.0
 62
     5
 63
     7
 74
     1
 91
        4
 64
     7
 65
   257
 75
     1
175
     1
 42
1.0
 92
        8
 66
     7
 43
1.0
 76
     1
 77
     6
 78
     2
 67
     7
 79
     5
170
     0
171
     0
290
     0
174
     0
 93
        1
 44
0.0
173
     0
291
     1
 45
0.0
1001
ACAD
1000
AcDbSavedByObjectVersion
1070
     0
  0
VISUALSTYLE
  5
1808
102
{ACAD_XDICTIONARY
360
2942
102
}
102
{ACAD_REACTORS
330
17F9
102
}
330
17F9
100
AcDbVisualStyle
  2
Facepattern
 70
    15
 71
     2
 72
     2
 73
     0
 90
        0
 40
-0.6
 41
-30.0
 62
     5
 63
     7
 74
     1
 91
        4
 64
     7
 65
   257
 75
     1
175
     1
 42
1.0
 92
        8
 66
     7
 43
1.0
 76
     1
 77
     6
 78
     2
 67
     7
 79
     5
170
     0
171
     0
290
     0
174
     0
 93
        1
 44
0.0
173
     0
291
     1
 45
0.0
1001
ACAD
1000
AcDbSavedByObjectVersion
1070
     0
  0
VISUALSTYLE
  5
17FA
102
{ACAD_XDICTIONARY
360
2926
102
}
102
{ACAD_REACTORS
330
17F9
102
}
330
17F9
100
AcDbVisualStyle
  2
Flat
 70
     0
 71
     2
 72
     1
 73
     1
 90
        2
 40
-0.6
 41
30.0
 62
     5
 63
     7
 74
     0
 91
        4
 64
     7
 65
   257
 75
     1
175
     1
 42
1.0
 92
        8
 66
     7
 43
1.0
 76
     1
 77
     6
 78
     2
 67
     7
 79
     5
170
     0
171
     0
290
     0
174
     0
 93
       13
 44
0.0
173
     0
291
     1
 45
0.0
1001
ACAD
1000
AcDbSavedByObjectVersion
1070
     0
  0
VISUALSTYLE
  5
17FB
102
{ACAD_XDICTIONARY
360
2928
102
}
102
{ACAD_REACTORS
330
17F9
102
}
330
17F9
100
AcDbVisualStyle
  2
FlatWithEdges
 70
     1
 71
     2
 72
     1
 73
     1
 90
        2
 40
-0.6
 41
30.0
 62
     5
 63
     7
 74
     1
 91
        4
 64
     7
 65
   257
 75
     1
175
     1
 42
1.0
 92
        0
 66
   257
 43
1.0
 76
     1
 77
     6
 78
     2
 67
     7
 79
     5
170
     0
171
     0
290
     0
174
     0
 93
       13
 44
0.0
173
     0
291
     1
 45
0.0
1001
ACAD
1000
AcDbSavedByObjectVersion
1070
     0
  0
VISUALSTYLE
  5
17FC
102
{ACAD_XDICTIONARY
360
292A
102
}
102
{ACAD_REACTORS
330
17F9
102
}
330
17F9
100
AcDbVisualStyle
  2
Gouraud
 70
     2
 71
     2
 72
     2
 73
     1
 90
        2
 40
-0.6
 41
30.0
 62
     5
 63
     7
 74
     0
 91
        4
 64
     7
 65
   257
 75
     1
175
     1
 42
1.0
 92
        0
 66
     7
 43
1.0
 76
     1
 77
     6
 78
     2
 67
     7
 79
     5
170
     0
171
     0
290
     0
174
     0
 93
       13
 44
0.0
173
     0
291
     1
 45
0.0
1001
ACAD
1000
AcDbSavedByObjectVersion
1070
     0
  0
VISUALSTYLE
  5
17FD
102
{ACAD_XDICTIONARY
360
292C
102
}
102
{ACAD_REACTORS
330
17F9
102
}
330
17F9
100
AcDbVisualStyle
  2
GouraudWithEdges
 70
     3
 71
     2
 72
     2
 73
     1
 90
        2
 40
-0.6
 41
30.0
 62
     5
 63
     7
 74
     1
 91
        4
 64
     7
 65
   257
 75
     1
175
     1
 42
1.0
 92
        0
 66
   257
 43
1.0
 76
     1
 77
     6
 78
     2
 67
     7
 79
     5
170
     0
171
     0
290
     0
174
     0
 93
       13
 44
0.0
173
     0
291
     1
 45
0.0
1001
ACAD
1000
AcDbSavedByObjectVersion
1070
     0
  0
VISUALSTYLE
  5
1F78
102
{ACAD_XDICTIONARY
360
2949
102
}
102
{ACAD_REACTORS
330
17F9
102
}
330
17F9
100
AcDbVisualStyle
  2
Hidden
 70
     6
 71
     1
 72
     2
 73
     2
 90
        0
 40
-0.6
 41
-30.0
 62
     5
 63
     7
 74
     2
 91
        2
 64
     7
 65
   257
 75
     2
175
     1
 42
40.0
 92
        0
 66
   257
 43
1.0
 76
     1
 77
     6
 78
     2
 67
     7
 79
     3
170
     0
171
     0
290
     0
174
     0
 93
        1
 44
0.0
173
     0
291
     0
 45
0.0
1001
ACAD
1000
AcDbSavedByObjectVersion
1070
     0
  0
VISUALSTYLE
  5
1F7E
102
{ACAD_XDICTIONARY
360
2955
102
}
102
{ACAD_REACTORS
330
17F9
102
}
330
17F9
100
AcDbVisualStyle
  2
JitterOff
 70
    20
 71
     2
 72
     2
 73
     0
 90
        0
 40
-0.6
 41
-30.0
 62
     5
 63
     7
 74
     1
 91
        4
 64
     7
 65
   257
 75
     1
175
     1
 42
1.0
 92
       10
 66
     7
 43
1.0
 76
     1
 77
     6
 78
     2
 67
     7
 79
     5
170
     0
171
     0
290
     0
174
     0
 93
        1
 44
0.0
173
     0
291
     1
 45
0.0
1001
ACAD
1000
AcDbSavedByObjectVersion
1070
     0
  0
VISUALSTYLE
  5
1807
102
{ACAD_XDICTIONARY
360
2940
102
}
102
{ACAD_REACTORS
330
17F9
102
}
330
17F9
100
AcDbVisualStyle
  2
Linepattern
 70
    14
 71
     2
 72
     2
 73
     0
 90
        0
 40
-0.6
 41
-30.0
 62
     5
 63
     7
 74
     1
 91
        4
 64
     7
 65
   257
 75
     7
175
     7
 42
1.0
 92
        8
 66
     7
 43
1.0
 76
     1
 77
     6
 78
     2
 67
     7
 79
     5
170
     0
171
     0
290
     0
174
     0
 93
        1
 44
0.0
173
     0
291
     1
 45
0.0
1001
ACAD
1000
AcDbSavedByObjectVersion
1070
     0
  0
VISUALSTYLE
  5
1F7F
102
{ACAD_XDICTIONARY
360
2957
102
}
102
{ACAD_REACTORS
330
17F9
102
}
330
17F9
100
AcDbVisualStyle
  2
OverhangOff
 70
    21
 71
     2
 72
     2
 73
     0
 90
        0
 40
-0.6
 41
-30.0
 62
     5
 63
     7
 74
     1
 91
        4
 64
     7
 65
   257
 75
     1
175
     1
 42
1.0
 92
        9
 66
     7
 43
1.0
 76
     1
 77
     6
 78
     2
 67
     7
 79
     5
170
     0
171
     0
290
     0
174
     0
 93
        1
 44
0.0
173
     0
291
     1
 45
0.0
1001
ACAD
1000
AcDbSavedByObjectVersion
1070
     0
  0
VISUALSTYLE
  5
1803
102
{ACAD_XDICTIONARY
360
2938
102
}
102
{ACAD_REACTORS
330
17F9
102
}
330
17F9
100
AcDbVisualStyle
  2
Realistic
 70
     8
 71
     2
 72
     2
 73
     0
 90
        0
 40
-0.6
 41
-30.0
 62
     5
 63
     7
 74
     1
 91
        0
 64
     7
 65
   257
 75
     1
175
     1
 42
1.0
 92
        8
 66
     8
 43
1.0
 76
     1
 77
     6
 78
     2
 67
     7
 79
     5
170
     0
171
     0
290
     0
174
     0
 93
       13
 44
0.0
173
     0
291
     0
 45
0.0
1001
ACAD
1000
AcDbSavedByObjectVersion
1070
     0
  0
VISUALSTYLE
  5
1F7D
102
{ACAD_XDICTIONARY
360
2953
102
}
102
{ACAD_REACTORS
330
17F9
102
}
330
17F9
100
AcDbVisualStyle
  2
Shaded
 70
    27
 71
     2
 72
     2
 73
     1
 90
        2
 40
-0.6
 41
30.0
 62
     5
 63
     7
 74
     0
 91
        4
 64
     7
 65
   257
 75
     1
175
     1
 42
1.0
 92
        8
 66
   257
 43
1.0
 76
     1
 77
     6
 78
     2
 67
     8
 79
     3
170
     0
171
     0
290
     0
174
     0
 93
        5
 44
0.0
173
     0
291
     0
 45
0.0
1001
ACAD
1000
AcDbSavedByObjectVersion
1070
     0
  0
VISUALSTYLE
  5
1F7C
102
{ACAD_XDICTIONARY
360
2951
102
}
102
{ACAD_REACTORS
330
17F9
102
}
330
17F9
100
AcDbVisualStyle
  2
Shaded with edges
 70
    26
 71
     2
 72
     2
 73
     1
 90
        2
 40
-0.6
 41
30.0
 62
     5
 63
     7
 74
     1
 91
       10
 64
     7
 65
   257
 75
     2
175
     1
 42
1.0
 92
        8
 66
   257
 43
1.0
 76
     1
 77
     6
 78
     2
 67
     7
 79
     3
170
     0
171
     0
290
     0
174
     0
 93
        5
 44
0.0
173
     0
291
     0
 45
0.0
1001
ACAD
1000
AcDbSavedByObjectVersion
1070
     0
  0
VISUALSTYLE
  5
1F79
102
{ACAD_XDICTIONARY
360
294B
102
}
102
{ACAD_REACTORS
330
17F9
102
}
330
17F9
100
AcDbVisualStyle
  2
Shades of Gray
 70
    23
 71
     2
 72
     2
 73
     3
 90
        0
 40
-0.6
 41
-30.0
 62
     5
 63
     7
 74
     2
 91
        2
 64
     7
 65
     7
 75
     1
175
     1
 42
40.0
 92
        8
 66
     7
 43
1.0
 76
     1
 77
     6
 78
     2
 67
     7
 79
     3
170
     0
171
     0
290
     0
174
     0
 93
        1
 44
0.0
173
     0
291
     0
 45
0.0
1001
ACAD
1000
AcDbSavedByObjectVersion
1070
     0
  0
VISUALSTYLE
  5
1F7A
102
{ACAD_XDICTIONARY
360
294D
102
}
102
{ACAD_REACTORS
330
17F9
102
}
330
17F9
100
AcDbVisualStyle
  2
Sketchy
 70
    24
 71
     1
 72
     2
 73
     2
 90
        0
 40
-0.6
 41
-30.0
 62
     5
 63
     7
 74
     2
 91
        2
 64
     7
 65
     7
 75
     1
175
     1
 42
40.0
 92
       11
 66
     7
 43
1.0
 76
     1
 77
     6
 78
     2
 67
     7
 79
     6
170
     0
171
     0
290
     0
174
     0
 93
        1
 44
0.0
173
     0
291
     0
 45
0.0
1001
ACAD
1000
AcDbSavedByObjectVersion
1070
     0
  0
VISUALSTYLE
  5
1806
102
{ACAD_XDICTIONARY
360
293E
102
}
102
{ACAD_REACTORS
330
17F9
102
}
330
17F9
100
AcDbVisualStyle
  2
Thicken
 70
    13
 71
     2
 72
     2
 73
     0
 90
        0
 40
-0.6
 41
-30.0
 62
     5
 63
     7
 74
     1
 91
        4
 64
     7
 65
   257
 75
     1
175
     1
 42
1.0
 92
       12
 66
     7
 43
1.0
 76
     1
 77
     6
 78
     2
 67
     7
 79
     5
170
     0
171
     0
290
     0
174
     0
 93
        1
 44
0.0
173
     0
291
     1
 45
0.0
1001
ACAD
1000
AcDbSavedByObjectVersion
1070
     0
  0
VISUALSTYLE
  5
1F77
102
{ACAD_XDICTIONARY
360
2947
102
}
102
{ACAD_REACTORS
330
17F9
102
}
330
17F9
100
AcDbVisualStyle
  2
Wireframe
 70
     5
 71
     0
 72
     2
 73
     0
 90
        0
 40
-0.6
 41
-30.0
 62
     5
 63
     7
 74
     1
 91
        4
 64
     7
 65
   257
 75
     1
175
     1
 42
1.0
 92
        0
 66
   257
 43
1.0
 76
     1
 77
     6
 78
     2
 67
     7
 79
     3
170
     0
171
     0
290
     0
174
     0
 93
        1
 44
0.0
173
     0
291
     0
 45
0.0
1001
ACAD
1000
AcDbSavedByObjectVersion
1070
     0
  0
VISUALSTYLE
  5
1F7B
102
{ACAD_XDICTIONARY
360
294F
102
}
102
{ACAD_REACTORS
330
17F9
102
}
330
17F9
100
AcDbVisualStyle
  2
X-Ray
 70
    25
 71
     2
 72
     2
 73
     1
 90
        1
 40
0.5
 41
-30.0
 62
     5
 63
     7
 74
     1
 91
        0
 64
     7
 65
   257
 75
     1
175
     1
 42
1.0
 92
        8
 66
     7
 43
1.0
 76
     1
 77
     6
 78
     2
 67
     7
 79
     3
170
     0
171
     0
290
     0
174
     0
 93
       13
 44
0.0
173
     0
291
     0
 45
0.0
1001
ACAD
1000
AcDbSavedByObjectVersion
1070
     0
  0
DICTIONARYVAR
  5
222F
102
{ACAD_REACTORS
330
34
102
}
330
34
100
DictionaryVariables
280
     0
  1
1:1
  0
DICTIONARYVAR
  5
222E
102
{ACAD_REACTORS
330
34
102
}
330
34
100
DictionaryVariables
280
     0
  1
STANDARD
  0
DICTIONARYVAR
  5
1AD5
102
{ACAD_REACTORS
330
34
102
}
330
34
100
DictionaryVariables
280
     0
  1
STANDARD
  0
DICTIONARYVAR
  5
2912
102
{ACAD_REACTORS
330
34
102
}
330
34
100
DictionaryVariables
280
     0
  1
2
  0
DICTIONARYVAR
  5
35
102
{ACAD_REACTORS
330
34
102
}
330
34
100
DictionaryVariables
280
     0
  1
0
  0
DICTIONARYVAR
  5
2910
102
{ACAD_REACTORS
330
34
102
}
330
34
100
DictionaryVariables
280
     0
  1
127
  0
DICTIONARYVAR
  5
2911
102
{ACAD_REACTORS
330
34
102
}
330
34
100
DictionaryVariables
280
     0
  1
0
  0
DICTIONARY
  5
1553
102
{ACAD_REACTORS
330
43
102
}
330
43
100
AcDbDictionary
281
     1
  0
DICTIONARY
  5
15F
102
{ACAD_REACTORS
330
43
102
}
330
43
100
AcDbDictionary
281
     1
  0
XRECORD
  5
186D
102
{ACAD_REACTORS
330
43
102
}
330
43
100
AcDbXrecord
280
     1
 90
-1023410169
  0
DICTIONARY
  5
21DE
330
22
100
AcDbDictionary
280
     1
281
     1
  3
ACAD_XREC_ROUNDTRIP
360
291D
  3
ADSK_XREC_LAYOUTTHUMBNAIL
360
21DF
  0
DICTIONARY
  5
291B
330
1E
100
AcDbDictionary
280
     1
281
     1
  3
ACAD_XREC_ROUNDTRIP
360
291C
  0
DICTIONARY
  5
291E
330
26
100
AcDbDictionary
280
     1
281
     1
  3
ACAD_XREC_ROUNDTRIP
360
291F
  0
DICTIONARY
  5
2922
330
17F7
100
AcDbDictionary
280
     1
281
     1
  3
ACAD_XREC_ROUNDTRIP
360
2923
  0
DICTIONARY
  5
2920
330
17F6
100
AcDbDictionary
280
     1
281
     1
  3
ACAD_XREC_ROUNDTRIP
360
2921
  0
DICTIONARY
  5
2924
330
17F8
100
AcDbDictionary
280
     1
281
     1
  3
ACAD_XREC_ROUNDTRIP
360
2925
  0
DICTIONARY
  5
21E0
330
180C
100
AcDbDictionary
280
     1
281
     1
  3
ACAD_ROUNDTRIP_2008_TABLESTYLE_CELLSTYLEMAP
360
2913
  3
ACAD_XREC_ROUNDTRIP
360
2946
  0
DICTIONARY
  5
2930
330
17FF
100
AcDbDictionary
280
     1
281
     1
  3
ACAD_XREC_ROUNDTRIP
360
2931
  0
DICTIONARY
  5
2934
330
1801
100
AcDbDictionary
280
     1
281
     1
  3
ACAD_XREC_ROUNDTRIP
360
2935
  0
DICTIONARY
  5
2932
330
1800
100
AcDbDictionary
280
     1
281
     1
  3
ACAD_XREC_ROUNDTRIP
360
2933
  0
DICTIONARY
  5
292E
330
17FE
100
AcDbDictionary
280
     1
281
     1
  3
ACAD_XREC_ROUNDTRIP
360
292F
  0
DICTIONARY
  5
293C
330
1805
100
AcDbDictionary
280
     1
281
     1
  3
ACAD_XREC_ROUNDTRIP
360
293D
  0
DICTIONARY
  5
2944
330
1809
100
AcDbDictionary
280
     1
281
     1
  3
ACAD_XREC_ROUNDTRIP
360
2945
  0
DICTIONARY
  5
2936
330
1802
100
AcDbDictionary
280
     1
281
     1
  3
ACAD_XREC_ROUNDTRIP
360
2937
  0
DICTIONARY
  5
293A
330
1804
100
AcDbDictionary
280
     1
281
     1
  3
ACAD_XREC_ROUNDTRIP
360
293B
  0
DICTIONARY
  5
2959
330
1F80
100
AcDbDictionary
280
     1
281
     1
  3
ACAD_XREC_ROUNDTRIP
360
295A
  0
DICTIONARY
  5
2942
330
1808
100
AcDbDictionary
280
     1
281
     1
  3
ACAD_XREC_ROUNDTRIP
360
2943
  0
DICTIONARY
  5
2926
330
17FA
100
AcDbDictionary
280
     1
281
     1
  3
ACAD_XREC_ROUNDTRIP
360
2927
  0
DICTIONARY
  5
2928
330
17FB
100
AcDbDictionary
280
     1
281
     1
  3
ACAD_XREC_ROUNDTRIP
360
2929
  0
DICTIONARY
  5
292A
330
17FC
100
AcDbDictionary
280
     1
281
     1
  3
ACAD_XREC_ROUNDTRIP
360
292B
  0
DICTIONARY
  5
292C
330
17FD
100
AcDbDictionary
280
     1
281
     1
  3
ACAD_XREC_ROUNDTRIP
360
292D
  0
DICTIONARY
  5
2949
330
1F78
100
AcDbDictionary
280
     1
281
     1
  3
ACAD_XREC_ROUNDTRIP
360
294A
  0
DICTIONARY
  5
2955
330
1F7E
100
AcDbDictionary
280
     1
281
     1
  3
ACAD_XREC_ROUNDTRIP
360
2956
  0
DICTIONARY
  5
2940
330
1807
100
AcDbDictionary
280
     1
281
     1
  3
ACAD_XREC_ROUNDTRIP
360
2941
  0
DICTIONARY
  5
2957
330
1F7F
100
AcDbDictionary
280
     1
281
     1
  3
ACAD_XREC_ROUNDTRIP
360
2958
  0
DICTIONARY
  5
2938
330
1803
100
AcDbDictionary
280
     1
281
     1
  3
ACAD_XREC_ROUNDTRIP
360
2939
  0
DICTIONARY
  5
2953
330
1F7D
100
AcDbDictionary
280
     1
281
     1
  3
ACAD_XREC_ROUNDTRIP
360
2954
  0
DICTIONARY
  5
2951
330
1F7C
100
AcDbDictionary
280
     1
281
     1
  3
ACAD_XREC_ROUNDTRIP
360
2952
  0
DICTIONARY
  5
294B
330
1F79
100
AcDbDictionary
280
     1
281
     1
  3
ACAD_XREC_ROUNDTRIP
360
294C
  0
DICTIONARY
  5
294D
330
1F7A
100
AcDbDictionary
280
     1
281
     1
  3
ACAD_XREC_ROUNDTRIP
360
294E
  0
DICTIONARY
  5
293E
330
1806
100
AcDbDictionary
280
     1
281
     1
  3
ACAD_XREC_ROUNDTRIP
360
293F
  0
DICTIONARY
  5
2947
330
1F77
100
AcDbDictionary
280
     1
281
     1
  3
ACAD_XREC_ROUNDTRIP
360
2948
  0
DICTIONARY
  5
294F
330
1F7B
100
AcDbDictionary
280
     1
281
     1
  3
ACAD_XREC_ROUNDTRIP
360
2950
  0
XRECORD
  5
291D
102
{ACAD_REACTORS
330
21DE
102
}
330
21DE
100
AcDbXrecord
280
     1
102
SHADEPLOT
 70
     0
102
SHADEPLOTRESLEVEL
 70
     2
102
SHADEPLOTCUSTOMDPI
 70
   300
  0
XRECORD
  5
21DF
102
{ACAD_REACTORS
330
21DE
102
}
330
21DE
100
AcDbXrecord
280
     1
310
28000000000100007B0000000100080000000000007B0000000000000000000000010000000000000000000000000000FFFFFF000000000000000000000000000000000000000000000000000000000000000000330000006600000099000000CC000000FF00000000330000333300006633000099330000CC330000FF3300
310
0000660000336600006666000099660000CC660000FF66000000990000339900006699000099990000CC990000FF99000000CC000033CC000066CC000099CC0000CCCC0000FFCC000000FF000033FF000066FF000099FF0000CCFF0000FFFF000000003300330033006600330099003300CC003300FF003300003333003333
310
33006633330099333300CC333300FF33330000663300336633006666330099663300CC663300FF66330000993300339933006699330099993300CC993300FF99330000CC330033CC330066CC330099CC3300CCCC3300FFCC330000FF330033FF330066FF330099FF3300CCFF3300FFFF330000006600330066006600660099
310
006600CC006600FF00660000336600333366006633660099336600CC336600FF33660000666600336666006666660099666600CC666600FF66660000996600339966006699660099996600CC996600FF99660000CC660033CC660066CC660099CC6600CCCC6600FFCC660000FF660033FF660066FF660099FF6600CCFF6600
310
FFFF660000009900330099006600990099009900CC009900FF00990000339900333399006633990099339900CC339900FF33990000669900336699006666990099669900CC669900FF66990000999900339999006699990099999900CC999900FF99990000CC990033CC990066CC990099CC9900CCCC9900FFCC990000FF99
310
0033FF990066FF990099FF9900CCFF9900FFFF99000000CC003300CC006600CC009900CC00CC00CC00FF00CC000033CC003333CC006633CC009933CC00CC33CC00FF33CC000066CC003366CC006666CC009966CC00CC66CC00FF66CC000099CC003399CC006699CC009999CC00CC99CC00FF99CC0000CCCC0033CCCC0066CC
310
CC0099CCCC00CCCCCC00FFCCCC0000FFCC0033FFCC0066FFCC0099FFCC00CCFFCC00FFFFCC000000FF003300FF006600FF009900FF00CC00FF00FF00FF000033FF003333FF006633FF009933FF00CC33FF00FF33FF000066FF003366FF006666FF009966FF00CC66FF00FF66FF000099FF003399FF006699FF009999FF00CC
310
99FF00FF99FF0000CCFF0033CCFF0066CCFF0099CCFF00CCCCFF00FFCCFF0000FFFF0033FFFF0066FFFF0099FFFF00CCFFFF00FFFFFF00000000000D0D0D001A1A1A00282828003535350043434300505050005D5D5D006B6B6B00787878008686860093939300A1A1A100AEAEAE00BBBBBB00C9C9C900D6D6D600E4E4E400
310
F1F1F100FFFFFF000000000000000000000000000000000000000000000000000000000000000000000000000000000000000000000000000000000000000000000000000000000000000000000000000000000000000000000000000000000000000000000000000000000000000000000000000000000000000000000000
310
00000000000000000000000000000000000000000000000000000000000000002D00000000000000000000000000000000000000000000000000000000000000000000000000000000000000000000000000000000000000000000000000000000000000000000000000000000000000000000000000000000000000000000
310
00000000000000000000000000000000000000000000000000000000000000000000000000000000000000000000000000000000000000000000000000000000000000000000000000000000000000000000000000000000000000000000000000000000000000000000000000000000000000000000000000000000000000
310
000000000000000000000000000000000000000000000000000000000000000000002D00000000000000000000000000000000000000000000000000000000000000000000000000000000000000000000000000000000000000000000000000000000000000000000002D0000000000000000000000000000000000000000
310
00000000000000000000000000000000000000000000000000000000000000000000000000000000000000000000000000000000000000000000000000000000000000000000000000000000000000000000000000000000000000000000000000000000000000000000000000000000000000000000000000000000000000
310
00000000000000000000000000000000000000000000000000000000000000F5F5F5F5F52DF5F5F5F5F5F5F50000000000000000000000000000000000000000000000000000000000000000000000000000000000000000000000000000000000000000000000F5F5F5F5F5F5F5F5F5F5F500000000000000000000000000
310
00000000000000000000000000000000000000000000000000000000000000000000000000000000000000000000000000000000000000000000000000000000000000000000000000000000000000000000000000000000000000000000000000000000000000000000000000000000000000000000000000000000000000
310
0000000000000000000000000000000000000000000000000000000000000000F500000000002D00000000000000F5F5F5F5F5F50000000000000000000000000000000000000000000000000000000000000000000000000000000000000000000000000000000000F5000000002D00000000F50000000000000000000000
310
00000000000000000000000000000000000000000000000000000000000000000000000000000000000000000000000000000000000000000000000000000000000000000000000000000000000000000000000000000000000000000000000000000000000000000000000000000000000000000000000000000000000000
310
000000000000000000000000000000000000000000000000F5F5F5F5F5F5F5F5F5F5F500000000002D00000000000000000000000000F5F5F5F500000000002800000000000000000000000000000000000000000000000000000000000000000000000000000000000000F500F5F5F52DF5F5F500F5000000000000000000
310
00000000000000000000000000000000000000000000000000000000000000000000000000000000000000000000000000000000000000000000000000000000000000000000000000000000000000000000000000000000000000000000000000000000000000000000000000000000000000000000000000000000000000
310
0000000000000000000000000000000000000000000000000000F50000000000000000000000000000002D00000000000000000000000000000000F5F5F5F5F5F528F5F5F5F5F50000000000000000000000000000000000000000000000000000000000000000000000000000F5F5F5F5F5F5F5F500F5F500000000000000
310
00000000000000000000000000000000000000000000000000000000000000000000000000000000000000000000000000000000000000000000000000000000000000000000000000000000000000000000000000000000000000000000000000000000000000000000000000000000000000000000000000000000000000
310
0000000000000000000000000000000000000000000000000000F5F5F5000000000000000000F500000000002D00000000F50000000000000000000000F5F5282828282828282828F5F5F500000000000000000000000000000000000000000000000000000000000000000000F5F5F5F500F5F5F5F5F5F5F5F5F5F5000000
310
00000000000000000000000000000000000000000000000000000000000000000000000000000000000000000000000000000000000000000000000000000000000000000000000000000000000000000000000000000000000000000000000000000000000000000000000000000000000000000000000000000000000000
310
00000000000000000000000000000000000000000000000000000000F500F500000000000000000000F5000000002D000000F5000000000000000000000000F5F5000000002800000000F50000F5000000000000000000000000000000000000000000000000000000000000F5F5F5F5F500F5F5F5F5F5F5F5F5F500F5F5F5
310
F5000000000000000000000000000000000000000000000000000000000000000000000000000000000000000000000000000000000000000000000000000000000000000000000000000000000000000000000000000000000000000000000000000000000000000000000000000000000000000000000000000000000000
310
000000000000000000000000000000000000000000000000000000000000F500F5F5F5F5F5F5F500000000F5000000002D000000F500000000F5F5F5F5F5F5F5F5F5F5000000002800000000F50000F500000000000000000000000000000000000000000000000000000000F5F500F5F500F5F5F5000000F50000F5F5F5F5
310
00F5F5F5F50000000000000000000000000000000000000000000000000000000000000000000000000000000000000000000000000000000000000000000000000000000000000000000000000000000000000000000000000000000000000000000000000000000000000000000000000000000000000000000000000000
310
0000000000000000000000000000000000000000000000000000000000000000F500F50000000000F500000000F5000000002D000000F500000000F500000000000000F5F5000000002800000000F50000F500000000000000000000000000000000000000000000000000000000F50000F50000F500F5F5F5F5F5F5F5F500
310
F5F5F5F500F5F5000000000000000000000000000000000000000000000000000000000000000000000000000000000000000000000000000000000000000000000000000000000000000000000000000000000000000000000000000000000000000000000000000000000000000000000000000000000000000000000000
310
28282828282828282828F5F5F5F5F5F5F5F5F5F5F5F5F5F5F5F5F5F5F5F5F5F5F5F5F500F50000000000F500000000F5000000002D000000F500000000F500000000000000F5F5000000002800000000F50000F500000000000000000000000000000000000000000000000000000000F500F5F500F500F500F500F5F5F5F5
310
F5F5F500F500F5F5F500000000000000000000000000000000000000000000000000000000000000000000000000000000000000000000000000000000000000000000000000000000000000000000000000000000000000000000000000000000000000000000000000000000000000000000000000000000000000000000
310
000028280000F500000000F500000000F500000000F500000000F500000000F500000000F500F50000000000F500000000F5000000002D000000F500000000F500000000000000F5F5000000002800000000F50000F500000000000000000000000000000000000000000000000000000000F500F500F50000F5F500F5002D
310
00F500F500F5F5F5F5F5F50000000000000000000000000000000000000000000000000000000000000000000000000000000000000000000000000000000000000000000000000000000000000000000000000000000000000000000000000000000000000000000000000000000000000000000000000000000000000000
310
0000000028000000F500000000F500000000F500000000F500000000F500000000F500000000F500F50000000000F500000000F500F500002D00F500F500000000F500000000000000F5F5000000002800000000F50000F500000000000000000000000000000000000000000000000000000000F5F5F500F500F50000F500
310
002D0000F500F5F500F5F5F5F5000000000000000000000000000000000000000000000000000000000000000000000000000000000000000000000000000000000000000000000000000000000000000000000000000000000000000000000000000000000000000000000000000000000000000000000000000000000000
310
00000000000028000000F500000000F500000000F500000000F500000000F500000000F500000000F500F50000000000F500000000F500F5F5F5F5F500F5F500000000F500000000000000F5F5000000002800000000F50000F500000000000000000000000000000000000000000000000000000000F5F500F50000F50000
310
F500002D0000F50000F5F5F5F5F5F500000000000000000000000000000000000000000000000000000000000000000000000000000000000000000000000000000000000000000000000000000000000000000000000000000000000000000000000000000000000000000000000000000000000000000000000000000000
310
000000000000DCDC28000000F500000000F500000000F500000000F500000000F500000000F500000000F500F50000000000F500000000F5F5F5F5F5F5F5F5F5F500000000F500000000000000F5F5000000002800000000F50000F500000000000000000000000000000000000000000000000000000000F5F500F500F5F5
310
0000F500002D0000F50000F5F500F500F50000000000000000000000000000000000000000000000000000000000000000000000000000000000000000000000000000000000000000000000000000000000000000000000000000000000000000000000000000000000000000000000000000000000000000000000000000
310
00000000000000DCDCDC28002D2DF52D2D2D2DF52D2D2D2DF52D2D2D2DF52D2D2D2DF52D2D2D2DF52D2D2D2DF52DF52D2D2D2D2DF52D2D2D2DF52DF5F52D2DF5F52DF52D2D2D2DF52D2D2D2D2D2D2DF52D2D2D2D2D282D2D2D2D2D2D2D2D2D28282828282828280000000000000000000000000000000000002D2DF52DF52D
310
F5F52D2D2DF52D2D2DF52D2D2DF5F52DF52DF52D2D00000000000000000000000000000000000000000000000000000000000000000000000000000000000000000000000000000000000000000000000000000000000000000000000000000000000000000000000000000000000000000000000000000000000000000000
310
000000000000000000DCDCDC28000000F500000000F500000000F500000000F500000000F500000000F500000000F500F50000000000F500000000F50000F5F5F5F50000F500000000F500000000000000F5F5000000002800000000F50000F500000000000000002800000000000000000000000000000000000000F5F500
310
F500F5F500000000F5F5F500000000F5F500F500F500000000000000000000000000000000000000000000000000000000000000000000000000000000000000000000000000000000000000000000000000000000000000000000000000000000000000000000000000000000000000000000000000000000000000000000
310
000000000000000000000000DCDC28000000F500000000F500000000F500000000F500000000F500000000F500000000F500F50000000000F500000000F50000F5F5F5F50000F500000000F500000000000000F5F5000000002800000000F50000F500000000000000282800000000000000000000000000000000000000F5
310
F500F500F5F500000000002D0000000000F5F5F5F5F5F50000000000000000000000000000000000000000000000000000000000000000000000000000000000000000000000000000000000000000000000000000000000000000000000000000000000000000000000000000000000000000000000000000000000000000
310
0000000000000000000000000000000028000000F500000000F500000000F500000000F500000000F500000000F500000000F500F50000000000F500000000F5000000F5F5000000F500000000F500000000000000F5F5000000002800000000F50000F5000000000000000028000000000000000000000000000000000000
310
00F5F500F5F500F500000000002D00000000F500F5F5F5F5F5000000000000000000000000000000000000000000000000000000000000000000000000000000000000000000000000000000000000000000000000000000000000000000000000000000000000000000000000000000000000000000000000000000000000
310
00000000000000000000000000000000000028280000F500000000F500000000F500000000F500000000F500000000F500000000F500F50000000000F500000000F5000000F5F5000000F500000000F500000000000000F5F5000000002800000000F50000F500000000000000002800000000000000000000000000000000
310
000000F500F500F500F5F5000000002D00000000F5F500F500F5F500000000000000000000000000000000000000000000000000000000000000000000000000000000000000000000000000000000000000000000000000000000000000000000000000000000000000000000000000000000000000000000000000000000
310
000000000000000000000000000000000000000028280000F5F5F50000F5F5F50000F5F5F50000F5F5F50000F5F5F50000F500000000F500F50000000000F500000000F5000000F5F5000000F500000000F500000000000000F5F5000000002800000000F50000F50000000000000000280000000000000000000000000000
310
0000000000F500F500F5F500F5000000002D000000F5F500F5F5F5F5F50000000000000000000000000000000000000000000000000000000000000000000000000000000000000000000000000000000000000000000000000000000000000000000000000000000000000000000000000000000000000000000000000000
310
00000000000000000000000000000000000000000000282828282828282828280000F5F5F50000F5F5F50000F5F5F50000F5F5F5F5F5F5F5F500F50000000000F500000000F5000000002D000000F500000000F500000000000000F5F5000000002800000000F50000F5000000000000000028000000000000000000000000
310
00000000000000F50000F500F5F500F5F5F5002DF5F5F5F500F5F500F5F5F5000000000000000000000000000000000000000000000000000000000000000000000000000000000000000000000000000000000000000000000000000000000000000000000000000000000000000000000000000000000000000000000000
310
00000000000000000000000000000000000000000000000000000000000000000000000000000000000000000000000000000000000000000000F500F50000000000F500000000F5000000002D000000F500000000F500000000000000F5F5000000002800000000F50000F500000000000000002800000000000000000000
310
000000000000000000F50000F50000F5F500F5F5F5F5F5F50000F5F500F5F500F500000000000000000000000000000000000000000000000000000000000000000000000000000000000000000000000000000000000000000000000000000000000000000000000000000000000000000000000000000000000000000000
310
000000000000000000000000000000000000000000000000000000000000000000000000000000000000000000000000000000000000000000000000F500F5F5F5F5F5F50000000000F5000000002D000000F50000000000F5F5F5F5F5F5F5F5F5000000002800000000F50000F50000000000000000280000000000000000
310
0000000000000000000000F5F5F5F5F50000F5F50000002D000000F5F50000F5F5F5F50000000000000000000000000000000000000000000000000000000000000000000000000000000000000000000000000000000000000000000000000000000000000000000000000000000000000000000000000000000000000000
310
0000000000000000000000000000000000000000000000000000000000000000000000000000000000000000000000000000000000000000000000000000F500F5000000000000000000F500000000002D00000000F50000000000000000000000F5F5000000002800282828F52828F5000000000000000028000000000000
310
0000000000000000000000000000000000F5F5000000F5F5F5F5F5F5F50000F5F5F5000000000000000000000000000000000000000000000000000000000000000000000000000000000000000000000000000000000000000000000000000000000000000000000000000000000000000000000000000000000000000000
310
00000000000000000000000000000000000000000000000000000000000000000000000000000000000000000000000000000000000000000000000000000000F5F5F50000000000000000F50000000000002D0000000000F500000000000000000000F528282828282828000000F5F5F50000000000000000002800000000
310
0000000000000000000000000000000000000000F5F5F5000000002D000000F5F5F5F50000000000000000000000000000000000000000000000000000000000000000000000000000000000000000000000000000000000000000000000000000000000000000000000000000000000000000000000000000000000000000
310
0000000000000000000000000000000000000000000000000000000000000000000000000000000000000000000000000000000000000000000000000000000000000000F50000000000000000000000000000002D00000000000000000000000000000000F5F5F5F5F5F528F5F5F5F5F50000000000000000000000280000
310
00000000000000000000000000000000000000000000F50000F5F5F5F5F5F5F5F5000000F5000000000000000000000000000000000000000000000000000000000000000000000000000000000000000000000000000000000000000000000000000000000000000000000000000000000000000000000000000000000000
310
00000000000000000000000000000000000000000000000000000000000000000000000000000000000000000000000000000000000000000000000000000000000000000000F5F500000000000000000000000000002D000000000000F5F5F5F5F5F5F5F5F5F5F50000000000280000000000000000000000000000000028
310
000000000000000000000000000000000000000000000000F50000000000F52DF50000000000F500000000000000000000000000000000000000000000000000000000000000000000000000000000000000000000000000000000000000000000000000000000000000000000000000000000000000000000000000000000
310
0000000000000000000000000000000000000000000000000000000000000000000000000000000000000000000000000000000000000000000000000000000000000000000000000000F5F5F5F5000000000000000000002D0000000000F50000000000000000000000000000000000000000000000000000000000000000
310
0028000000000000000000000000000000000000000000000000F50000000000002D000000000000F50000000000000000000000000000000000000000000000000000000000000000000000000000000000000000000000000000000000000000000000000000000000000000000000000000000000000000000000000000
310
0000000000000000000000000000000000000000000000000000000000000000000000000000000000000000000000000000000000000000000000000000000000000000000000000000000000000000F5F5F5000000000000002D0000000000F5000000000000000000000000000000000000000000000000000000000000
310
00000028000000000000000000000000000000000000000000000000F50000000000002D000000000000F5000000000000000000000000000000000000000000000000000000000000000000000000000000000000000000000000000000000000000000000000000000000000000000000000000000000000000000000000
310
00000000000000000000000000000000000000000000000000000000000000000000000000000000000000000000000000000000000000000000000000000000000000000000000000000000000000000000000000F50000000000002D0000000000F500000000000000000000000000000000000000000000000000000000
310
000000000028000000000000000000000000000000000000000000000000F50000000000002D000000000000F500000000000000000000000000000000000000000000000000000000000000000000000000000000000000000000000000000000000000000000000000000000000000000000000000000000000000000000
310
000000000000000000000000000000000000000000000000000000000000000000000000000000000000000000000000000000000000000000000000000000000000000000000000000000000000000000000000000000F50000000000002D0000000000F50000000000000000000000000000000000000000000000000000
310
0000000000000028000000000000000000000000000000000000000000000000F50000000000002D000000000000F50000000000000000000000000000000000000000000000000000000000000000000000000000000000000000000000000000000000000000000000000000000000000000000000000000000000000000
310
0000000000000000000000000000000000000000000000000000000000000000000000000000000000000000000000000000000000000000000000000000000000000000000000000000000000000000000000000000000000F50000000000002D0000000000F5000000000000000000000000000000000000000000000000
310
00000000000000000028000000000000000000000000000000000000000000000000F50000000000002D000000000000F5000000000000000000000000000000000000000000000000000000000000000000000000000000000000000000000000000000000000000000000000000000000000000000000000000000000000
310
000000000000000000000000000000000000000000000000000000000000000000000000000000000000000000000000000000000000000000000000000000000000000000000000000000000000000000000000000000000000F5F5F5F5F5F5F5F5F5F5F5F5F5F5F5F5000000000000000000000000000000000000000000
310
000000000000000000000028000000000000000000000000000000000000000000000000F5F5F5F5F5F5F5F5F5F5F5F5F5F5F500000000000000000000000000000000000000000000000000000000000000000000000000000000000000000000000000000000000000000000000000000000000000000000000000000000
310
0000000000000000000000000000000000000000000000000000000000000000000000000000000000000000000000000000000000000000000000000000000000000000000000000000000000000000000000000000000000000028F5000000000000002D000000000000F528000000000000000000000000000000000000
310
00000000000000000000000000280000000000000000000000000000000000000000000000F5000000000000002D000000000000F52800000000000000000000000000000000000000000000000000000000000000000000000000000000000000000000000000000000000000000000000000000000000000000000000000
310
000000000000000000000000000000000000000000000000000000000000000000000000000000000000000000000000000000000000000000000000000000000000000000000000000000000000000000000000000000000000000000F5F5F5F5F5F5F5F5F5F5F5F5F5F5F5F5F5F500000000000000000000000000000000
310
0000000000000000000000000000002800000000000000000000000000000000000000000000F5F5F5F5F5F5F5F5F5F5F5F5F5F5F5F5F5F5F500000000000000000000000000000000000000000000000000000000000000000000000000000000000000000000000000000000000000000000000000000000000000000000
310
000000000000000000000000000000000000000000000000000000000000000000000000000000000000000000000000000000000000000000000000000000000000000000000000000000000000000000000000000000000000000000F5F5F5F5F5F5F5F5F5F5F5F5F5F5F5F5F5F5F5F5F5F5000000000000000000000000
310
000000000000000000000000000000000028000000000000000000000000000000000000000000F5F5F5F5F5F5F5F5F5F5F5F5F5F5F5F5F5F5F5F5F500000000000000000000000000000000000000000000000000000000000000000000000000000000000000000000000000000000000000000000000000000000000000
310
0000000000000000000000000000000000000000000000000000000000000000000000000000000000000000000000000000000000000000000000000000000000000000000000000000000000000000000000000000000000000000000000F5000000000000000000002D000000000000000000F500000000000000000000
310
0000000000000000000000000000000000000028000000000000000000000000000000000000000000F50000000000000000002D000000000000000000F50000000000000000000000000000000000000000000000000000000000000000000000000000000000000000000000000000000000000000000000000000000000
310
00000000000000000000000000000000000000000000000000000000000000000000000000000000000000000000000000000000000000000000000000000000000000000000000000000000000000000000000000000000000000000000000000F5F5F5F5F5F5F5F5F5F5F5F5F5F5F5F5F5F5F5F5F5F50000000000000000
310
000000000000000000000000000000000000000000280000000000000000000000000000000000000000F5F5F5F5F5F5F5F5F5F5F5F5F5F5F5F5F5F5F5F5F5F5F50000000000000000000000000000000000000000000000000000000000000000000000000000000000000000000000000000000000000000000000000000
310
0000000000000000000000000000000000000000000000000000000000000000000000000000000000000000000000000000000000000000000000000000000000000000000000000000000000000000000000000000000000000000000000000000F5000000F5F5F5F5F50000002D0000F5F5F5F5F5000000F50000000000
310
0000000000000000000000000000000000000000000000280000000000000000000000000000000000000000F5F5F5000000000000F5F5F5F5F50000000000F5F5F5F5000000000000000000000000000000000000000000000000000000000000000000000000000000000000000000000000000000000000000000000000
310
00000000000000000000000000000000000000000000000000000000000000000000000000000000000000000000000000000000000000000000000000000000000000000000000000000000000000000000000000000000000000000000000000000000F500000000F500F5000000002D000000F500F500000000F5000000
310
00000000000000000000000000000000000000000000000000280000000000000000000000000000000000000000F5F50000000000000000F52DF500000000000000F500F500000000000000000000000000000000000000000000000000000000000000000000000000000000000000000000000000000000000000000000
310
000000000000000000000000000000000000000000000000000000000000000000000000000000000000000000000000000000000000000000000000000000000000000000000000000000000000000000000000000000000000000000000000000000000000F500000000F500F5000000002D000000F500F500000000F500
310
00000000000000000000000000000000000000000000000000DC00280000000000000000000000000000000000000000F5F50000000000000000F52DF500000000000000F500F50000000000000000000000000000000000000000000000000000000000000000000000000000000000000000000000000000000000000000
310
0000000000000000000000000000000000000000000000000000000000000000000000000000000000000000000000000000000000000000000000000000000000000000000000000000000000000000000000000000000000000000000000000000000000000000F500000000F500F5000000002D000000F500F500000000
310
F500000000000000000000000000000000000000000000000000DCDCDC280000000000000000000000000000000000000000F5F50000000000000000F52DF500000000000000F500F5000000000000000000000000000000000000000000000000000000000000000000000000000000000000000000000000000000000000
310
00000000000000000000000000000000000000000000000000000000000000000000000000000000000000000000000000000000000000000000000000000000000000000000000000000000000000000000000000000000000000000000000000000000000000000000F500000000F500F5000000002D000000F500F50000
310
0000F50000000000000000000000000000000000000000000000000000DC00280000000000000000000000000000000000000000F5F50000000000000000F52DF500000000000000F500F500000000000000000000000000000000000000000000000000000000000000000000000000000000000000000000000000000000
310
000000000000000000000000000000000000000000000000000000000000000000000000000000000000000000000000000000000000000000000000000000000000000000000000000000000000000000000000000000000000000000000000000000000000000000000000F500000000F500F5000000002D000000F500F5
310
00000000F500000000000000000000000000000000000000000000000000DCDCDC280000000000000000000000000000000000000000F5F50000000000000000F52DF500000000000000F500F50000000000000000000000000000000000000000000000000000000000000000000000000000000000000000000000000000
310
0000000000000000000000000000000000000000000000000000000000000000000000000000000000000000000000000000000000000000000000000000000000000000000000000000000000000000000000000000000000000000000000000000000000000000000000000000F500000000F5F5F5F50000002D0000F5F5
310
F5F500000000F500000000000000000000000000000000000000000000000000000000280000000000000000000000000000000000000000F5F50000000000000000F5F5F500000000000000F5F5F5000000000000000000000000000000000000000000000000000000000000000000000000000000000000000000000000
310
0000000000000000000000000000000000000000000000000000000000000000000000000000000000000000000000000000000000000000000000000000000000000000000000000000000000000000000000000000000000000000000000000000000000000000000000000000000000F5F5F5F5F5F5F5F5F5F5F5F5F5F5
310
F5F5F5F5F5F5F5F5000000000000000000000000000000000000000000000000000000000028000000000000000000000000000000000000000000F5F5F5F5F5F5F5F5F5F5F5F5F5F5F5F5F5F5F5F5F50000000000000000000000000000000000000000000000000000000000000000000000000000000000000000000000
310
0000000000000000000000000000000000000000000000000000000000000000000000000000000000000000000000000000000000000000000000000000000000000000000000000000000000000000000000000000000000000000000000000000000000000000000000000000000000000000000000000000F50000002D
310
0000F500000000000000000000000000000000000000000000000000000000000000000000000028000000000000000000000000000000000000000000000000000000F50000002D000000F5000000000000000000000000000000000000000000000000000000000000000000000000000000000000000000000000000000
310
00000000000000000000000000000000000000000000000000000000000000000000000000000000000000000000000000000000000000000000000000000000000000000000000000000000000000000000000000000000000000000000000000000000000000000000000000000000000000000000000000000000F50000
310
002D0000F500000000000000000000000000000000000000000000000000000000000000000000000028000000000000000000000000000000000000000000000000000000F50000002D000000F500000000000000000000000000000000000000000000000000000000000000000000000000000000000000000000000000
310
000000000000000000000000000000000000000000000000000000000000000000000000000000000000000000000000000000000000000000000000000000000000000000000000000000000000000000000000000000000000000000000000000000000000000000000000000000000000000000000000000000000000F5
310
0000002D0000F500000000000000000000000000000000000000000000000000000000000000000000000028000000000000000000000000000000000000000000000000000000F50000002D000000F50000000000000000000000000000000000000000000000000000000000000000000000000000000000000000000000
310
00000000000000000000000000000000000000000000000000000000000000000000000000000000000000000000000000000000000000000000000000000000000000000000000000000000000000000000000000000000000000000000000000000000000000000000000000000000000000000000000000000000000000
310
00F50000002D0000F500000000000000000000000000000000000000000000000000000000000000000000000028000000000000000000000000000000000000000000000000000000F50000002D000000F5000000000000000000000000000000000000000000000000000000000000000000000000000000000000000000
310
00000000000000000000000000000000000000000000000000000000000000000000000000000000000000000000000000000000000000000000000000000000000000000000000000000000000000000000000000000000000000000000000000000000000000000000000000000000000000000000000000000000000000
310
000000F50000002D0000F500000000000000000000000000000000000000000000000000000000000000000000000028000000000000000000000000000000000000000000000000000000F50000002D000000F500000000000000000000000000000000000000000000000000000000000000000000000000000000000000
310
00000000000000000000000000000000000000000000000000000000000000000000000000000000000000000000000000000000000000000000000000000000000000000000000000000000000000000000000000000000000000000000000000000000000000000000000000000000000000000000000000000000000000
310
0000000000F5F5F5F52DF5F5F500000000000000000000000000000000000000000000000000000000000000000000000028000000000000000000000000000000000000000000000000000000F5F5F5F5F5F5F5F5F50000000000000000000000000000000000000000000000000000000000000000000000000000000000
310
00000000000000000000000000000000000000000000000000000000000000000000000000000000000000000000000000000000000000000000000000000000000000000000000000000000000000000000000000000000000000000000000000000000000000000000000000000000000000000000000000000000F5F5F5
310
F5F5F5F5F5F5F5F5F5F5F5F5F5F5F5F5F5F5F5F5F5F5F5F5F5000000000000000000000000000000000000000000000000000028000000000000000000000000000000000000F5F5F5F5F5F5F5F5F5F5F5F5F5F5F5F5F5F5F5F5F5F5F5F5F5F5F5000000000000000000000000000000000000000000000000000000000000
310
00000000000000000000000000000000000000000000000000000000000000000000000000000000000000000000000000000000000000000000000000000000000000000000000000000000000000000000000000000000000000000000000000000000000000000000000000000000000000000000000000000000F5F5F5
310
F5F5F5F5F5F5F5F5F5F5F5F5F5F5F5F5F5F5F5F5F5F5F5F5F5F5F5F5F500000000000000000000000000000000000000000000000028000000000000000000000000000000F5F5F5F5F5F5F5F5F5F5F5F5F5F5F5F5F5F5F5F5F5F5F5F5F5F5F5F5F5F5F5F5F500000000000000000000000000000000000000000000000000
310
000000000000000000000000000000000000000000000000000000000000000000000000000000000000000000000000000000000000000000000000000000000000000000000000000000000000000000000000000000000000000000000000000000000000000000000000000000000000000000000000000000000000F5
310
F5000000F500F5000000000000F5002DF5000000000000F500F5000000F5F500000000000000000000000000000000000000000000000028000000000000000000000000000000F5000000F50000000000F500F50000002D000000F500F50000000000F5000000F50000000000000000000000000000000000000000000000
310
00000000000000000000000000000000000000000000000000000000000000000000000000000000000000000000000000000000000000000000000000000000000000000000000000000000000000000000000000000000000000000000000000000000000000000000000000000000000000000000000000000000000000
310
00F5F5000000F500F5000000000000F5002DF5000000000000F500F5000000F5F500000000000000000000000000000000000000000000000028000000000000000000000000000000F5000000F50000000000F500F50000002D000000F500F50000000000F5000000F5000000000000000000000000000000000000000000
310
00000000000000000000000000000000000000000000000000000000000000000000000000000000000000000000000000000000000000000000000000000000000000000000000000000000000000000000000000000000000000000000000000000000000000000000000000000000000000000000000000000000000000
310
000000F5F5000000F500F5000000000000F5002DF5000000000000F500F5000000F5F500000000000000000000000000000000000000000000000028000000000000000000000000000000F5000000F50000000000F500F50000002D000000F500F50000000000F5000000F500000000000000000000000000000000000000
310
00000000000000000000000000000000000000000000000000000000000000000000000000000000000000000000000000000000000000000000000000000000000000000000000000000000000000000000000000000000000000000000000000000000000000000000000000000000000000000000000000000000000000
310
0000000000F5F5000000F500F5000000000000F5002DF5000000000000F500F5000000F5F500000000000000000000000000000000000000000000000028000000000000000000000000000000F5000000F50000000000F500F50000002D000000F500F50000000000F5000000F50000000000000000000000000000000000
310
00000000000000000000000000000000000000000000000000000000000000000000000000000000000000000000000000000000000000000000000000000000000000000000000000000000000000000000000000000000000000000000000000000000000000000000000000000000000000000000000000000000000000
310
00000000000000F5F5000000F500F5000000000000F5002DF5000000000000F500F5000000F5F500000000000000000000000000000000000000000000000028000000000000000000000000000000F5000000F50000000000F500F50000002D000000F500F50000000000F5000000F5000000000000000000000000000000
310
00000000000000000000000000000000000000000000000000000000000000000000000000000000000000000000000000000000000000000000000000000000000000000000000000000000000000000000000000000000000000000000000000000000000000000000000000000000000000000000000000000000000000
310
000000000000000000F5F5000000F500F5000000000000F5002DF5000000000000F500F5000000F5F500000000000000000000000000000000000000000000000028000000000000000000000000000000F5000000F50000000000F500F50000002D000000F500F50000000000F5000000F500000000000000000000000000
310
00000000000000000000000000000000000000000000000000000000000000000000000000000000000000000000000000000000000000000000000000000000000000000000000000000000000000000000000000000000000000000000000000000000000000000000000000000000000000000000000000000000000000
310
0000000000000000000000F5F5000000F500F5000000000000F5002DF5000000000000F500F5000000F5F500000000000000000000000000000000000000000000000028000000000000000000000000000000F5000000F50000000000F500F50000002D000000F500F50000000000F5000000F50000000000000000000000
310
00000000000000000000000000000000000000000000000000000000000000000000000000000000000000000000000000000000000000000000000000000000000000000000000000000000000000000000000000000000000000000000000000000000000000000000000000000000000000000000000000000000000000
310
00000000000000000000000000F5F5000000F500F5000000000000F5002DF5000000000000F500F5000000F5F500000000000000000000000000000000000000000000000028000000000000000000000000000000F5000000F50000000000F500F50000002D000000F500F50000000000F5000000F5000000000000000000
310
00000000000000000000000000000000000000000000000000000000000000000000000000000000000000000000000000000000000000000000000000000000000000000000000000000000000000000000000000000000000000000000000000000000000000000000000000000000000000000000000000000000000000
310
000000000000000000000000000000F5F5000000F500F5000000000000F5002DF5000000000000F500F5000000F5F500000000000000000000000000000000000000000000000028000000000000000000000000000000F5000000F50000000000F500F50000002D000000F500F50000000000F5000000F500000000000000
310
00000000000000000000000000000000000000000000000000000000000000000000000000000000000000000000000000000000000000000000000000000000000000000000000000000000000000000000000000000000000000000000000000000000000000000000000000000000000000000000000000000000000000
310
0000000000000000000000000000000000F5F5000000F500F5000000000000F5002DF5000000000000F500F5000000F5F500000000000000000000000000000000000000000000000028000000000000000000000000000000F5000000F50000000000F500F50000002D000000F500F50000000000F5000000F50000000000
310
00000000000000000000000000000000000000000000000000000000000000000000000000000000000000000000000000000000000000000000000000000000000000000000000000000000000000000000000000000000000000000000000000000000000000000000000000000000000000000000000000000000000000
310
00000000000000000000000000000000000000F5F5000000F500F5000000000000F5002DF5000000000000F500F5000000F5F500000000000000000000000000000000000000000000000028000000000000000000000000000000F5000000F50000000000F500F50000002D000000F500F50000000000F5000000F5000000
310
00000000000000000000000000000000000000000000000000000000000000000000000000000000000000000000000000000000000000000000000000000000000000000000000000000000000000000000000000000000000000000000000000000000000000000000000000000000000000000000000000000000000000
310
000000000000000000000000000000000000000000F5F5000000F50000F50000000000F5002DF5000000000000F500F5000000F5F500000000000000000000000000000000000000000000000028000000000000000000000000000000F5000000F50000000000F50000F500002D000000F500F50000000000F50000F50000
310
00000000000000000000000000000000000000000000000000000000000000000000000000000000000000000000000000000000000000000000000000000000000000000000000000000000000000000000000000000000000000000000000000000000000000000000000000000000000000000000000000000000000000
310
0000000000000000000000000000000000000000000000F500F50000F50000F50000000000F5002DF50000000000F50000F50000F500F50000000000000000000000000000000000000000000000002800000000000000000000000000000000F50000F5F5000000F5000000F500002D0000F50000F5F50000F5F5000000F5
310
00000000000000000000000000000000000000000000000000000000000000000000000000000000000000000000000000000000000000000000000000000000000000000000000000000000000000000000000000000000000000000000000000000000000000000000000000000000000000000000000000000000000000
310
0000000000000000000000000000000000000000000000000000F5F5F5F5F5F5F5F5F5F5F5F5F5F5F5F5F5F5F5F5F5F5F5F5F5F5F5F5F5F500000000000000000000000000000000000000000000000000280000000000000000000000000000000000F5F5F5F5F5F5F5F5F5F5F5F5F5F5F5F5F5F5F5F5F5F5F5F5F5F5F5F5
310
F5000000000000000000000000000000000000000000000000000000000000000000000000000000000000000000000000000000000000000000000000000000000000000000000000000000000000000000000000000000000000000000000000000000000000000000000000000000000000000000000000000000000000
310
0000000000000000000000000000000000000000000000000000000000F5000000000000000000000000002D000000000000000000000000F5000000000000000000000000000000000000000000000000002828000000000000000000000000000000000000F50000000000000000000000002D0000000000000000000000
310
00F50000000000000000000000000000000000000000000000000000000000000000000000000000000000000000000000000000000000000000000000000000000000000000000000000000000000000000000000000000000000000000000000000000000000000000000000000000000000000000000000000000000000
310
00000000000000000000000000000000000000000000000000000000000000F5F5F5F5F5F5F5F5F5F5F5F5F5F52DF5F5F5F5F5F5F5F5F5F5F5F5F5282828282828282828282828282828282828282828282828282828000000000000000000000000000000000000F5F5F5F5F5F5F5F5F5F5F5F5F5F5F5F5F5F5F5F5F5F5F5
310
F5F5F5F5000000000000000000000000000000000000000000000000000000000000000000000000000000000000000000000000000000000000000000000000000000000000000000000000000000000000000000000000000000000000000000000000000000000000000000000000000000000000000000000000000000
310
00000000000000000000000000000000000000000000000000000000000000000000000000000000000000000000002D00000000000000000000000000000000000000000000000000000000000000000000000000000000000000000000000000000000000000000000000000000000000000000000002D00000000000000
310
00000000000000000000000000000000000000000000000000000000000000000000000000000000000000000000000000000000000000000000000000000000000000000000000000000000000000000000000000000000000000000000000000000000000000000000000000000000000000000000000000000000000000
310
000000000000000000000000000000000000000000000000000000000000000000000000000000000000000000000000002D00000000000000000000000000000000000000000000000000000000000000000000000000000000000000000000000000000000000000000000000000000000000000000000002D0000000000
310
00000000000000000000000000000000000000000000000000000000000000000000000000000000000000000000000000000000000000000000000000000000000000000000000000000000000000000000000000000000000000000000000000000000000000000000000000000000000000000000000000000000000000
310
0000000000000000000000000000000000000000000000000000000000000000000000000000000000000000000000000000002D00000000000000000000000000000000000000000000000000000000000000000000000000000000000000000000000000000000000000000000000000000000000000000000002D000000
310
00000000000000000000000000000000000000000000000000000000000000000000000000000000000000000000000000000000000000000000000000000000000000000000000000000000000000000000000000000000000000000000000000000000000000000000000000000000000000000000000000000000000000
310
00000000000000000000000000000000000000000000000000000000000000000000000000000000000000000000000000000000002D00000000000000000000000000000000000000000000000000000000000000000000000000000000000000000000000000000000000000000000000000000000000000000000000000
310
00000000000000000000000000000000000000000000000000000000000000000000000000000000000000000000000000000000000000000000000000000000000000000000000000000000000000000000000000000000000000000000000000000000000000000000000000000000000000000000000000000000000000
310
00000000000000000000000000000000000000000000000000000000000000000000000000000000000000000000000000000000000000000000000000000000000000000000000000000000000000000000000000000000000000000000000000000000000000000000000000000000000000000000000000000000000000
310
00000000000000000000000000000000000000000000000000000000000000000000000000000000000000000000000000000000000000000000000000000000000000000000000000000000000000000000000000000000000000000000000000000000000000000000000000000000000000000000000000000000000000
310
00000000000000000000000000000000000000000000000000000000000000000000000000000000000000000000000000000000000000000000000000000000000000000000000000000000000000000000000000000000000000000000000000000000000000000000000000000000000000000000000000000000000000
310
00000000000000000000000000000000000000000000000000000000000000000000000000000000000000000000000000000000000000000000000000000000000000000000000000000000000000000000000000000000000000000000000000000000000000000000000000000000000000000000000000000000000000
310
00000000000000000000000000000000000000000000000000000000000000000000000000000000000000000000000000000000000000000000000000000000000000000000000000000000000000000000000000000000000000000000000000000000000000000000000000000000000000000000000000000000000000
310
00000000000000000000000000000000000000000000000000000000000000000000000000000000000000000000000000000000000000000000000000000000000000000000000000000000000000000000000000000000000000000000000000000000000000000000000000000000000000000000000000000000000000
310
00000000000000000000000000000000000000000000000000000000000000000000000000000000000000000000000000000000000000000000000000000000000000000000000000000000000000000000000000000000000000000000000000000000000000000000000000000000000000000000000000000000000000
310
00000000000000000000000000000000000000000000000000000000000000000000000000000000000000000000000000000000000000000000000000000000000000000000000000000000000000000000000000000000000000000000000000000000000000000000000000000000000000000000000000000000000000
310
0000000000000000000000000000000000000000000000000000000000000000000000000000000000000000000000000000000000000000000000000000002D000000000000000000000000000000000000000000000000000000000000000000000000000000000000000000000000000000000000000000000000000000
310
00000000000000000000000000000000000000000000000000000000000000000000000000000000000000000000000000000000000000000000000000000000000000000000000000000000000000000000000000000000000000000000000000000000000000000000000000000000000000000000000000000000000000
310
00000000000000000000000000000000000000000000000000000000000000000000000000000000000000000000000000000000000000000000000000000000002D00000000000000000000000000000000000000000000000000000000000000000000000000000000000000000000000000000000000000000000000000
310
00000000000000000000000000000000000000000000000000000000000000000000000000000000000000000000000000000000000000000000000000000000000000000000000000000000000000000000000000000000000000000000000000000000000000000000000000000000000000000000000000000000000000
310
0000000000000000000000000000000000000000000000000000000000000000000000000000000000000000000000000000000000000000000000000000000000F5F5F5F500000000000000000000000000000000000000000000000000000000000000000000000000000000000000000000000000000000000000000000
310
00000000000000000000000000000000000000000000000000000000000000000000000000000000000000000000000000000000000000000000000000000000000000000000000000000000000000000000000000000000000000000000000000000000000000000000000000000000000000000000000000000000000000
310
00000000000000000000000000000000000000000000000000000000000000000000000000000000000000000000000000000000000000000000000000000000000000F5002DF50000000000000000000000000000000000000000000000000000000000000000000000000000000000000000000000000000000000000000
310
00000000000000000000000000000000000000000000000000000000000000000000000000000000000000000000000000000000000000000000000000000000000000000000000000000000000000000000000000000000000000000000000000000000000000000000000000000000000000000000000000000000000000
310
0000000000000000000000000000000000000000000000000000000000000000000000000000000000000000000000000000000000000000000000000000F5F500000000F5F5F5F5F5F500000000F5F50000000000000000000000000000000000000000000000000000000000000000000000000000000000000000000000
310
00000000000000000000000000000000000000000000000000000000000000000000000000000000000000000000000000000000000000000000000000000000000000000000000000000000000000000000000000000000000000000000000000000000000000000000000000000000000000000000000000000000000000
310
000000000000000000000000000000000000000000000000000000000000000000000000000000000000000000000000000000000000000000000000000000F50000F5F5F5F5F5F5002DF5F5F5F5F5F50000F50000000000000000000000000000000000000000000000000000000000000000000000000000000000000000
310
00000000000000000000000000000000000000000000000000000000000000000000000000000000000000000000000000000000000000000000000000000000000000000000000000000000000000000000000000000000000000000000000000000000000000000000000000000000000000000000000000000000000000
310
00000000000000000000000000000000000000000000000000000000000000000000000000000000000000000000000000000000000000000000000000000000F5000000F50000000000F5F50000000000F5000000F50000000000000000000000000000000000000000000000000000000000000000000000000000000000
310
00000000000000000000000000000000000000000000000000000000000000000000000000000000000000000000000000000000000000000000000000000000000000000000000000000000000000000000000000000000000000000000000000000000000000000000000000000000000000000000000000000000000000
310
00000000000000000000000000000000000000000000000000000000000000000000000000000000000000000000000000000000000000000000000000000000000000F500F50000F5F5F5F5002DF5F5F5F50000F500F500000000000000000000000000000000000000000000000000000000000000000000000000000000
310
00000000000000000000000000000000000000000000000000000000000000000000000000000000000000000000000000000000000000000000000000000000000000000000000000000000000000000000000000000000000000000000000000000000000000000000000000000000000000000000000000000000000000
310
000000000000000000000000000000000000000000000000000000000000000000000000000000000000000000000000000000000000000000000000000000000000000000F5F500F5F500000000002D00000000F5F500F5F5F500000000000000000000000000000000000000000000000000000000000000000000000000
310
00000000000000000000000000000000000000000000000000000000000000000000000000000000000000000000000000000000000000000000000000000000000000000000000000000000000000000000000000000000000000000000000000000000000000000000000000000000000000000000000000000000000000
310
00000000000000000000000000000000000000000000000000000000000000000000000000000000000000000000000000000000000000000000000000000000000000000000F5F500F5000000000000002D000000000000F50000F50000000000000000000000000000000000000000000000000000000000000000000000
310
00000000000000000000000000000000000000000000000000000000000000000000000000000000000000000000000000000000000000000000000000000000000000000000000000000000000000000000000000000000000000000000000000000000000000000000000000000000000000000000000000000000000000
310
000000000000000000000000000000000000000000000000000000000000000000000000000000000000000000000000000000000000000000000000000000000000000000000000F50000F5000000000000002D00000000000000F500F5F50000000000000000000000000000000000000000000000000000000000000000
310
00000000000000000000000000000000000000000000000000000000000000000000000000000000000000000000000000000000000000000000000000000000000000000000000000000000000000000000000000000000000000000000000000000000000000000000000000000000000000000000000000000000000000
310
000000000000000000000000000000000000000000000000000000000000000000000000000000000000000000000000000000000000000000000000000000000000000000000000F5F50000F500000000000000002D000000000000F5F5F5F5F5F50000000000000000000000000000000000000000000000000000000000
310
00000000000000000000000000000000000000000000000000000000000000000000000000000000000000000000000000000000000000000000000000000000000000000000000000000000000000000000000000000000000000000000000000000000000000000000000000000000000000000000000000000000000000
310
000000000000000000000000000000000000000000000000000000000000000000000000000000000000000000000000000000000000000000000000000000000000000000000000F5F500F500F50000000000000000002D000000000000F5F5F5F500F5F5F500000000000000000000000000000000000000000000000000
310
00000000000000000000000000000000000000000000000000000000000000000000000000000000000000000000000000000000000000000000000000000000000000000000000000000000000000000000000000000000000000000000000000000000000000000000000000000000000000000000000000000000000000
310
00000000000000000000000000000000000000000000000000000000000000000000000000000000000000000000000000000000000000000000000000000000000000000000000000282800F500F5000000000000000000002D000000000000F5F5F5F500F50000F500000000000000000000000000000000000000000000
310
00000000000000000000000000000000000000000000000000000000000000000000000000000000000000000000000000000000000000000000000000000000000000000000000000000000000000000000000000000000000000000000000000000000000000000000000000000000000000000000000000000000000000
310
00000000000000000000000000000000000000000000000000000000000000000000000000000000000000000000000000000000000000000000000000000000000000000000000000000028F500F500F5000000000000000000002D000000000000F5F5F5F5F5F500F5F50000000000000000000000000000000000000000
310
00000000000000000000000000000000000000000000000000000000000000000000000000000000000000000000000000000000000000000000000000000000000000000000000000000000000000000000000000000000000000000000000000000000000000000000000000000000000000000000000000000000000000
310
000000000000000000000000000000000000000000000000000000000000000000000000000000000000000000000000000000000000000000000000000000000000000000000000000000002800F500F5F500000000000000000000002D000000000000F5F5F5F5F5F500F500000000000000000000000000000000000000
310
00000000000000000000000000000000000000000000000000000000000000000000000000000000000000000000000000000000000000000000000000000000000000000000000000000000000000000000000000000000000000000000000000000000000000000000000000000000000000000000000000000000000000
310
000000000000000000000000000000000000000000000000000000000000000000000000000000000000000000000000000000000000000000000000000000000000000000000000000000000000280000F5F5F5F5F5F5F5F5F5F5F5F5F5F5F5F5F5F5F5F5F5F5F5F5F5F5F5F5000000000000000000000000000000000000
310
000000000000000000000000000000000000F5F5F5F5F5F5F5F5F5F5F5F5F5F5F5F5F5F5F5F5F5F5F5F5F5F5F5F5F5F5F5F5F5F5F5F5F5000000000000000000000000000000000000000000000000000000000000000000000000000000000000000000000000000000000000000000000000000000000000000000000000
310
0000000000000000000000000000000000000000000000000000000000000000000000000000000000000000000000000000000000000000000000000000000000000000000000000000000000000000280000F500F5F5F5F5F5F5F5F5F5F5F5F5F5F5F5F5F5F5F5F5F5F5F5F500F500000000000000000000000000000000
310
0000000000000000000000000000000000000000F5F5F5F5F5F5F5F5F5F5F5F5F5F5F5F5F5F5F5F5F5F5F5F5F5F5F5F5F5F5F5F5F5F5F5F5F500000000000000000000000000000000000000000000000000000000000000000000000000000000000000000000000000000000000000000000000000000000000000000000
310
0000000000000000000000000000000000000000000000000000000000000000000000000000000000000000000000000000000000000000000000000000000000000000000000000000000000000000002D282D2DF52DF5F5F5F5F5F5F5F5F5F5F5F5F5F5F5F5F5F5F5F5F5F5F5F52DF52D2D2D2D00000000000000000000
310
00000000000000000000000000000000000000000000F5F5F5F5F5F5F5F5F5F5F5F5F5F5F5F5F5F5F5F5F5F5F5F5F5F5F5F5F5F5F5F5F5F5F5F5F50000000000000000000000000000000000000000000000000000000000000000000000000000000000000000000000000000000000000000000000000000000000000000
310
000000000000000000000000000000000000000000000000000000000000000000000000000000000000000000000000000000000000000000000000000000000000000000000000000000000000000000000028000000F5F5F5F5F5F5F5F5F5F5F5F5F5F5F5F5F5F5F5F5F5F5F5F5F5F500F5000000000000000000000000
310
00000000000000000000000000000000000000000000000000000000000000000000000000000000000000000000000000000000000000000000000000000000000000000000000000000000000000000000000000000000000000000000000000000000000000000000000000000000000000000000000000000000000000
310
00000000000000000000000000000000000000000000000000000000000000000000000000000000000000000000000000000000000000000000000000000000000000000000000000000000000000000000000000280000F500F5F500F5F5F5000000000000002D00000000000000000000F5F500F5000000000000000000
310
00000000000000000000000000000000000000000000000000000000000000000000000000000000000000000000000000000000000000000000000000000000000000000000000000000000000000000000000000000000000000000000000000000000000000000000000000000000000000000000000000000000000000
310
0000000000000000000000000000000000000000000000000000000000000000000000000000000000000000000000000000000000000000000000000000000000000000000000000000000000000000000000000000002800F5F500F500F5F5F5F5000000000000002D00000000000000000000F5F500F5F5000000000000
310
00000000000000000000000000000000000000000000000000000000000000000000000000000000000000000000000000000000000000000000000000000000000000000000000000000000000000000000000000000000000000000000000000000000000000000000000000000000000000000000000000000000000000
310
00000000000000000000000000000000000000000000000000000000000000000000000000000000000000000000000000000000000000000000000000000000000000000000000000000000000000000000000000000000280000F50000F500F5F5F5F5000000000000002D000000000000000000F500F50028F500000000
310
00000000000000000000000000000000000000000000000000000000000000000000000000000000000000000000000000000000000000000000000000000000000000000000000000000000000000000000000000000000000000000000000000000000000000000000000000000000000000000000000000000000000000
310
00000000000000000000000000000000000000000000000000000000000000000000000000000000000000000000000000000000000000000000000000000000000000000000000000000000000000000000000000000000000028000000F500F50000F5F5F5000000000000002D0000000000000000F50000F50028000000
310
00000000000000000000000000000000000000000000000000000000000000000000000000000000000000000000000000000000000000000000000000000000000000000000000000000000000000000000000000000000000000000000000000000000000000000000000000000000000000000000000000000000000000
310
000000000000000000000000000000000000000000000000000000000000000000000000000000000000000000000000000000000000000000000000000000000000000000000000000000000000000000000000000000000000000028000000F5F5F5F500F50000000000000000002D0000000000000000F500F5F5F52800
310
00000000000000000000000000000000000000000000000000000000000000000000000000000000000000000000000000000000000000000000000000000000000000000000000000000000000000000000000000000000000000000000000000000000000000000000000000000000000000000000000000000000000000
310
000000000000000000000000000000000000000000000000000000000000000000000000000000000000000000000000000000000000000000000000000000000000000000000000000000000000000000000000000000000000000000280000000000000000F500F500000000000000002D00000000000000F500F5F50028
310
00000000000000000000000000000000000000000000000000000000000000000000000000000000000000000000000000000000000000000000000000000000000000000000000000000000000000000000000000000000000000000000000000000000000000000000000000000000000000000000000000000000000000
310
0000000000000000000000000000000000000000000000000000000000000000000000000000000000000000000000000000000000000000000000000000000000000000000000000000000000000000000000000000000000000000000000280000000000000000F5F500F5000000000000002D000000000000F50000F500
310
00280000000000000000000000000000000000000000000000000000000000000000000000000000000000000000000000000000000000000000000000000000000000000000000000000000000000000000000000000000000000000000000000000000000000000000000000000000000000000000000000000000000000
310
0000000000000000000000000000000000000000000000000000000000000000000000000000000000000000000000000000000000000000000000000000000000000000000000000000000000000000000000000000000000000000000000000028000000000000000000F50000F5F500000000002D00000000F5F50000F5
310
F5000028000000000000000000000000000000000000000000000000000000000000000000000000000000000000000000000000000000000000000000000000000000000000000000000000000000000000000000000000000000000000000000000000000000000000000000000000000000000000000000000000000000
310
00000000000000000000000000000000000000000000000000000000000000000000000000000000000000000000000000000000000000000000000000000000000000000000000000000000000000000000000000000000000000000000000000000028000000000000000000F5F5F50000F5000000002D000000F50000F5
310
F5F50000002800000000000000000000000000000000000000000000000000000000000000000000000000000000000000000000000000000000000000000000000000000000000000000000000000000000000000000000000000000000000000000000000000000000000000000000000000000000000000000000000000
310
0000000000000000000000000000000000000000000000000000000000000000000000000000000000000000000000000000000000000000000000000000000000000000000000000000000000000000000000000000000000000000000000000000000028000000000000000000F5000000F50000F5F5F5F5F5F5F5F50000
310
F5000000F50028000000000000000000000000000000000000000000000000000000000000000000000000000000000000000000000000000000000000000000000000000000000000000000000000000000000000000000000000000000000000000000000000000000000000000000000000000000000000000000000000
310
0000000000000000000000000000000000000000000000000000000000000000000000000000000000000000000000000000000000000000000000000000000000000000000000000000000000000000000000000000000000000000000000000000000000002800000000000000000000F50000F5F5F5F5F5F5002D00F5F5
310
F5F5F50000F500002800000000000000000000000000000000000000000000000000000000000000000000000000000000000000000000000000000000000000000000000000000000000000000000000000000000000000000000000000000000000000000000000000000000000000000000000000000000000000000000
310
0000000000000000000000000000000000000000000000000000000000000000000000000000000000000000000000000000000000000000000000000000000000000000000000000000000000000000000000000000000000000000000000000000000000000000280000000000000000000000F5F5000000F5F500F5F5F5
310
F5F5000000F5F5000000280000000000000000000000000000000000000000000000000000000000000000000000000000000000000000000000000000000000000000000000000000000000000000000000000000000000000000000000000000000000000000000000000000000000000000000000000000000000000000
310
0000000000000000000000000000000000000000000000000000000000000000000000000000000000000000000000000000000000000000000000000000000000000000000000000000000000000000000000000000000000000000000000000000000000000000002828280000000000000000000000000000000000F500
310
2DF50000000000000000002800000000000000000000000000000000000000000000000000000000000000000000000000000000000000000000000000000000000000000000000000000000000000000000000000000000000000000000000000000000000000000000000000000000000000000000000000000000000000
310
00000000000000000000000000000000000000000000000000000000000000000000000000000000000000000000000000000000000000000000000000000000000000000000000000000000000000000000000000000000000000000000000000000000000000000000002828282800000000000000000000000000000000
310
F5F5F5F5000000000000000000280000000000000000000000000000000000000000000000000000000000000000000000000000000000000000000000000000000000000000000000000000000000000000000000000000000000000000000000000000000000000000000000000000000000000000000000000000000000
310
00000000000000000000000000000000000000000000000000000000000000000000000000000000000000000000000000000000000000000000000000000000000000000000000000000000000000000000000000000000000000000000000000000000000000000000000000000000002828282800000000000000000000
310
000000002D0000000000000000000028000000000000000000000000000000000000000000000000000000000000000000000000000000000000000000000000000000000000000000000000000000000000000000000000000000000000000000000000000000000000000000000000000000000000000000000000000000
310
00000000000000000000000000000000000000000000000000000000000000000000000000000000000000000000000000000000000000000000000000000000000000000000000000000000000000000000000000000000000000000000000000000000000000000000000000000000000000000000002828280000000000
310
0000000000002D000000000000000000280000000000000000000000000000000000000000000000000000000000000000000000000000000000000000000000000000000000000000000000000000000000000000000000000000000000000000000000000000000000000000000000000000000000000000000000000000
310
00000000000000000000000000000000000000000000000000000000000000000000000000000000000000000000000000000000000000000000000000000000000000000000000000000000000000000000000000000000000000000000000000000000000000000000000000000000000000000000000000000000282828
310
00000000000000000000000000000000000028000000000000000000000000000000000000000000000000000000000000000000000000000000000000000000000000000000000000000000000000000000000000000000000000000000000000000000000000000000000000000000000000000000000000000000000000
310
00000000000000000000000000000000000000000000000000000000000000000000000000000000000000000000000000000000000000000000000000000000000000000000000000000000000000000000000000000000000000000000000000000000000000000000000000000000000000000000000000000000000000
310
00002828282800000000000000000000000000002800000000000000000000000000000000000000000000000000000000000000000000000000000000000000000000000000000000000000000000000000000000000000000000000000000000000000000000000000000000000000000000000000000000000000000000
310
00000000000000000000000000000000000000000000000000000000000000000000000000000000000000000000000000000000000000000000000000000000000000000000000000000000000000000000000000000000000000000000000000000000000000000000000000000000000000000000000000000000000000
310
00000000DCDC00002828280000000000000000000000280000000000000000000000000000000000000000000000000000000000000000000000000000000000000000000000000000000000000000000000000000000000000000000000000000000000000000000000000000000000000000000000000000000000000000
310
00000000000000000000000000000000000000000000000000000000000000000000000000000000000000000000000000000000000000000000000000000000000000000000000000000000000000000000000000000000000000000000000000000000000000000000000000000000000000000000000000000000000000
310
0000000000DCDCDCDC00000000282828000000000000002800000000000000000000000000000000000000000000000000000000000000000000000000000000000000000000000000000000000000000000000000000000000000000000000000000000000000000000000000000000000000000000000000000000000000
310
00000000000000000000000000000000000000000000000000000000000000000000000000000000000000000000000000000000000000000000000000000000000000000000000000000000000000000000000000000000000000000000000000000000000000000000000000000000000000000000000000000000000000
310
00000000000000DCDCDC000000000000000028282828000000280000000000000000000000000000000000000000000000000000000000000000000000000000000000000000000000000000000000000000000000000000000000000000000000000000000000000000000000000000000000000000000000000000000000
310
00000000000000000000000000000000000000000000000000000000000000000000000000000000000000000000000000000000000000000000000000000000000000000000000000000000000000000000000000000000000000000000000000000000000000000000000000000000000000000000000000000000000000
310
00000000000000000000000000000000000000000000000028280028000000000000000000000000000000000000000000000000000000000000000000000000000000000000000000000000000000000000000000000000000000000000000000000000000000000000000000000000000000000000000000000000000000
310
00000000000000000000000000000000000000000000000000000000000000000000000000000000000000000000000000000000000000000000000000000000000000000000000000000000000000000000000000000000000000000000000000000000000000000000000000000000000000000000000000000000000000
310
00000000000000000000000000000000000000000000000000002828280000000000000000000000000000000000000000000000000000000000000000000000000000000000000000000000000000000000000000000000000000000000000000000000000000000000000000000000000000000000000000000000000000
310
00000000000000000000000000000000000000000000000000000000000000000000000000000000000000000000000000000000000000000000000000000000000000000000000000000000000000000000000000000000000000000000000000000000000000000000000000000000000000000000000000000000000000
310
00000000000000000000000000000000000000000000000000000000000028000000000000000000000000000000000000000000000000000000000000000000000000000000000000000000000000000000000000000000000000000000000000000000000000000000000000000000000000000000000000000000000000
310
00000000000000000000000000000000000000000000000000000000000000000000000000000000
  0
XRECORD
  5
291C
102
{ACAD_REACTORS
330
291B
102
}
330
291B
100
AcDbXrecord
280
     1
102
SHADEPLOT
 70
     0
102
SHADEPLOTRESLEVEL
 70
     2
102
SHADEPLOTCUSTOMDPI
 70
   300
  0
XRECORD
  5
291F
102
{ACAD_REACTORS
330
291E
102
}
330
291E
100
AcDbXrecord
280
     1
102
SHADEPLOT
 70
     0
102
SHADEPLOTRESLEVEL
 70
     2
102
SHADEPLOTCUSTOMDPI
 70
   300
  0
XRECORD
  5
2923
102
{ACAD_REACTORS
330
2922
102
}
330
2922
100
AcDbXrecord
280
     1
102
MATERIAL
148
0.0
149
0.0
149
0.0
 93
        0
 94
       63
282
     0
 72
     1
 77
     1
171
     1
175
     1
179
     1
273
     0
  0
XRECORD
  5
2921
102
{ACAD_REACTORS
330
2920
102
}
330
2920
100
AcDbXrecord
280
     1
102
MATERIAL
148
0.0
149
0.0
149
0.0
 93
        0
 94
       63
282
     0
 72
     1
 77
     1
171
     1
175
     1
179
     1
273
     0
  0
XRECORD
  5
2925
102
{ACAD_REACTORS
330
2924
102
}
330
2924
100
AcDbXrecord
280
     1
102
MATERIAL
148
0.0
149
0.0
149
0.0
 93
        0
 94
       63
282
     0
 72
     1
 77
     1
171
     1
175
     1
179
     1
273
     0
  0
CELLSTYLEMAP
  5
2913
102
{ACAD_REACTORS
330
21E0
102
}
330
21E0
100
AcDbCellStyleMap
 90
        3
300
CELLSTYLE
  1
TABLEFORMAT_BEGIN
 90
        5
170
     1
 91
        0
 92
    32768
 62
   257
 93
        1
300
CONTENTFORMAT
  1
CONTENTFORMAT_BEGIN
 90
        0
 91
        0
 92
      512
 93
        0
300

 40
0.0
140
1.0
 94
        5
 62
     0
340
11
144
6.0
309
CONTENTFORMAT_END
171
     1
301
MARGIN
  1
CELLMARGIN_BEGIN
 40
1.5
 40
1.5
 40
1.5
 40
1.5
 40
0.18
 40
0.18
309
CELLMARGIN_END
 94
        6
 95
        1
302
GRIDFORMAT
  1
GRIDFORMAT_BEGIN
 90
        0
 91
        1
 62
     0
 92
       -2
340
0
 93
        0
 40
0.045
309
GRIDFORMAT_END
 95
        2
302
GRIDFORMAT
  1
GRIDFORMAT_BEGIN
 90
        0
 91
        1
 62
     0
 92
       -2
340
0
 93
        0
 40
0.045
309
GRIDFORMAT_END
 95
        4
302
GRIDFORMAT
  1
GRIDFORMAT_BEGIN
 90
        0
 91
        1
 62
     0
 92
       -2
340
0
 93
        0
 40
0.045
309
GRIDFORMAT_END
 95
        8
302
GRIDFORMAT
  1
GRIDFORMAT_BEGIN
 90
        0
 91
        1
 62
     0
 92
       -2
340
0
 93
        0
 40
0.045
309
GRIDFORMAT_END
 95
       16
302
GRIDFORMAT
  1
GRIDFORMAT_BEGIN
 90
        0
 91
        1
 62
     0
 92
       -2
340
0
 93
        0
 40
0.045
309
GRIDFORMAT_END
 95
       32
302
GRIDFORMAT
  1
GRIDFORMAT_BEGIN
 90
        0
 91
        1
 62
     0
 92
       -2
340
0
 93
        0
 40
0.045
309
GRIDFORMAT_END
309
TABLEFORMAT_END
  1
CELLSTYLE_BEGIN
 90
        1
 91
        1
300
_TITLE
309
CELLSTYLE_END
300
CELLSTYLE
  1
TABLEFORMAT_BEGIN
 90
        5
170
     1
 91
        0
 92
        0
 62
   257
 93
        1
300
CONTENTFORMAT
  1
CONTENTFORMAT_BEGIN
 90
        0
 91
        0
 92
      512
 93
        0
300

 40
0.0
140
1.0
 94
        5
 62
     0
340
11
144
4.5
309
CONTENTFORMAT_END
171
     1
301
MARGIN
  1
CELLMARGIN_BEGIN
 40
1.5
 40
1.5
 40
1.5
 40
1.5
 40
0.18
 40
0.18
309
CELLMARGIN_END
 94
        6
 95
        1
302
GRIDFORMAT
  1
GRIDFORMAT_BEGIN
 90
        0
 91
        1
 62
     0
 92
       -2
340
0
 93
        0
 40
0.045
309
GRIDFORMAT_END
 95
        2
302
GRIDFORMAT
  1
GRIDFORMAT_BEGIN
 90
        0
 91
        1
 62
     0
 92
       -2
340
0
 93
        0
 40
0.045
309
GRIDFORMAT_END
 95
        4
302
GRIDFORMAT
  1
GRIDFORMAT_BEGIN
 90
        0
 91
        1
 62
     0
 92
       -2
340
0
 93
        0
 40
0.045
309
GRIDFORMAT_END
 95
        8
302
GRIDFORMAT
  1
GRIDFORMAT_BEGIN
 90
        0
 91
        1
 62
     0
 92
       -2
340
0
 93
        0
 40
0.045
309
GRIDFORMAT_END
 95
       16
302
GRIDFORMAT
  1
GRIDFORMAT_BEGIN
 90
        0
 91
        1
 62
     0
 92
       -2
340
0
 93
        0
 40
0.045
309
GRIDFORMAT_END
 95
       32
302
GRIDFORMAT
  1
GRIDFORMAT_BEGIN
 90
        0
 91
        1
 62
     0
 92
       -2
340
0
 93
        0
 40
0.045
309
GRIDFORMAT_END
309
TABLEFORMAT_END
  1
CELLSTYLE_BEGIN
 90
        2
 91
        1
300
_HEADER
309
CELLSTYLE_END
300
CELLSTYLE
  1
TABLEFORMAT_BEGIN
 90
        5
170
     1
 91
        0
 92
        0
 62
   257
 93
        1
300
CONTENTFORMAT
  1
CONTENTFORMAT_BEGIN
 90
        0
 91
        0
 92
      512
 93
        0
300

 40
0.0
140
1.0
 94
        2
 62
     0
340
11
144
4.5
309
CONTENTFORMAT_END
171
     1
301
MARGIN
  1
CELLMARGIN_BEGIN
 40
1.5
 40
1.5
 40
1.5
 40
1.5
 40
0.18
 40
0.18
309
CELLMARGIN_END
 94
        6
 95
        1
302
GRIDFORMAT
  1
GRIDFORMAT_BEGIN
 90
        0
 91
        1
 62
     0
 92
       -2
340
0
 93
        0
 40
0.045
309
GRIDFORMAT_END
 95
        2
302
GRIDFORMAT
  1
GRIDFORMAT_BEGIN
 90
        0
 91
        1
 62
     0
 92
       -2
340
0
 93
        0
 40
0.045
309
GRIDFORMAT_END
 95
        4
302
GRIDFORMAT
  1
GRIDFORMAT_BEGIN
 90
        0
 91
        1
 62
     0
 92
       -2
340
0
 93
        0
 40
0.045
309
GRIDFORMAT_END
 95
        8
302
GRIDFORMAT
  1
GRIDFORMAT_BEGIN
 90
        0
 91
        1
 62
     0
 92
       -2
340
0
 93
        0
 40
0.045
309
GRIDFORMAT_END
 95
       16
302
GRIDFORMAT
  1
GRIDFORMAT_BEGIN
 90
        0
 91
        1
 62
     0
 92
       -2
340
0
 93
        0
 40
0.045
309
GRIDFORMAT_END
 95
       32
302
GRIDFORMAT
  1
GRIDFORMAT_BEGIN
 90
        0
 91
        1
 62
     0
 92
       -2
340
0
 93
        0
 40
0.045
309
GRIDFORMAT_END
309
TABLEFORMAT_END
  1
CELLSTYLE_BEGIN
 90
        3
 91
        2
300
_DATA
309
CELLSTYLE_END
  0
XRECORD
  5
2946
102
{ACAD_REACTORS
330
21E0
102
}
330
21E0
100
AcDbXrecord
280
     1
102
ACAD_ROUNDTRIP_PRE2007_TABLESTYLE
 90
      512
 91
        0
  1

 92
      512
 93
        0
  2

 94
      512
 95
        0
  3

  0
XRECORD
  5
2931
102
{ACAD_REACTORS
330
2930
102
}
330
2930
100
AcDbXrecord
280
     1
102
RTVSPropertyOp0
 70
     1
102
RTVSPropertyOp1
 70
     1
102
RTVSPropertyOp2
 70
     1
102
RTVSPropertyOp3
 70
     1
102
RTVSPropertyOp4
 70
     1
102
RTVSPropertyOp5
 70
     1
102
RTVSPropertyOp6
 70
     1
102
RTVSPropertyOp7
 70
     1
102
RTVSPropertyOp8
 70
     1
102
RTVSPropertyOp9
 70
     1
102
RTVSPropertyOp10
 70
     1
102
RTVSPropertyOp11
 70
     1
102
RTVSPropertyOp12
 70
     1
102
RTVSPropertyOp13
 70
     1
102
RTVSPropertyOp14
 70
     1
102
RTVSPropertyOp15
 70
     1
102
RTVSPropertyOp16
 70
     1
102
RTVSPropertyOp17
 70
     1
102
RTVSPropertyOp18
 70
     1
102
RTVSPropertyOp19
 70
     1
102
RTVSPropertyOp20
 70
     1
102
RTVSPropertyOp21
 70
     1
102
RTVSPropertyOp22
 70
     1
102
RTVSPropertyOp23
 70
     1
102
RTVSPropertyOp24
 70
     1
102
RTVSPropertyOp25
 70
     1
102
RTVSPropertyOp26
 70
     1
102
RTVSPropertyOp27
 70
     1
102
RTVSPropertyOp28
 70
     1
102
RTVSPropertyOp29
 70
     1
102
RTVSPropertyOp30
 70
     1
102
RTVSPropertyOp31
 70
     1
102
RTVSPropertyOp32
 70
     1
  0
XRECORD
  5
2935
102
{ACAD_REACTORS
330
2934
102
}
330
2934
100
AcDbXrecord
280
     1
102
RTVSPropertyOp0
 70
     1
102
RTVSPropertyOp1
 70
     1
102
RTVSPropertyOp2
 70
     1
102
RTVSPropertyOp3
 70
     1
102
RTVSPropertyOp4
 70
     1
102
RTVSPropertyOp5
 70
     1
102
RTVSPropertyOp6
 70
     1
102
RTVSPropertyOp7
 70
     1
102
RTVSPropertyOp8
 70
     1
102
RTVSPropertyOp9
 70
     1
102
RTVSPropertyOp10
 70
     1
102
RTVSPropertyOp11
 70
     1
102
RTVSPropertyOp12
 70
     1
102
RTVSPropertyOp13
 70
     1
102
RTVSPropertyOp14
 70
     1
102
RTVSPropertyOp15
 70
     1
102
RTVSPropertyOp16
 70
     1
102
RTVSPropertyOp17
 70
     1
102
RTVSPropertyOp18
 70
     1
102
RTVSPropertyOp19
 70
     1
102
RTVSPropertyOp20
 70
     1
102
RTVSPropertyOp21
 70
     1
102
RTVSPropertyOp22
 70
     1
102
RTVSPropertyOp23
 70
     1
102
RTVSPropertyOp24
 70
     1
102
RTVSPropertyOp25
 70
     1
102
RTVSPropertyOp26
 70
     1
102
RTVSPropertyOp27
 70
     1
102
RTVSPropertyOp28
 70
     1
102
RTVSPropertyOp29
 70
     1
102
RTVSPropertyOp30
 70
     1
102
RTVSPropertyOp31
 70
     1
102
RTVSPropertyOp32
 70
     1
  0
XRECORD
  5
2933
102
{ACAD_REACTORS
330
2932
102
}
330
2932
100
AcDbXrecord
280
     1
102
RTVSPropertyOp0
 70
     1
102
RTVSPropertyOp1
 70
     1
102
RTVSPropertyOp2
 70
     1
102
RTVSPropertyOp3
 70
     1
102
RTVSPropertyOp4
 70
     1
102
RTVSPropertyOp5
 70
     1
102
RTVSPropertyOp6
 70
     1
102
RTVSPropertyOp7
 70
     1
102
RTVSPropertyOp8
 70
     1
102
RTVSPropertyOp9
 70
     1
102
RTVSPropertyOp10
 70
     1
102
RTVSPropertyOp11
 70
     1
102
RTVSPropertyOp12
 70
     1
102
RTVSPropertyOp13
 70
     1
102
RTVSPropertyOp14
 70
     1
102
RTVSPropertyOp15
 70
     1
102
RTVSPropertyOp16
 70
     1
102
RTVSPropertyOp17
 70
     1
102
RTVSPropertyOp18
 70
     1
102
RTVSPropertyOp19
 70
     1
102
RTVSPropertyOp20
 70
     1
102
RTVSPropertyOp21
 70
     1
102
RTVSPropertyOp22
 70
     1
102
RTVSPropertyOp23
 70
     1
102
RTVSPropertyOp24
 70
     1
102
RTVSPropertyOp25
 70
     1
102
RTVSPropertyOp26
 70
     1
102
RTVSPropertyOp27
 70
     1
102
RTVSPropertyOp28
 70
     1
102
RTVSPropertyOp29
 70
     1
102
RTVSPropertyOp30
 70
     1
102
RTVSPropertyOp31
 70
     1
102
RTVSPropertyOp32
 70
     1
  0
XRECORD
  5
292F
102
{ACAD_REACTORS
330
292E
102
}
330
292E
100
AcDbXrecord
280
     1
102
RTVSPropertyOp0
 70
     1
102
RTVSPropertyOp1
 70
     1
102
RTVSPropertyOp2
 70
     1
102
RTVSPropertyOp3
 70
     1
102
RTVSPropertyOp4
 70
     1
102
RTVSPropertyOp5
 70
     1
102
RTVSPropertyOp6
 70
     1
102
RTVSPropertyOp7
 70
     1
102
RTVSPropertyOp8
 70
     1
102
RTVSPropertyOp9
 70
     1
102
RTVSPropertyOp10
 70
     1
102
RTVSPropertyOp11
 70
     1
102
RTVSPropertyOp12
 70
     1
102
RTVSPropertyOp13
 70
     1
102
RTVSPropertyOp14
 70
     1
102
RTVSPropertyOp15
 70
     1
102
RTVSPropertyOp16
 70
     1
102
RTVSPropertyOp17
 70
     1
102
RTVSPropertyOp18
 70
     1
102
RTVSPropertyOp19
 70
     1
102
RTVSPropertyOp20
 70
     1
102
RTVSPropertyOp21
 70
     1
102
RTVSPropertyOp22
 70
     1
102
RTVSPropertyOp23
 70
     1
102
RTVSPropertyOp24
 70
     1
102
RTVSPropertyOp25
 70
     1
102
RTVSPropertyOp26
 70
     1
102
RTVSPropertyOp27
 70
     1
102
RTVSPropertyOp28
 70
     1
102
RTVSPropertyOp29
 70
     1
102
RTVSPropertyOp30
 70
     1
102
RTVSPropertyOp31
 70
     1
102
RTVSPropertyOp32
 70
     1
  0
XRECORD
  5
293D
102
{ACAD_REACTORS
330
293C
102
}
330
293C
100
AcDbXrecord
280
     1
102
RTVSPropertyOp0
 70
     1
102
RTVSPropertyOp1
 70
     1
102
RTVSPropertyOp2
 70
     1
102
RTVSPropertyOp3
 70
     1
102
RTVSPropertyOp4
 70
     1
102
RTVSPropertyOp5
 70
     1
102
RTVSPropertyOp6
 70
     1
102
RTVSPropertyOp7
 70
     1
102
RTVSPropertyOp8
 70
     1
102
RTVSPropertyOp9
 70
     1
102
RTVSPropertyOp10
 70
     1
102
RTVSPropertyOp11
 70
     1
102
RTVSPropertyOp12
 70
     1
102
RTVSPropertyOp13
 70
     1
102
RTVSPropertyOp14
 70
     1
102
RTVSPropertyOp15
 70
     1
102
RTVSPropertyOp16
 70
     1
102
RTVSPropertyOp17
 70
     1
102
RTVSPropertyOp18
 70
     1
102
RTVSPropertyOp19
 70
     1
102
RTVSPropertyOp20
 70
     1
102
RTVSPropertyOp21
 70
     1
102
RTVSPropertyOp22
 70
     1
102
RTVSPropertyOp23
 70
     1
102
RTVSPropertyOp24
 70
     1
102
RTVSPropertyOp25
 70
     1
102
RTVSPropertyOp26
 70
     1
102
RTVSPropertyOp27
 70
     1
102
RTVSPropertyOp28
 70
     1
102
RTVSPropertyOp29
 70
     1
102
RTVSPropertyOp30
 70
     1
102
RTVSPropertyOp31
 70
     1
102
RTVSPropertyOp32
 70
     1
  0
XRECORD
  5
2945
102
{ACAD_REACTORS
330
2944
102
}
330
2944
100
AcDbXrecord
280
     1
102
RTVSPropertyOp0
 70
     1
102
RTVSPropertyOp1
 70
     1
102
RTVSPropertyOp2
 70
     1
102
RTVSPropertyOp3
 70
     1
102
RTVSPropertyOp4
 70
     1
102
RTVSPropertyOp5
 70
     1
102
RTVSPropertyOp6
 70
     1
102
RTVSPropertyOp7
 70
     1
102
RTVSPropertyOp8
 70
     1
102
RTVSPropertyOp9
 70
     1
102
RTVSPropertyOp10
 70
     1
102
RTVSPropertyOp11
 70
     1
102
RTVSPropertyOp12
 70
     1
102
RTVSPropertyOp13
 70
     1
102
RTVSPropertyOp14
 70
     1
102
RTVSPropertyOp15
 70
     1
102
RTVSPropertyOp16
 70
     1
102
RTVSPropertyOp17
 70
     1
102
RTVSPropertyOp18
 70
     1
102
RTVSPropertyOp19
 70
     1
102
RTVSPropertyOp20
 70
     1
102
RTVSPropertyOp21
 70
     1
102
RTVSPropertyOp22
 70
     1
102
RTVSPropertyOp23
 70
     1
102
RTVSPropertyOp24
 70
     1
102
RTVSPropertyOp25
 70
     1
102
RTVSPropertyOp26
 70
     1
102
RTVSPropertyOp27
 70
     1
102
RTVSPropertyOp28
 70
     1
102
RTVSPropertyOp29
 70
     1
102
RTVSPropertyOp30
 70
     1
102
RTVSPropertyOp31
 70
     1
102
RTVSPropertyOp32
 70
     1
  0
XRECORD
  5
2937
102
{ACAD_REACTORS
330
2936
102
}
330
2936
100
AcDbXrecord
280
     1
102
RTVSPropertyOp0
 70
     1
102
RTVSPropertyOp1
 70
     1
102
RTVSPropertyOp2
 70
     1
102
RTVSPropertyOp3
 70
     1
102
RTVSPropertyOp4
 70
     1
102
RTVSPropertyOp5
 70
     1
102
RTVSPropertyOp6
 70
     1
102
RTVSPropertyOp7
 70
     1
102
RTVSPropertyOp8
 70
     1
102
RTVSPropertyOp9
 70
     1
102
RTVSPropertyOp10
 70
     1
102
RTVSPropertyOp11
 70
     1
102
RTVSPropertyOp12
 70
     1
102
RTVSPropertyOp13
 70
     1
102
RTVSPropertyOp14
 70
     1
102
RTVSPropertyOp15
 70
     1
102
RTVSPropertyOp16
 70
     1
102
RTVSPropertyOp17
 70
     1
102
RTVSPropertyOp18
 70
     1
102
RTVSPropertyOp19
 70
     1
102
RTVSPropertyOp20
 70
     1
102
RTVSPropertyOp21
 70
     1
102
RTVSPropertyOp22
 70
     1
102
RTVSPropertyOp23
 70
     1
102
RTVSPropertyOp24
 70
     1
102
RTVSPropertyOp25
 70
     1
102
RTVSPropertyOp26
 70
     1
102
RTVSPropertyOp27
 70
     1
102
RTVSPropertyOp28
 70
     1
102
RTVSPropertyOp29
 70
     1
102
RTVSPropertyOp30
 70
     1
102
RTVSPropertyOp31
 70
     1
102
RTVSPropertyOp32
 70
     1
  0
XRECORD
  5
293B
102
{ACAD_REACTORS
330
293A
102
}
330
293A
100
AcDbXrecord
280
     1
102
RTVSPropertyOp0
 70
     1
102
RTVSPropertyOp1
 70
     1
102
RTVSPropertyOp2
 70
     1
102
RTVSPropertyOp3
 70
     1
102
RTVSPropertyOp4
 70
     1
102
RTVSPropertyOp5
 70
     1
102
RTVSPropertyOp6
 70
     1
102
RTVSPropertyOp7
 70
     1
102
RTVSPropertyOp8
 70
     1
102
RTVSPropertyOp9
 70
     1
102
RTVSPropertyOp10
 70
     1
102
RTVSPropertyOp11
 70
     1
102
RTVSPropertyOp12
 70
     1
102
RTVSPropertyOp13
 70
     1
102
RTVSPropertyOp14
 70
     1
102
RTVSPropertyOp15
 70
     1
102
RTVSPropertyOp16
 70
     1
102
RTVSPropertyOp17
 70
     1
102
RTVSPropertyOp18
 70
     1
102
RTVSPropertyOp19
 70
     1
102
RTVSPropertyOp20
 70
     1
102
RTVSPropertyOp21
 70
     1
102
RTVSPropertyOp22
 70
     1
102
RTVSPropertyOp23
 70
     1
102
RTVSPropertyOp24
 70
     1
102
RTVSPropertyOp25
 70
     1
102
RTVSPropertyOp26
 70
     1
102
RTVSPropertyOp27
 70
     1
102
RTVSPropertyOp28
 70
     1
102
RTVSPropertyOp29
 70
     1
102
RTVSPropertyOp30
 70
     1
102
RTVSPropertyOp31
 70
     1
102
RTVSPropertyOp32
 70
     1
  0
XRECORD
  5
295A
102
{ACAD_REACTORS
330
2959
102
}
330
2959
100
AcDbXrecord
280
     1
102
RTVSPropertyOp0
 70
     0
102
RTVSPropertyOp1
 70
     0
102
RTVSPropertyOp2
 70
     0
102
RTVSPropertyOp3
 70
     0
102
RTVSPropertyOp4
 70
     0
102
RTVSPropertyOp5
 70
     0
102
RTVSPropertyOp6
 70
     0
102
RTVSPropertyOp7
 70
     0
102
RTVSPropertyOp8
 70
     0
102
RTVSPropertyOp9
 70
     0
102
RTVSPropertyOp10
 70
     0
102
RTVSPropertyOp11
 70
     0
102
RTVSPropertyOp12
 70
     0
102
RTVSPropertyOp13
 70
     0
102
RTVSPropertyOp14
 70
     2
102
RTVSPropertyOp15
 70
     0
102
RTVSPropertyOp16
 70
     0
102
RTVSPropertyOp17
 70
     0
102
RTVSPropertyOp18
 70
     0
102
RTVSPropertyOp19
 70
     0
102
RTVSPropertyOp20
 70
     0
102
RTVSPropertyOp21
 70
     0
102
RTVSPropertyOp22
 70
     0
102
RTVSPropertyOp23
 70
     0
102
RTVSPropertyOp24
 70
     0
102
RTVSPropertyOp25
 70
     0
102
RTVSPropertyOp26
 70
     0
102
RTVSPropertyOp27
 70
     0
102
RTVSPropertyOp28
 70
     0
102
RTVSPropertyOp29
 70
     0
102
RTVSPropertyOp30
 70
     0
102
RTVSPropertyOp31
 70
     0
102
RTVSPropertyOp32
 70
     0
  0
XRECORD
  5
2943
102
{ACAD_REACTORS
330
2942
102
}
330
2942
100
AcDbXrecord
280
     1
102
RTVSPropertyOp0
 70
     1
102
RTVSPropertyOp1
 70
     1
102
RTVSPropertyOp2
 70
     1
102
RTVSPropertyOp3
 70
     1
102
RTVSPropertyOp4
 70
     1
102
RTVSPropertyOp5
 70
     1
102
RTVSPropertyOp6
 70
     1
102
RTVSPropertyOp7
 70
     1
102
RTVSPropertyOp8
 70
     1
102
RTVSPropertyOp9
 70
     1
102
RTVSPropertyOp10
 70
     1
102
RTVSPropertyOp11
 70
     1
102
RTVSPropertyOp12
 70
     1
102
RTVSPropertyOp13
 70
     1
102
RTVSPropertyOp14
 70
     1
102
RTVSPropertyOp15
 70
     1
102
RTVSPropertyOp16
 70
     1
102
RTVSPropertyOp17
 70
     1
102
RTVSPropertyOp18
 70
     1
102
RTVSPropertyOp19
 70
     1
102
RTVSPropertyOp20
 70
     1
102
RTVSPropertyOp21
 70
     1
102
RTVSPropertyOp22
 70
     1
102
RTVSPropertyOp23
 70
     1
102
RTVSPropertyOp24
 70
     1
102
RTVSPropertyOp25
 70
     1
102
RTVSPropertyOp26
 70
     1
102
RTVSPropertyOp27
 70
     1
102
RTVSPropertyOp28
 70
     1
102
RTVSPropertyOp29
 70
     1
102
RTVSPropertyOp30
 70
     1
102
RTVSPropertyOp31
 70
     1
102
RTVSPropertyOp32
 70
     1
  0
XRECORD
  5
2927
102
{ACAD_REACTORS
330
2926
102
}
330
2926
100
AcDbXrecord
280
     1
102
RTVSPropertyOp0
 70
     1
102
RTVSPropertyOp1
 70
     1
102
RTVSPropertyOp2
 70
     1
102
RTVSPropertyOp3
 70
     1
102
RTVSPropertyOp4
 70
     1
102
RTVSPropertyOp5
 70
     1
102
RTVSPropertyOp6
 70
     1
102
RTVSPropertyOp7
 70
     1
102
RTVSPropertyOp8
 70
     1
102
RTVSPropertyOp9
 70
     1
102
RTVSPropertyOp10
 70
     1
102
RTVSPropertyOp11
 70
     1
102
RTVSPropertyOp12
 70
     1
102
RTVSPropertyOp13
 70
     1
102
RTVSPropertyOp14
 70
     1
102
RTVSPropertyOp15
 70
     1
102
RTVSPropertyOp16
 70
     1
102
RTVSPropertyOp17
 70
     1
102
RTVSPropertyOp18
 70
     1
102
RTVSPropertyOp19
 70
     1
102
RTVSPropertyOp20
 70
     1
102
RTVSPropertyOp21
 70
     1
102
RTVSPropertyOp22
 70
     1
102
RTVSPropertyOp23
 70
     1
102
RTVSPropertyOp24
 70
     1
102
RTVSPropertyOp25
 70
     1
102
RTVSPropertyOp26
 70
     1
102
RTVSPropertyOp27
 70
     1
102
RTVSPropertyOp28
 70
     1
102
RTVSPropertyOp29
 70
     1
102
RTVSPropertyOp30
 70
     1
102
RTVSPropertyOp31
 70
     1
102
RTVSPropertyOp32
 70
     1
  0
XRECORD
  5
2929
102
{ACAD_REACTORS
330
2928
102
}
330
2928
100
AcDbXrecord
280
     1
102
RTVSPropertyOp0
 70
     1
102
RTVSPropertyOp1
 70
     1
102
RTVSPropertyOp2
 70
     1
102
RTVSPropertyOp3
 70
     1
102
RTVSPropertyOp4
 70
     1
102
RTVSPropertyOp5
 70
     1
102
RTVSPropertyOp6
 70
     1
102
RTVSPropertyOp7
 70
     1
102
RTVSPropertyOp8
 70
     1
102
RTVSPropertyOp9
 70
     1
102
RTVSPropertyOp10
 70
     1
102
RTVSPropertyOp11
 70
     1
102
RTVSPropertyOp12
 70
     1
102
RTVSPropertyOp13
 70
     1
102
RTVSPropertyOp14
 70
     1
102
RTVSPropertyOp15
 70
     1
102
RTVSPropertyOp16
 70
     1
102
RTVSPropertyOp17
 70
     1
102
RTVSPropertyOp18
 70
     1
102
RTVSPropertyOp19
 70
     1
102
RTVSPropertyOp20
 70
     1
102
RTVSPropertyOp21
 70
     1
102
RTVSPropertyOp22
 70
     1
102
RTVSPropertyOp23
 70
     1
102
RTVSPropertyOp24
 70
     1
102
RTVSPropertyOp25
 70
     1
102
RTVSPropertyOp26
 70
     1
102
RTVSPropertyOp27
 70
     1
102
RTVSPropertyOp28
 70
     1
102
RTVSPropertyOp29
 70
     1
102
RTVSPropertyOp30
 70
     1
102
RTVSPropertyOp31
 70
     1
102
RTVSPropertyOp32
 70
     1
  0
XRECORD
  5
292B
102
{ACAD_REACTORS
330
292A
102
}
330
292A
100
AcDbXrecord
280
     1
102
RTVSPropertyOp0
 70
     1
102
RTVSPropertyOp1
 70
     1
102
RTVSPropertyOp2
 70
     1
102
RTVSPropertyOp3
 70
     1
102
RTVSPropertyOp4
 70
     1
102
RTVSPropertyOp5
 70
     1
102
RTVSPropertyOp6
 70
     1
102
RTVSPropertyOp7
 70
     1
102
RTVSPropertyOp8
 70
     1
102
RTVSPropertyOp9
 70
     1
102
RTVSPropertyOp10
 70
     1
102
RTVSPropertyOp11
 70
     1
102
RTVSPropertyOp12
 70
     1
102
RTVSPropertyOp13
 70
     1
102
RTVSPropertyOp14
 70
     1
102
RTVSPropertyOp15
 70
     1
102
RTVSPropertyOp16
 70
     1
102
RTVSPropertyOp17
 70
     1
102
RTVSPropertyOp18
 70
     1
102
RTVSPropertyOp19
 70
     1
102
RTVSPropertyOp20
 70
     1
102
RTVSPropertyOp21
 70
     1
102
RTVSPropertyOp22
 70
     1
102
RTVSPropertyOp23
 70
     1
102
RTVSPropertyOp24
 70
     1
102
RTVSPropertyOp25
 70
     1
102
RTVSPropertyOp26
 70
     1
102
RTVSPropertyOp27
 70
     1
102
RTVSPropertyOp28
 70
     1
102
RTVSPropertyOp29
 70
     1
102
RTVSPropertyOp30
 70
     1
102
RTVSPropertyOp31
 70
     1
102
RTVSPropertyOp32
 70
     1
  0
XRECORD
  5
292D
102
{ACAD_REACTORS
330
292C
102
}
330
292C
100
AcDbXrecord
280
     1
102
RTVSPropertyOp0
 70
     1
102
RTVSPropertyOp1
 70
     1
102
RTVSPropertyOp2
 70
     1
102
RTVSPropertyOp3
 70
     1
102
RTVSPropertyOp4
 70
     1
102
RTVSPropertyOp5
 70
     1
102
RTVSPropertyOp6
 70
     1
102
RTVSPropertyOp7
 70
     1
102
RTVSPropertyOp8
 70
     1
102
RTVSPropertyOp9
 70
     1
102
RTVSPropertyOp10
 70
     1
102
RTVSPropertyOp11
 70
     1
102
RTVSPropertyOp12
 70
     1
102
RTVSPropertyOp13
 70
     1
102
RTVSPropertyOp14
 70
     1
102
RTVSPropertyOp15
 70
     1
102
RTVSPropertyOp16
 70
     1
102
RTVSPropertyOp17
 70
     1
102
RTVSPropertyOp18
 70
     1
102
RTVSPropertyOp19
 70
     1
102
RTVSPropertyOp20
 70
     1
102
RTVSPropertyOp21
 70
     1
102
RTVSPropertyOp22
 70
     1
102
RTVSPropertyOp23
 70
     1
102
RTVSPropertyOp24
 70
     1
102
RTVSPropertyOp25
 70
     1
102
RTVSPropertyOp26
 70
     1
102
RTVSPropertyOp27
 70
     1
102
RTVSPropertyOp28
 70
     1
102
RTVSPropertyOp29
 70
     1
102
RTVSPropertyOp30
 70
     1
102
RTVSPropertyOp31
 70
     1
102
RTVSPropertyOp32
 70
     1
  0
XRECORD
  5
294A
102
{ACAD_REACTORS
330
2949
102
}
330
2949
100
AcDbXrecord
280
     1
102
RTVSPropertyOp0
 70
     1
102
RTVSPropertyOp1
 70
     1
102
RTVSPropertyOp2
 70
     1
102
RTVSPropertyOp3
 70
     1
102
RTVSPropertyOp4
 70
     1
102
RTVSPropertyOp5
 70
     1
102
RTVSPropertyOp6
 70
     1
102
RTVSPropertyOp7
 70
     1
102
RTVSPropertyOp8
 70
     1
102
RTVSPropertyOp9
 70
     1
102
RTVSPropertyOp10
 70
     1
102
RTVSPropertyOp11
 70
     1
102
RTVSPropertyOp12
 70
     1
102
RTVSPropertyOp13
 70
     1
102
RTVSPropertyOp14
 70
     1
102
RTVSPropertyOp15
 70
     1
102
RTVSPropertyOp16
 70
     1
102
RTVSPropertyOp17
 70
     1
102
RTVSPropertyOp18
 70
     1
102
RTVSPropertyOp19
 70
     1
102
RTVSPropertyOp20
 70
     1
102
RTVSPropertyOp21
 70
     1
102
RTVSPropertyOp22
 70
     1
102
RTVSPropertyOp23
 70
     1
102
RTVSPropertyOp24
 70
     1
102
RTVSPropertyOp25
 70
     1
102
RTVSPropertyOp26
 70
     1
102
RTVSPropertyOp27
 70
     1
102
RTVSPropertyOp28
 70
     1
102
RTVSPropertyOp29
 70
     1
102
RTVSPropertyOp30
 70
     1
102
RTVSPropertyOp31
 70
     1
102
RTVSPropertyOp32
 70
     1
  0
XRECORD
  5
2956
102
{ACAD_REACTORS
330
2955
102
}
330
2955
100
AcDbXrecord
280
     1
102
RTVSPropertyOp0
 70
     0
102
RTVSPropertyOp1
 70
     0
102
RTVSPropertyOp2
 70
     0
102
RTVSPropertyOp3
 70
     0
102
RTVSPropertyOp4
 70
     0
102
RTVSPropertyOp5
 70
     0
102
RTVSPropertyOp6
 70
     0
102
RTVSPropertyOp7
 70
     0
102
RTVSPropertyOp8
 70
     0
102
RTVSPropertyOp9
 70
     0
102
RTVSPropertyOp10
 70
     0
102
RTVSPropertyOp11
 70
     0
102
RTVSPropertyOp12
 70
     0
102
RTVSPropertyOp13
 70
     0
102
RTVSPropertyOp14
 70
     2
102
RTVSPropertyOp15
 70
     0
102
RTVSPropertyOp16
 70
     0
102
RTVSPropertyOp17
 70
     0
102
RTVSPropertyOp18
 70
     0
102
RTVSPropertyOp19
 70
     0
102
RTVSPropertyOp20
 70
     0
102
RTVSPropertyOp21
 70
     0
102
RTVSPropertyOp22
 70
     0
102
RTVSPropertyOp23
 70
     0
102
RTVSPropertyOp24
 70
     0
102
RTVSPropertyOp25
 70
     0
102
RTVSPropertyOp26
 70
     0
102
RTVSPropertyOp27
 70
     0
102
RTVSPropertyOp28
 70
     0
102
RTVSPropertyOp29
 70
     0
102
RTVSPropertyOp30
 70
     0
102
RTVSPropertyOp31
 70
     0
102
RTVSPropertyOp32
 70
     0
  0
XRECORD
  5
2941
102
{ACAD_REACTORS
330
2940
102
}
330
2940
100
AcDbXrecord
280
     1
102
RTVSPropertyOp0
 70
     1
102
RTVSPropertyOp1
 70
     1
102
RTVSPropertyOp2
 70
     1
102
RTVSPropertyOp3
 70
     1
102
RTVSPropertyOp4
 70
     1
102
RTVSPropertyOp5
 70
     1
102
RTVSPropertyOp6
 70
     1
102
RTVSPropertyOp7
 70
     1
102
RTVSPropertyOp8
 70
     1
102
RTVSPropertyOp9
 70
     1
102
RTVSPropertyOp10
 70
     1
102
RTVSPropertyOp11
 70
     1
102
RTVSPropertyOp12
 70
     1
102
RTVSPropertyOp13
 70
     1
102
RTVSPropertyOp14
 70
     1
102
RTVSPropertyOp15
 70
     1
102
RTVSPropertyOp16
 70
     1
102
RTVSPropertyOp17
 70
     1
102
RTVSPropertyOp18
 70
     1
102
RTVSPropertyOp19
 70
     1
102
RTVSPropertyOp20
 70
     1
102
RTVSPropertyOp21
 70
     1
102
RTVSPropertyOp22
 70
     1
102
RTVSPropertyOp23
 70
     1
102
RTVSPropertyOp24
 70
     1
102
RTVSPropertyOp25
 70
     1
102
RTVSPropertyOp26
 70
     1
102
RTVSPropertyOp27
 70
     1
102
RTVSPropertyOp28
 70
     1
102
RTVSPropertyOp29
 70
     1
102
RTVSPropertyOp30
 70
     1
102
RTVSPropertyOp31
 70
     1
102
RTVSPropertyOp32
 70
     1
  0
XRECORD
  5
2958
102
{ACAD_REACTORS
330
2957
102
}
330
2957
100
AcDbXrecord
280
     1
102
RTVSPropertyOp0
 70
     0
102
RTVSPropertyOp1
 70
     0
102
RTVSPropertyOp2
 70
     0
102
RTVSPropertyOp3
 70
     0
102
RTVSPropertyOp4
 70
     0
102
RTVSPropertyOp5
 70
     0
102
RTVSPropertyOp6
 70
     0
102
RTVSPropertyOp7
 70
     0
102
RTVSPropertyOp8
 70
     0
102
RTVSPropertyOp9
 70
     0
102
RTVSPropertyOp10
 70
     0
102
RTVSPropertyOp11
 70
     0
102
RTVSPropertyOp12
 70
     0
102
RTVSPropertyOp13
 70
     0
102
RTVSPropertyOp14
 70
     2
102
RTVSPropertyOp15
 70
     0
102
RTVSPropertyOp16
 70
     0
102
RTVSPropertyOp17
 70
     0
102
RTVSPropertyOp18
 70
     0
102
RTVSPropertyOp19
 70
     0
102
RTVSPropertyOp20
 70
     0
102
RTVSPropertyOp21
 70
     0
102
RTVSPropertyOp22
 70
     0
102
RTVSPropertyOp23
 70
     0
102
RTVSPropertyOp24
 70
     0
102
RTVSPropertyOp25
 70
     0
102
RTVSPropertyOp26
 70
     0
102
RTVSPropertyOp27
 70
     0
102
RTVSPropertyOp28
 70
     0
102
RTVSPropertyOp29
 70
     0
102
RTVSPropertyOp30
 70
     0
102
RTVSPropertyOp31
 70
     0
102
RTVSPropertyOp32
 70
     0
  0
XRECORD
  5
2939
102
{ACAD_REACTORS
330
2938
102
}
330
2938
100
AcDbXrecord
280
     1
102
RTVSPropertyOp0
 70
     1
102
RTVSPropertyOp1
 70
     1
102
RTVSPropertyOp2
 70
     1
102
RTVSPropertyOp3
 70
     1
102
RTVSPropertyOp4
 70
     1
102
RTVSPropertyOp5
 70
     1
102
RTVSPropertyOp6
 70
     1
102
RTVSPropertyOp7
 70
     1
102
RTVSPropertyOp8
 70
     1
102
RTVSPropertyOp9
 70
     1
102
RTVSPropertyOp10
 70
     1
102
RTVSPropertyOp11
 70
     1
102
RTVSPropertyOp12
 70
     1
102
RTVSPropertyOp13
 70
     1
102
RTVSPropertyOp14
 70
     1
102
RTVSPropertyOp15
 70
     1
102
RTVSPropertyOp16
 70
     1
102
RTVSPropertyOp17
 70
     1
102
RTVSPropertyOp18
 70
     1
102
RTVSPropertyOp19
 70
     1
102
RTVSPropertyOp20
 70
     1
102
RTVSPropertyOp21
 70
     1
102
RTVSPropertyOp22
 70
     1
102
RTVSPropertyOp23
 70
     1
102
RTVSPropertyOp24
 70
     1
102
RTVSPropertyOp25
 70
     1
102
RTVSPropertyOp26
 70
     1
102
RTVSPropertyOp27
 70
     1
102
RTVSPropertyOp28
 70
     1
102
RTVSPropertyOp29
 70
     1
102
RTVSPropertyOp30
 70
     1
102
RTVSPropertyOp31
 70
     1
102
RTVSPropertyOp32
 70
     1
  0
XRECORD
  5
2954
102
{ACAD_REACTORS
330
2953
102
}
330
2953
100
AcDbXrecord
280
     1
102
RTVSPropertyOp0
 70
     1
102
RTVSPropertyOp1
 70
     1
102
RTVSPropertyOp2
 70
     1
102
RTVSPropertyOp3
 70
     1
102
RTVSPropertyOp4
 70
     1
102
RTVSPropertyOp5
 70
     1
102
RTVSPropertyOp6
 70
     1
102
RTVSPropertyOp7
 70
     1
102
RTVSPropertyOp8
 70
     1
102
RTVSPropertyOp9
 70
     1
102
RTVSPropertyOp10
 70
     1
102
RTVSPropertyOp11
 70
     1
102
RTVSPropertyOp12
 70
     1
102
RTVSPropertyOp13
 70
     1
102
RTVSPropertyOp14
 70
     1
102
RTVSPropertyOp15
 70
     1
102
RTVSPropertyOp16
 70
     1
102
RTVSPropertyOp17
 70
     1
102
RTVSPropertyOp18
 70
     1
102
RTVSPropertyOp19
 70
     1
102
RTVSPropertyOp20
 70
     1
102
RTVSPropertyOp21
 70
     1
102
RTVSPropertyOp22
 70
     1
102
RTVSPropertyOp23
 70
     1
102
RTVSPropertyOp24
 70
     1
102
RTVSPropertyOp25
 70
     1
102
RTVSPropertyOp26
 70
     1
102
RTVSPropertyOp27
 70
     1
102
RTVSPropertyOp28
 70
     1
102
RTVSPropertyOp29
 70
     1
102
RTVSPropertyOp30
 70
     1
102
RTVSPropertyOp31
 70
     1
102
RTVSPropertyOp32
 70
     1
  0
XRECORD
  5
2952
102
{ACAD_REACTORS
330
2951
102
}
330
2951
100
AcDbXrecord
280
     1
102
RTVSPropertyOp0
 70
     1
102
RTVSPropertyOp1
 70
     1
102
RTVSPropertyOp2
 70
     1
102
RTVSPropertyOp3
 70
     1
102
RTVSPropertyOp4
 70
     1
102
RTVSPropertyOp5
 70
     1
102
RTVSPropertyOp6
 70
     1
102
RTVSPropertyOp7
 70
     1
102
RTVSPropertyOp8
 70
     1
102
RTVSPropertyOp9
 70
     1
102
RTVSPropertyOp10
 70
     1
102
RTVSPropertyOp11
 70
     1
102
RTVSPropertyOp12
 70
     1
102
RTVSPropertyOp13
 70
     1
102
RTVSPropertyOp14
 70
     1
102
RTVSPropertyOp15
 70
     1
102
RTVSPropertyOp16
 70
     1
102
RTVSPropertyOp17
 70
     1
102
RTVSPropertyOp18
 70
     1
102
RTVSPropertyOp19
 70
     1
102
RTVSPropertyOp20
 70
     1
102
RTVSPropertyOp21
 70
     1
102
RTVSPropertyOp22
 70
     1
102
RTVSPropertyOp23
 70
     1
102
RTVSPropertyOp24
 70
     1
102
RTVSPropertyOp25
 70
     1
102
RTVSPropertyOp26
 70
     1
102
RTVSPropertyOp27
 70
     1
102
RTVSPropertyOp28
 70
     1
102
RTVSPropertyOp29
 70
     1
102
RTVSPropertyOp30
 70
     1
102
RTVSPropertyOp31
 70
     1
102
RTVSPropertyOp32
 70
     1
  0
XRECORD
  5
294C
102
{ACAD_REACTORS
330
294B
102
}
330
294B
100
AcDbXrecord
280
     1
102
RTVSPropertyOp0
 70
     1
102
RTVSPropertyOp1
 70
     1
102
RTVSPropertyOp2
 70
     1
102
RTVSPropertyOp3
 70
     1
102
RTVSPropertyOp4
 70
     1
102
RTVSPropertyOp5
 70
     1
102
RTVSPropertyOp6
 70
     1
102
RTVSPropertyOp7
 70
     1
102
RTVSPropertyOp8
 70
     1
102
RTVSPropertyOp9
 70
     1
102
RTVSPropertyOp10
 70
     1
102
RTVSPropertyOp11
 70
     1
102
RTVSPropertyOp12
 70
     1
102
RTVSPropertyOp13
 70
     1
102
RTVSPropertyOp14
 70
     1
102
RTVSPropertyOp15
 70
     1
102
RTVSPropertyOp16
 70
     1
102
RTVSPropertyOp17
 70
     1
102
RTVSPropertyOp18
 70
     1
102
RTVSPropertyOp19
 70
     1
102
RTVSPropertyOp20
 70
     1
102
RTVSPropertyOp21
 70
     1
102
RTVSPropertyOp22
 70
     1
102
RTVSPropertyOp23
 70
     1
102
RTVSPropertyOp24
 70
     1
102
RTVSPropertyOp25
 70
     1
102
RTVSPropertyOp26
 70
     1
102
RTVSPropertyOp27
 70
     1
102
RTVSPropertyOp28
 70
     1
102
RTVSPropertyOp29
 70
     1
102
RTVSPropertyOp30
 70
     1
102
RTVSPropertyOp31
 70
     1
102
RTVSPropertyOp32
 70
     1
  0
XRECORD
  5
294E
102
{ACAD_REACTORS
330
294D
102
}
330
294D
100
AcDbXrecord
280
     1
102
RTVSPropertyOp0
 70
     1
102
RTVSPropertyOp1
 70
     1
102
RTVSPropertyOp2
 70
     1
102
RTVSPropertyOp3
 70
     1
102
RTVSPropertyOp4
 70
     1
102
RTVSPropertyOp5
 70
     1
102
RTVSPropertyOp6
 70
     1
102
RTVSPropertyOp7
 70
     1
102
RTVSPropertyOp8
 70
     1
102
RTVSPropertyOp9
 70
     1
102
RTVSPropertyOp10
 70
     1
102
RTVSPropertyOp11
 70
     1
102
RTVSPropertyOp12
 70
     1
102
RTVSPropertyOp13
 70
     1
102
RTVSPropertyOp14
 70
     1
102
RTVSPropertyOp15
 70
     1
102
RTVSPropertyOp16
 70
     1
102
RTVSPropertyOp17
 70
     1
102
RTVSPropertyOp18
 70
     1
102
RTVSPropertyOp19
 70
     1
102
RTVSPropertyOp20
 70
     1
102
RTVSPropertyOp21
 70
     1
102
RTVSPropertyOp22
 70
     1
102
RTVSPropertyOp23
 70
     1
102
RTVSPropertyOp24
 70
     1
102
RTVSPropertyOp25
 70
     1
102
RTVSPropertyOp26
 70
     1
102
RTVSPropertyOp27
 70
     1
102
RTVSPropertyOp28
 70
     1
102
RTVSPropertyOp29
 70
     1
102
RTVSPropertyOp30
 70
     1
102
RTVSPropertyOp31
 70
     1
102
RTVSPropertyOp32
 70
     1
  0
XRECORD
  5
293F
102
{ACAD_REACTORS
330
293E
102
}
330
293E
100
AcDbXrecord
280
     1
102
RTVSPropertyOp0
 70
     1
102
RTVSPropertyOp1
 70
     1
102
RTVSPropertyOp2
 70
     1
102
RTVSPropertyOp3
 70
     1
102
RTVSPropertyOp4
 70
     1
102
RTVSPropertyOp5
 70
     1
102
RTVSPropertyOp6
 70
     1
102
RTVSPropertyOp7
 70
     1
102
RTVSPropertyOp8
 70
     1
102
RTVSPropertyOp9
 70
     1
102
RTVSPropertyOp10
 70
     1
102
RTVSPropertyOp11
 70
     1
102
RTVSPropertyOp12
 70
     1
102
RTVSPropertyOp13
 70
     1
102
RTVSPropertyOp14
 70
     1
102
RTVSPropertyOp15
 70
     1
102
RTVSPropertyOp16
 70
     1
102
RTVSPropertyOp17
 70
     1
102
RTVSPropertyOp18
 70
     1
102
RTVSPropertyOp19
 70
     1
102
RTVSPropertyOp20
 70
     1
102
RTVSPropertyOp21
 70
     1
102
RTVSPropertyOp22
 70
     1
102
RTVSPropertyOp23
 70
     1
102
RTVSPropertyOp24
 70
     1
102
RTVSPropertyOp25
 70
     1
102
RTVSPropertyOp26
 70
     1
102
RTVSPropertyOp27
 70
     1
102
RTVSPropertyOp28
 70
     1
102
RTVSPropertyOp29
 70
     1
102
RTVSPropertyOp30
 70
     1
102
RTVSPropertyOp31
 70
     1
102
RTVSPropertyOp32
 70
     1
  0
XRECORD
  5
2948
102
{ACAD_REACTORS
330
2947
102
}
330
2947
100
AcDbXrecord
280
     1
102
RTVSPropertyOp0
 70
     1
102
RTVSPropertyOp1
 70
     1
102
RTVSPropertyOp2
 70
     1
102
RTVSPropertyOp3
 70
     1
102
RTVSPropertyOp4
 70
     1
102
RTVSPropertyOp5
 70
     1
102
RTVSPropertyOp6
 70
     1
102
RTVSPropertyOp7
 70
     1
102
RTVSPropertyOp8
 70
     1
102
RTVSPropertyOp9
 70
     1
102
RTVSPropertyOp10
 70
     1
102
RTVSPropertyOp11
 70
     1
102
RTVSPropertyOp12
 70
     1
102
RTVSPropertyOp13
 70
     1
102
RTVSPropertyOp14
 70
     1
102
RTVSPropertyOp15
 70
     1
102
RTVSPropertyOp16
 70
     1
102
RTVSPropertyOp17
 70
     1
102
RTVSPropertyOp18
 70
     1
102
RTVSPropertyOp19
 70
     1
102
RTVSPropertyOp20
 70
     1
102
RTVSPropertyOp21
 70
     1
102
RTVSPropertyOp22
 70
     1
102
RTVSPropertyOp23
 70
     1
102
RTVSPropertyOp24
 70
     1
102
RTVSPropertyOp25
 70
     1
102
RTVSPropertyOp26
 70
     1
102
RTVSPropertyOp27
 70
     1
102
RTVSPropertyOp28
 70
     1
102
RTVSPropertyOp29
 70
     1
102
RTVSPropertyOp30
 70
     1
102
RTVSPropertyOp31
 70
     1
102
RTVSPropertyOp32
 70
     1
  0
XRECORD
  5
2950
102
{ACAD_REACTORS
330
294F
102
}
330
294F
100
AcDbXrecord
280
     1
102
RTVSPropertyOp0
 70
     1
102
RTVSPropertyOp1
 70
     1
102
RTVSPropertyOp2
 70
     1
102
RTVSPropertyOp3
 70
     1
102
RTVSPropertyOp4
 70
     1
102
RTVSPropertyOp5
 70
     1
102
RTVSPropertyOp6
 70
     1
102
RTVSPropertyOp7
 70
     1
102
RTVSPropertyOp8
 70
     1
102
RTVSPropertyOp9
 70
     1
102
RTVSPropertyOp10
 70
     1
102
RTVSPropertyOp11
 70
     1
102
RTVSPropertyOp12
 70
     1
102
RTVSPropertyOp13
 70
     1
102
RTVSPropertyOp14
 70
     1
102
RTVSPropertyOp15
 70
     1
102
RTVSPropertyOp16
 70
     1
102
RTVSPropertyOp17
 70
     1
102
RTVSPropertyOp18
 70
     1
102
RTVSPropertyOp19
 70
     1
102
RTVSPropertyOp20
 70
     1
102
RTVSPropertyOp21
 70
     1
102
RTVSPropertyOp22
 70
     1
102
RTVSPropertyOp23
 70
     1
102
RTVSPropertyOp24
 70
     1
102
RTVSPropertyOp25
 70
     1
102
RTVSPropertyOp26
 70
     1
102
RTVSPropertyOp27
 70
     1
102
RTVSPropertyOp28
 70
     1
102
RTVSPropertyOp29
 70
     1
102
RTVSPropertyOp30
 70
     1
102
RTVSPropertyOp31
 70
     1
102
RTVSPropertyOp32
 70
     1
  0
ENDSEC
  0
EOF
