  0
SECTION
  2
HEADER
  9
$ACADVER
  1
AC1018
  9
$ACADMAINTVER
 70
   104
  9
$DWGCODEPAGE
  3
ANSI_932
  9
$TITLE
  1
ソケット
  9
$AUTHOR
  1
水田
  9
$LASTSAVEDBY
  1
user
  9
$CUSTOMPROPERTYTAG
  1
マネージャ
  9
$CUSTOMPROPERTY
  1

  9
$CUSTOMPROPERTYTAG
  1
会社
  9
$CUSTOMPROPERTY
  1

  9
$CUSTOMPROPERTYTAG
  1
カテゴリ
  9
$CUSTOMPROPERTY
  1

  9
$CUSTOMPROPERTYTAG
  1
部品番号
  9
$CUSTOMPROPERTY
  1
1BM-6022
  9
$CUSTOMPROPERTYTAG
  1
説明
  9
$CUSTOMPROPERTY
  1

  9
$CUSTOMPROPERTYTAG
  1
プロジェクト
  9
$CUSTOMPROPERTY
  1

  9
$CUSTOMPROPERTYTAG
  1
設計者
  9
$CUSTOMPROPERTY
  1
水田
  9
$CUSTOMPROPERTYTAG
  1
エンジニア
  9
$CUSTOMPROPERTY
  1

  9
$CUSTOMPROPERTYTAG
  1
責任者
  9
$CUSTOMPROPERTY
  1
mizuta
  9
$CUSTOMPROPERTYTAG
  1
コスト センター
  9
$CUSTOMPROPERTY
  1

  9
$CUSTOMPROPERTYTAG
  1
ベンダー
  9
$CUSTOMPROPERTY
  1

  9
$CUSTOMPROPERTYTAG
  1
ユーザ ステータス
  9
$CUSTOMPROPERTY
  1

  9
$CUSTOMPROPERTYTAG
  1
設計ステータス
  9
$CUSTOMPROPERTY
  1
作業中
  9
$CUSTOMPROPERTYTAG
  1
確認者
  9
$CUSTOMPROPERTY
  1
mizuta
  9
$CUSTOMPROPERTYTAG
  1
エンジニアリング承認者
  9
$CUSTOMPROPERTY
  1

  9
$CUSTOMPROPERTYTAG
  1
製造承認者
  9
$CUSTOMPROPERTY
  1

  9
$INSBASE
 10
0.0
 20
0.0
 30
0.0
  9
$EXTMIN
 10
97.39929308346393
 20
34.68232800239036
 30
-0.0000000349181948
  9
$EXTMAX
 10
237.4932868982355
 20
162.1409001927135
 30
0.0000000814935747
  9
$LIMMIN
 10
0.0
 20
0.0
  9
$LIMMAX
 10
420.0
 20
297.0
  9
$ORTHOMODE
 70
     0
  9
$REGENMODE
 70
     1
  9
$FILLMODE
 70
     1
  9
$QTEXTMODE
 70
     0
  9
$MIRRTEXT
 70
     0
  9
$LTSCALE
 40
1.0
  9
$ATTMODE
 70
     1
  9
$TEXTSIZE
 40
0.2
  9
$TRACEWID
 40
0.05
  9
$TEXTSTYLE
  7
Standard
  9
$CLAYER
  8
0
  9
$CELTYPE
  6
ByLayer
  9
$CECOLOR
 62
   256
  9
$CELTSCALE
 40
1.0
  9
$DISPSILH
 70
     0
  9
$DIMSCALE
 40
1.0
  9
$DIMASZ
 40
1.799999999999999
  9
$DIMEXO
 40
0.0625
  9
$DIMDLI
 40
0.38
  9
$DIMRND
 40
0.0
  9
$DIMDLE
 40
0.0
  9
$DIMEXE
 40
0.18
  9
$DIMTP
 40
0.0
  9
$DIMTM
 40
0.0
  9
$DIMTXT
 40
0.25
  9
$DIMCEN
 40
0.09
  9
$DIMTSZ
 40
0.0
  9
$DIMTOL
 70
     0
  9
$DIMLIM
 70
     0
  9
$DIMTIH
 70
     1
  9
$DIMTOH
 70
     1
  9
$DIMSE1
 70
     0
  9
$DIMSE2
 70
     0
  9
$DIMTAD
 70
     0
  9
$DIMZIN
 70
     0
  9
$DIMBLK
  1

  9
$DIMASO
 70
     1
  9
$DIMSHO
 70
     1
  9
$DIMPOST
  1

  9
$DIMAPOST
  1

  9
$DIMALT
 70
     0
  9
$DIMALTD
 70
     2
  9
$DIMALTF
 40
25.4
  9
$DIMLFAC
 40
1.0
  9
$DIMTOFL
 70
     0
  9
$DIMTVP
 40
0.0
  9
$DIMTIX
 70
     0
  9
$DIMSOXD
 70
     0
  9
$DIMSAH
 70
     0
  9
$DIMBLK1
  1

  9
$DIMBLK2
  1

  9
$DIMSTYLE
  2
Standard
  9
$DIMCLRD
 70
     0
  9
$DIMCLRE
 70
     0
  9
$DIMCLRT
 70
     0
  9
$DIMTFAC
 40
1.0
  9
$DIMGAP
 40
0.09
  9
$DIMJUST
 70
     0
  9
$DIMSD1
 70
     0
  9
$DIMSD2
 70
     0
  9
$DIMTOLJ
 70
     1
  9
$DIMTZIN
 70
     0
  9
$DIMALTZ
 70
     0
  9
$DIMALTTZ
 70
     0
  9
$DIMUPT
 70
     0
  9
$DIMDEC
 70
     4
  9
$DIMTDEC
 70
     4
  9
$DIMALTU
 70
     2
  9
$DIMALTTD
 70
     2
  9
$DIMTXSTY
  7
Standard
  9
$DIMAUNIT
 70
     0
  9
$DIMADEC
 70
     0
  9
$DIMALTRND
 40
0.0
  9
$DIMAZIN
 70
     0
  9
$DIMDSEP
 70
    46
  9
$DIMATFIT
 70
     3
  9
$DIMFRAC
 70
     0
  9
$DIMLDRBLK
  1

  9
$DIMLUNIT
 70
     2
  9
$DIMLWD
 70
    -2
  9
$DIMLWE
 70
    -2
  9
$DIMTMOVE
 70
     0
  9
$LUNITS
 70
     2
  9
$LUPREC
 70
     4
  9
$SKETCHINC
 40
0.1
  9
$FILLETRAD
 40
0.0
  9
$AUNITS
 70
     0
  9
$AUPREC
 70
     0
  9
$MENU
  1
.
  9
$ELEVATION
 40
0.0
  9
$PELEVATION
 40
0.0
  9
$THICKNESS
 40
0.0
  9
$LIMCHECK
 70
     0
  9
$CHAMFERA
 40
0.0
  9
$CHAMFERB
 40
0.0
  9
$CHAMFERC
 40
0.0
  9
$CHAMFERD
 40
0.0
  9
$SKPOLY
 70
     0
  9
$TDCREATE
 40
2456687.501059028
  9
$TDUCREATE
 40
2456687.126059028
  9
$TDUPDATE
 40
2456687.506453241
  9
$TDUUPDATE
 40
2456687.131453241
  9
$TDINDWG
 40
0.0019375694
  9
$TDUSRTIMER
 40
0.0019375116
  9
$USRTIMER
 70
     1
  9
$ANGBASE
 50
0.0
  9
$ANGDIR
 70
     0
  9
$PDMODE
 70
     0
  9
$PDSIZE
 40
0.0
  9
$PLINEWID
 40
0.0
  9
$SPLFRAME
 70
     0
  9
$SPLINETYPE
 70
     6
  9
$SPLINESEGS
 70
     8
  9
$HANDSEED
  5
84B
  9
$SURFTAB1
 70
     6
  9
$SURFTAB2
 70
     6
  9
$SURFTYPE
 70
     6
  9
$SURFU
 70
     6
  9
$SURFV
 70
     6
  9
$UCSBASE
  2

  9
$UCSNAME
  2

  9
$UCSORG
 10
0.0
 20
0.0
 30
0.0
  9
$UCSXDIR
 10
1.0
 20
0.0
 30
0.0
  9
$UCSYDIR
 10
0.0
 20
1.0
 30
0.0
  9
$UCSORTHOREF
  2

  9
$UCSORTHOVIEW
 70
     0
  9
$UCSORGTOP
 10
0.0
 20
0.0
 30
0.0
  9
$UCSORGBOTTOM
 10
0.0
 20
0.0
 30
0.0
  9
$UCSORGLEFT
 10
0.0
 20
0.0
 30
0.0
  9
$UCSORGRIGHT
 10
0.0
 20
0.0
 30
0.0
  9
$UCSORGFRONT
 10
0.0
 20
0.0
 30
0.0
  9
$UCSORGBACK
 10
0.0
 20
0.0
 30
0.0
  9
$PUCSBASE
  2

  9
$PUCSNAME
  2

  9
$PUCSORG
 10
0.0
 20
0.0
 30
0.0
  9
$PUCSXDIR
 10
1.0
 20
0.0
 30
0.0
  9
$PUCSYDIR
 10
0.0
 20
1.0
 30
0.0
  9
$PUCSORTHOREF
  2

  9
$PUCSORTHOVIEW
 70
     0
  9
$PUCSORGTOP
 10
0.0
 20
0.0
 30
0.0
  9
$PUCSORGBOTTOM
 10
0.0
 20
0.0
 30
0.0
  9
$PUCSORGLEFT
 10
0.0
 20
0.0
 30
0.0
  9
$PUCSORGRIGHT
 10
0.0
 20
0.0
 30
0.0
  9
$PUCSORGFRONT
 10
0.0
 20
0.0
 30
0.0
  9
$PUCSORGBACK
 10
0.0
 20
0.0
 30
0.0
  9
$USERI1
 70
     0
  9
$USERI2
 70
     0
  9
$USERI3
 70
     0
  9
$USERI4
 70
     0
  9
$USERI5
 70
     0
  9
$USERR1
 40
0.0
  9
$USERR2
 40
0.0
  9
$USERR3
 40
0.0
  9
$USERR4
 40
0.0
  9
$USERR5
 40
0.0
  9
$WORLDVIEW
 70
     1
  9
$SHADEDGE
 70
     3
  9
$SHADEDIF
 70
    70
  9
$TILEMODE
 70
     1
  9
$MAXACTVP
 70
    64
  9
$PINSBASE
 10
0.0
 20
0.0
 30
0.0
  9
$PLIMCHECK
 70
     0
  9
$PEXTMIN
 10
0.0
 20
0.0
 30
0.0
  9
$PEXTMAX
 10
420.0
 20
297.0
 30
0.0
  9
$PLIMMIN
 10
0.0
 20
0.0
  9
$PLIMMAX
 10
420.0
 20
297.0
  9
$UNITMODE
 70
     0
  9
$VISRETAIN
 70
     1
  9
$PLINEGEN
 70
     0
  9
$PSLTSCALE
 70
     1
  9
$TREEDEPTH
 70
  3020
  9
$CMLSTYLE
  2
Standard
  9
$CMLJUST
 70
     0
  9
$CMLSCALE
 40
1.0
  9
$PROXYGRAPHICS
 70
     1
  9
$MEASUREMENT
 70
     1
  9
$CELWEIGHT
370
    -1
  9
$ENDCAPS
280
     0
  9
$JOINSTYLE
280
     0
  9
$LWDISPLAY
290
     0
  9
$INSUNITS
 70
     4
  9
$HYPERLINKBASE
  1

  9
$STYLESHEET
  1

  9
$XEDIT
290
     1
  9
$CEPSNTYPE
380
     0
  9
$PSTYLEMODE
290
     1
  9
$FINGERPRINTGUID
  2
{A8415700-D0E1-42F9-AEBA-AF6CF31E5C7D}
  9
$VERSIONGUID
  2
{9A04AD35-C159-4A93-AB50-8825A4AE236D}
  9
$EXTNAMES
290
     1
  9
$PSVPSCALE
 40
0.0
  9
$OLESTARTUP
290
     0
  9
$SORTENTS
280
   127
  9
$INDEXCTL
280
     0
  9
$HIDETEXT
280
     1
  9
$XCLIPFRAME
290
     0
  9
$HALOGAP
280
     0
  9
$OBSCOLOR
 70
   257
  9
$OBSLTYPE
280
     0
  9
$INTERSECTIONDISPLAY
280
     0
  9
$INTERSECTIONCOLOR
 70
   257
  9
$DIMASSOC
280
     1
  9
$PROJECTNAME
  1

  0
ENDSEC
  0
SECTION
  2
CLASSES
  0
CLASS
  1
ACDBDICTIONARYWDFLT
  2
AcDbDictionaryWithDefault
  3
ObjectDBX Classes
 90
        0
 91
        1
280
     0
281
     0
  0
CLASS
  1
MATERIAL
  2
AcDbMaterial
  3
ObjectDBX Classes
 90
     1153
 91
        3
280
     0
281
     0
  0
CLASS
  1
VISUALSTYLE
  2
AcDbVisualStyle
  3
ObjectDBX Classes
 90
     4095
 91
       24
280
     0
281
     0
  0
CLASS
  1
SCALE
  2
AcDbScale
  3
ObjectDBX Classes
 90
     1153
 91
       17
280
     0
281
     0
  0
CLASS
  1
TABLESTYLE
  2
AcDbTableStyle
  3
ObjectDBX Classes
 90
     4095
 91
        1
280
     0
281
     0
  0
CLASS
  1
MLEADERSTYLE
  2
AcDbMLeaderStyle
  3
ACDB_MLEADERSTYLE_CLASS
 90
     4095
 91
        1
280
     0
281
     0
  0
CLASS
  1
DICTIONARYVAR
  2
AcDbDictionaryVar
  3
ObjectDBX Classes
 90
        0
 91
        9
280
     0
281
     0
  0
CLASS
  1
CELLSTYLEMAP
  2
AcDbCellStyleMap
  3
ObjectDBX Classes
 90
     1152
 91
        2
280
     0
281
     0
  0
CLASS
  1
AMGSETTINGSOBJ
  2
AmgSettingsObj
  3
"AcadM|Product Description: AutoCAD Mechanical|Company: Autodesk, Inc."
 90
     1024
 91
        2
280
     0
281
     0
  0
CLASS
  1
AMGOBJPROPCFG
  2
AmgObjPropCfg
  3
"AmgLay|Product Description: AutoCAD Mechanical|Company: Autodesk, Inc."
 90
     1025
 91
        2
280
     0
281
     0
  0
CLASS
  1
ACMESCOPE
  2
AcMeScope
  3
AcMeServices
 90
     1024
 91
        1
280
     0
281
     0
  0
CLASS
  1
ACGREFMASTER
  2
AcGrefMaster
  3
AcAttribServices
 90
     1024
 91
        1
280
     0
281
     0
  0
CLASS
  1
ACME_DOCUMENT
  2
AcMeDbDoc
  3
AcMeServices
 90
     1024
 91
        1
280
     0
281
     0
  0
CLASS
  1
ACMECOMMANDHISTORY
  2
AcMeCommandHistory
  3
AcMeServices
 90
     1024
 91
        1
280
     0
281
     0
  0
CLASS
  1
ACIMSYSVARMAN
  2
AcImSysVarManager
  3
AcMeServices
 90
     1024
 91
        4
280
     0
281
     0
  0
CLASS
  1
ACIMINTSYSVAR
  2
AcImIntSysVar
  3
AcMeServices
 90
     1024
 91
       27
280
     0
281
     0
  0
CLASS
  1
ACMESTATEMGR
  2
AcMeStateMgr
  3
AcMeServices
 90
     1024
 91
        1
280
     0
281
     0
  0
CLASS
  1
ACDBENTITYCACHE
  2
AcMeEntityCache
  3
AcMeServices
 90
     1024
 91
        1
280
     0
281
     0
  0
CLASS
  1
AM_DRAWING_MGR
  2
AcDmDwgMgr
  3
AcMechDwgViewMgmt
 90
     1024
 91
        1
280
     0
281
     0
  0
CLASS
  1
AM_DWG_DOCUMENT
  2
AcDmDwgDocument
  3
AcMechDwgViewMgmt
 90
     1024
 91
        1
280
     0
281
     0
  0
CLASS
  1
AM_DWG_SHEET
  2
AcDmSheet
  3
AcMechDwgViewMgmt
 90
     1024
 91
        2
280
     0
281
     0
  0
CLASS
  1
AM_VIEWDIMPARMAP
  2
AcDmViewDimParMap
  3
AcMechDwgViewMgmt
 90
     1024
 91
        2
280
     0
281
     0
  0
CLASS
  1
AMDTINTERNALREACTOR
  2
AmdtInternalReactor
  3
AcMeServices
 90
     1024
 91
        1
280
     0
281
     0
  0
CLASS
  1
ACIMREALSYSVAR
  2
AcImRealSysVar
  3
AcMeServices
 90
     1024
 91
        1
280
     0
281
     0
  0
CLASS
  1
AM_DWGMGR_NAME
  2
AcDmDwgMgrName
  3
AcMechDwgViewMgmt
 90
     1024
 91
        1
280
     0
281
     0
  0
CLASS
  1
ACME_DATABASE
  2
AcMeDbDatabase
  3
AcMeServices
 90
     1024
 91
        1
280
     0
281
     0
  0
CLASS
  1
ACRFINSADJUSTERMGR
  2
AcRfInsAdjusterMgr
  3
AcMeServices
 90
     1024
 91
        1
280
     0
281
     0
  0
CLASS
  1
ACGREFACADMASTER
  2
AcGrefacadMaster
  3
AcGrefServices
 90
     1024
 91
        1
280
     0
281
     0
  0
CLASS
  1
AMDTMENUSTATEMGR
  2
AmdtMenuStateMgr
  3
McadcomServices
 90
     1024
 91
        1
280
     0
281
     0
  0
CLASS
  1
AMDTMCOMMENUSTATE
  2
AmdtMcomMenuState
  3
McadcomServices
 90
     1024
 91
        1
280
     0
281
     0
  0
CLASS
  1
AMIMASTER
  2
AmiMaster
  3
AmiServices
 90
     1024
 91
        1
280
     0
281
     0
  0
CLASS
  1
MAPIAMMOUDLE
  2
MApiAmModule
  3
MApiAmServices
 90
     1024
 91
        1
280
     0
281
     0
  0
CLASS
  1
ACMSTANDARDANSI
  2
AcmStandardANSI
  3
"Amdt_StdImp|Product Description: AutoCAD Mechanical|Company: Autodesk, Inc."
 90
     1024
 91
        1
280
     0
281
     0
  0
CLASS
  1
ACMSURFSTANDARDANSI
  2
AcmSurfTextStdANSI
  3
"Amdt_StdImp|Product Description: AutoCAD Mechanical|Company: Autodesk, Inc."
 90
     1024
 91
        1
280
     0
281
     0
  0
CLASS
  1
ACMFCFSTANDARDANSI
  2
AcmFCFStdANSI
  3
"Amdt_StdImp|Product Description: AutoCAD Mechanical|Company: Autodesk, Inc."
 90
     1024
 91
        1
280
     0
281
     0
  0
CLASS
  1
ACMWELDSTANDARDANSI
  2
AcmWeldingStdANSI
  3
"Amdt_StdImp|Product Description: AutoCAD Mechanical|Company: Autodesk, Inc."
 90
     1024
 91
        1
280
     0
281
     0
  0
CLASS
  1
ACMIDSTANDARDANSI
  2
AcmIdStdANSI
  3
"Amdt_StdImp|Product Description: AutoCAD Mechanical|Company: Autodesk, Inc."
 90
     1024
 91
        1
280
     0
281
     0
  0
CLASS
  1
ACMDATUMSTANDARDANSI
  2
AcmDatumStdANSI
  3
"Amdt_StdImp|Product Description: AutoCAD Mechanical|Company: Autodesk, Inc."
 90
     1024
 91
        1
280
     0
281
     0
  0
CLASS
  1
ACMBOMSTANDARDANSI
  2
AcmBOMStdANSI
  3
"Amdt_StdImp|Product Description: AutoCAD Mechanical|Company: Autodesk, Inc."
 90
     1024
 91
        1
280
     0
281
     0
  0
CLASS
  1
ACMDETAILSTANDARDANSI
  2
AmdtDetailSymStdANSI
  3
"Amdt_StdImp|Product Description: AutoCAD Mechanical|Company: Autodesk, Inc."
 90
     1024
 91
        1
280
     0
281
     0
  0
CLASS
  1
ACMSECTIONSTANDARDANSI
  2
AmdtSectionSymStdANSI
  3
"Amdt_StdImp|Product Description: AutoCAD Mechanical|Company: Autodesk, Inc."
 90
     1024
 91
        1
280
     0
281
     0
  0
CLASS
  1
ACMCENTERLINESTANDARDANSI
  2
AmdtCenterLineStdANSI
  3
"Amdt_StdImp|Product Description: AutoCAD Mechanical|Company: Autodesk, Inc."
 90
     1024
 91
        1
280
     0
281
     0
  0
CLASS
  1
ACMNOTESTANDARDANSI
  2
AmdtNoteStdANSI
  3
"Amdt_StdImp|Product Description: AutoCAD Mechanical|Company: Autodesk, Inc."
 90
     1024
 91
        1
280
     0
281
     0
  0
CLASS
  1
ACAMGLAYSTD
  2
AcAmgLayStd
  3
"AmgLay|Product Description: AutoCAD Mechanical|Company: Autodesk, Inc."
 90
     1024
 91
        2
280
     0
281
     0
  0
CLASS
  1
ACAMGDIMSTD
  2
AcAmgDimStd
  3
"AmgDim|Product Description: AutoCAD Mechanical|Company: Autodesk, Inc."
 90
     1024
 91
        2
280
     0
281
     0
  0
CLASS
  1
ACAMGHOLECHARTSTDANSI
  2
AcAmgHoleChartStdANSI
  3
AmgDim|Product Description: AutoCAD Mechanical|Company: Autodesk, Inc.
 90
     1024
 91
        1
280
     0
281
     0
  0
CLASS
  1
ACAMGTITLESTD
  2
AcAmgTitleStd
  3
"AmgTitle|Product Description: AutoCAD Mechanical|Company: Autodesk, Inc."
 90
     4095
 91
        2
280
     0
281
     0
  0
CLASS
  1
ACMTHREADLINESTANDARDANSI
  2
AmdtThreadLineStdANSI
  3
"Amdt_StdImp|Product Description: AutoCAD Mechanical|Company: Autodesk, Inc."
 90
     1024
 91
        1
280
     0
281
     0
  0
CLASS
  1
ACMTAPERSTANDARDANSI
  2
AcmTaperStdANSI
  3
"Amdt_StdImp|Product Description: AutoCAD Mechanical|Company: Autodesk, Inc."
 90
     1024
 91
        1
280
     0
281
     0
  0
CLASS
  1
ACMANOOTATIONVIEWSTANDARDANSI
  2
AmdtAnViewStdANSI
  3
"Amdt_StdImp|Product Description: AutoCAD Mechanical|Company: Autodesk, Inc."
 90
     1024
 91
        1
280
     0
281
     0
  0
CLASS
  1
ACMSTANDARDJIS
  2
AcmStandardJIS
  3
"Amdt_StdImp|Product Description: AutoCAD Mechanical|Company: Autodesk, Inc."
 90
     1024
 91
        1
280
     0
281
     0
  0
CLASS
  1
ACMSURFSTANDARDJIS
  2
AcmSurfTextStdJIS
  3
"Amdt_StdImp|Product Description: AutoCAD Mechanical|Company: Autodesk, Inc."
 90
     1024
 91
        1
280
     0
281
     0
  0
CLASS
  1
ACMFCFSTANDARDJIS98
  2
AcmFCFStdJIS98
  3
"Amdt_StdImp|Product Description: AutoCAD Mechanical|Company: Autodesk, Inc."
 90
     1024
 91
        1
280
     0
281
     0
  0
CLASS
  1
ACMWELDSTANDARDJIS
  2
AcmWeldingStdJIS
  3
"Amdt_StdImp|Product Description: AutoCAD Mechanical|Company: Autodesk, Inc."
 90
     1024
 91
        1
280
     0
281
     0
  0
CLASS
  1
ACMIDSTANDARDJIS
  2
AcmIdStdJIS
  3
"Amdt_StdImp|Product Description: AutoCAD Mechanical|Company: Autodesk, Inc."
 90
     1024
 91
        1
280
     0
281
     0
  0
CLASS
  1
ACMDATUMSTANDARDJIS
  2
AcmDatumStdJIS
  3
"Amdt_StdImp|Product Description: AutoCAD Mechanical|Company: Autodesk, Inc."
 90
     1024
 91
        1
280
     0
281
     0
  0
CLASS
  1
ACMBOMSTANDARDJIS
  2
AcmBOMStdJIS
  3
"Amdt_StdImp|Product Description: AutoCAD Mechanical|Company: Autodesk, Inc."
 90
     1024
 91
        1
280
     0
281
     0
  0
CLASS
  1
ACMDETAILSTANDARDJIS
  2
AmdtDetailSymStdJIS
  3
"Amdt_StdImp|Product Description: AutoCAD Mechanical|Company: Autodesk, Inc."
 90
     1024
 91
        1
280
     0
281
     0
  0
CLASS
  1
ACMSECTIONSTANDARDJIS
  2
AmdtSectionSymStdJIS
  3
"Amdt_StdImp|Product Description: AutoCAD Mechanical|Company: Autodesk, Inc."
 90
     1024
 91
        1
280
     0
281
     0
  0
CLASS
  1
ACMCENTERLINESTANDARDJIS
  2
AmdtCenterLineStdJIS
  3
"Amdt_StdImp|Product Description: AutoCAD Mechanical|Company: Autodesk, Inc."
 90
     1024
 91
        1
280
     0
281
     0
  0
CLASS
  1
ACMNOTESTANDARDJIS
  2
AmdtNoteStdJIS
  3
"Amdt_StdImp|Product Description: AutoCAD Mechanical|Company: Autodesk, Inc."
 90
     1024
 91
        1
280
     0
281
     0
  0
CLASS
  1
AMDTNOTETEMPLATEDB
  2
AmdtNoteTemplateDB
  3
AcmSymBB|Product Description: AutoCAD Mechanical|Company: Autodesk, Inc.
 90
     1024
 91
        8
280
     0
281
     0
  0
CLASS
  1
ACAMGHOLECHARTSTDJIS
  2
AcAmgHoleChartStdJIS
  3
AmgDim|Product Description: AutoCAD Mechanical|Company: Autodesk, Inc.
 90
     1024
 91
        1
280
     0
281
     0
  0
CLASS
  1
ACMTHREADLINESTANDARDJIS
  2
AmdtThreadLineStdJIS
  3
"Amdt_StdImp|Product Description: AutoCAD Mechanical|Company: Autodesk, Inc."
 90
     1024
 91
        1
280
     0
281
     0
  0
CLASS
  1
ACMTAPERSTANDARDJIS
  2
AcmTaperStdJIS
  3
"Amdt_StdImp|Product Description: AutoCAD Mechanical|Company: Autodesk, Inc."
 90
     1024
 91
        1
280
     0
281
     0
  0
CLASS
  1
ACMANOOTATIONVIEWSTANDARDJIS
  2
AmdtAnViewStdJIS
  3
"Amdt_StdImp|Product Description: AutoCAD Mechanical|Company: Autodesk, Inc."
 90
     1024
 91
        1
280
     0
281
     0
  0
CLASS
  1
AMDTEDGESTANDARDJIS
  2
AmdtEdgeStdJIS
  3
"Amdt_StdImp|Product Description: AutoCAD Mechanical|Company: Autodesk, Inc."
 90
     1024
 91
        1
280
     0
281
     0
  0
CLASS
  1
ACIMSTRSYSVAR
  2
AcImStrSysVar
  3
AcMeServices
 90
     1024
 91
        5
280
     0
281
     0
  0
CLASS
  1
AMDTDMMENUSTATE
  2
AmdtDmMenuState
  3
AcMechDwgViewMgmt
 90
     1024
 91
        1
280
     0
281
     0
  0
CLASS
  1
AMDTAMMENUSTATE
  2
AmdtAmMenuState
  3
DesignerAssemblies
 90
     1024
 91
        1
280
     0
281
     0
  0
CLASS
  1
ACAMPROJECT
  2
AcAmProject
  3
DesignerAssemblies
 90
     1024
 91
        1
280
     0
281
     0
  0
CLASS
  1
ACAMGRCOMPDEF
  2
AcAmGrCompDef
  3
DesignerAssemblies
 90
     1024
 91
        1
280
     0
281
     0
  0
CLASS
  1
ACAMCOMPDEF
  2
AcAmCompDef
  3
DesignerAssemblies
 90
     1024
 91
        1
280
     0
281
     0
  0
CLASS
  1
ACAMCOMPDEFMGR
  2
AcAmCompDefMgr
  3
DesignerAssemblies
 90
     1024
 91
        1
280
     0
281
     0
  0
CLASS
  1
AMCONTEXTMGR
  2
AcAmContextMgr
  3
DesignerAssemblies
 90
     1024
 91
        1
280
     0
281
     0
  0
CLASS
  1
ACAMCONTEXTMODELER
  2
AcAmContextModeler
  3
DesignerAssemblies
 90
     1024
 91
        1
280
     0
281
     0
  0
CLASS
  1
ACMDATADICTIONARY
  2
AcmDataDictionary
  3
"AcmSymBB|Product Description: AutoCAD Mechanical|Company: Autodesk, Inc."
 90
     1024
 91
        1
280
     0
281
     0
  0
CLASS
  1
ACAMGRCOMPDEFSET
  2
AcAmGrCompDefSet
  3
DesignerAssemblies
 90
     1024
 91
        1
280
     0
281
     0
  0
CLASS
  1
AMDTBROWSERDBTAB
  2
AmdtBrowserDbTab
  3
McadcomServices
 90
     1024
 91
        1
280
     0
281
     0
  0
CLASS
  1
CBROWSERAPPOBJECT
  2
CBrowserAppObject
  3
McadcomServices
 90
     1024
 91
        2
280
     0
281
     0
  0
CLASS
  1
DM_PLACEHOLDER
  2
AcDmSelsetPlaceholder
  3
AcMechDwgViewMgmt
 90
     1024
 91
        1
280
     0
281
     0
  0
CLASS
  1
ACAMGFILTERDAT
  2
AcAmgFilterDat
  3
"AcadM|Product Description: AutoCAD Mechanical|Company: Autodesk, Inc."
 90
     1024
 91
        0
280
     0
281
     0
  0
ENDSEC
  0
SECTION
  2
TABLES
  0
TABLE
  2
VPORT
  5
8
330
0
100
AcDbSymbolTable
 70
     1
  0
VPORT
  5
57
330
8
100
AcDbSymbolTableRecord
100
AcDbViewportTableRecord
  2
*Active
 70
     0
 10
0.0
 20
0.0
 11
1.0
 21
1.0
 12
167.4462899908497
 22
98.41161409755194
 13
0.0
 23
0.0
 14
1.0
 24
1.0
 15
0.0
 25
0.0
 16
0.0
 26
0.0
 36
1.0
 17
0.0
 27
0.0
 37
0.0
 40
128.4440766144751
 41
1.623225806451612
 42
50.0
 43
0.0
 44
0.0
 50
0.0
 51
0.0
 71
     0
 72
   100
 73
     1
 74
     1
 75
     0
 76
     0
 77
     0
 78
     0
281
     0
 65
     1
110
0.0
120
0.0
130
0.0
111
1.0
121
0.0
131
0.0
112
0.0
122
1.0
132
0.0
 79
     0
146
0.0
  0
ENDTAB
  0
TABLE
  2
LTYPE
  5
5
330
0
100
AcDbSymbolTable
 70
    69
  0
LTYPE
  5
5B
330
5
100
AcDbSymbolTableRecord
100
AcDbLinetypeTableRecord
  2
ByBlock
 70
     0
  3

 72
    65
 73
     0
 40
0.0
  0
LTYPE
  5
5C
330
5
100
AcDbSymbolTableRecord
100
AcDbLinetypeTableRecord
  2
ByLayer
 70
     0
  3

 72
    65
 73
     0
 40
0.0
  0
LTYPE
  5
5D
330
5
100
AcDbSymbolTableRecord
100
AcDbLinetypeTableRecord
  2
Continuous
 70
     0
  3
Solid line
 72
    65
 73
     0
 40
0.0
  0
LTYPE
  5
74
330
5
100
AcDbSymbolTableRecord
100
AcDbLinetypeTableRecord
  2
CHAIN
 70
     0
  3
Chain ____ _ ____ _ ____ _ ____ _ ____ _ ____
 72
    65
 73
     4
 40
0.3543
 49
0.2362
 74
     0
 49
-0.0295
 74
     0
 49
0.0591
 74
     0
 49
-0.0295
 74
     0
  0
LTYPE
  5
75
330
5
100
AcDbSymbolTableRecord
100
AcDbLinetypeTableRecord
  2
DASH_DOT
 70
     0
  3
Dash dot __ . __ . __ . __ . __ . __ . __ . __
 72
    65
 73
     4
 40
0.37
 49
0.24
 74
     0
 49
-0.06
 74
     0
 49
0.01
 74
     0
 49
-0.06
 74
     0
  0
LTYPE
  5
76
330
5
100
AcDbSymbolTableRecord
100
AcDbLinetypeTableRecord
  2
DASH_DOUBLE_DOT
 70
     0
  3
Dash Double-Dot __ . . __ . . __ . . __ . .
 72
    65
 73
     6
 40
0.4398000000000001
 49
0.24
 74
     0
 49
-0.06
 74
     0
 49
0.0098
 74
     0
 49
-0.06
 74
     0
 49
0.01
 74
     0
 49
-0.06
 74
     0
  0
LTYPE
  5
77
330
5
100
AcDbSymbolTableRecord
100
AcDbLinetypeTableRecord
  2
DASH_TRIPLE_DOT
 70
     0
  3
Dash Triple-Dot _ . . . _ . . . _ . . . _
 72
    65
 73
     8
 40
0.51
 49
0.24
 74
     0
 49
-0.06
 74
     0
 49
0.01
 74
     0
 49
-0.06
 74
     0
 49
0.01
 74
     0
 49
-0.06
 74
     0
 49
0.01
 74
     0
 49
-0.06
 74
     0
  0
LTYPE
  5
78
330
5
100
AcDbSymbolTableRecord
100
AcDbLinetypeTableRecord
  2
DASHED
 70
     0
  3
Dashed __ __ __ __ __ __ __ __ __ __ __ __ __ _
 72
    65
 73
     2
 40
0.2067
 49
0.1654
 74
     0
 49
-0.0413
 74
     0
  0
LTYPE
  5
79
330
5
100
AcDbSymbolTableRecord
100
AcDbLinetypeTableRecord
  2
DASHED_SPACE
 70
     0
  3
Dashed Space __ __ __ __ __ __ __ __ __ __ __ _
 72
    65
 73
     2
 40
0.0826
 49
0.0413
 74
     0
 49
-0.0413
 74
     0
  0
LTYPE
  5
7A
330
5
100
AcDbSymbolTableRecord
100
AcDbLinetypeTableRecord
  2
DOTTED
 70
     0
  3
Dotted . . . . . . . . . . . . . . . . . . . . 
 72
    65
 73
     2
 40
0.0482
 49
0.0069
 74
     0
 49
-0.0413
 74
     0
  0
LTYPE
  5
7B
330
5
100
AcDbSymbolTableRecord
100
AcDbLinetypeTableRecord
  2
DOUBLE_DASH_CHAIN
 70
     0
  3
Double Dash Chain ___ _ _ ___ _ _ ___ _ _ ___ _
 72
    65
 73
     6
 40
1.240299999999997
 49
0.6614
 74
     0
 49
-0.0827
 74
     0
 49
0.1654
 74
     0
 49
-0.0827
 74
     0
 49
0.1654
 74
     0
 49
-0.0827
 74
     0
  0
LTYPE
  5
7C
330
5
100
AcDbSymbolTableRecord
100
AcDbLinetypeTableRecord
  2
DOUBLE_DASH_DOT
 70
     0
  3
Double Dash Dot __ __ . __ __ . __ __ . __ _
 72
    65
 73
     6
 40
0.6700000000000001
 49
0.24
 74
     0
 49
-0.06
 74
     0
 49
0.24
 74
     0
 49
-0.06
 74
     0
 49
0.01
 74
     0
 49
-0.06
 74
     0
  0
LTYPE
  5
7D
330
5
100
AcDbSymbolTableRecord
100
AcDbLinetypeTableRecord
  2
DOUBLE_DASH_DOUBLE_DOT
 70
     0
  3
Double-dash double-dot _ _ . . _ _ . . _
 72
    65
 73
     8
 40
0.7400000000000003
 49
0.24
 74
     0
 49
-0.06
 74
     0
 49
0.24
 74
     0
 49
-0.06
 74
     0
 49
0.01
 74
     0
 49
-0.06
 74
     0
 49
0.01
 74
     0
 49
-0.06
 74
     0
  0
LTYPE
  5
7E
330
5
100
AcDbSymbolTableRecord
100
AcDbLinetypeTableRecord
  2
DOUBLE_DASH_TRIPLE_DOT
 70
     0
  3
Double Dash Triple Dot __ __ . . . __ __ . . .
 72
    65
 73
    10
 40
0.8100000000000001
 49
0.24
 74
     0
 49
-0.06
 74
     0
 49
0.24
 74
     0
 49
-0.06
 74
     0
 49
0.01
 74
     0
 49
-0.06
 74
     0
 49
0.01
 74
     0
 49
-0.06
 74
     0
 49
0.01
 74
     0
 49
-0.06
 74
     0
  0
LTYPE
  5
7F
330
5
100
AcDbSymbolTableRecord
100
AcDbLinetypeTableRecord
  2
LONG_DASH_DOTTED
 70
     0
  3
Long Dash Dotted ____ . ____ . ____ . ____ . _
 72
    65
 73
     4
 40
0.61
 49
0.48
 74
     0
 49
-0.06
 74
     0
 49
0.01
 74
     0
 49
-0.06
 74
     0
  0
LTYPE
  5
80
330
5
100
AcDbSymbolTableRecord
100
AcDbLinetypeTableRecord
  2
LONG_DASH_DOUBLE_DOT
 70
     0
  3
Long Dash Double Dot ____ . . ____ . . ____ . .
 72
    65
 73
     6
 40
0.3345
 49
0.2362
 74
     0
 49
-0.0295
 74
     0
 49
0.0049
 74
     0
 49
-0.0295
 74
     0
 49
0.0049
 74
     0
 49
-0.0295
 74
     0
  0
LTYPE
  5
81
330
5
100
AcDbSymbolTableRecord
100
AcDbLinetypeTableRecord
  2
LONG_DASH_TRIPLE_DOT
 70
     0
  3
Long Dash Triple Dot ____ ... ____ ... ____
 72
    65
 73
     8
 40
0.75
 49
0.48
 74
     0
 49
-0.06
 74
     0
 49
0.01
 74
     0
 49
-0.06
 74
     0
 49
0.01
 74
     0
 49
-0.06
 74
     0
 49
0.01
 74
     0
 49
-0.06
 74
     0
  0
LTYPE
  5
82
330
5
100
AcDbSymbolTableRecord
100
AcDbLinetypeTableRecord
  2
BORDER
 70
     0
  3
Border __ __ . __ __ . __ __ . __ __ . __ __ .
 72
    65
 73
     6
 40
44.45
 49
12.7
 74
     0
 49
-6.349999999999997
 74
     0
 49
12.7
 74
     0
 49
-6.349999999999997
 74
     0
 49
0.0
 74
     0
 49
-6.349999999999997
 74
     0
  0
LTYPE
  5
83
330
5
100
AcDbSymbolTableRecord
100
AcDbLinetypeTableRecord
  2
BORDER2
 70
     0
  3
Border (.5x) __.__.__.__.__.__.__.__.__.__.__.
 72
    65
 73
     6
 40
22.225
 49
6.349999999999997
 74
     0
 49
-3.174999999999998
 74
     0
 49
6.349999999999997
 74
     0
 49
-3.174999999999998
 74
     0
 49
0.0
 74
     0
 49
-3.174999999999998
 74
     0
  0
LTYPE
  5
84
330
5
100
AcDbSymbolTableRecord
100
AcDbLinetypeTableRecord
  2
BORDERX2
 70
     0
  3
Border (2x) ____  ____  .  ____  ____  .  ___
 72
    65
 73
     6
 40
88.9
 49
25.4
 74
     0
 49
-12.7
 74
     0
 49
25.4
 74
     0
 49
-12.7
 74
     0
 49
0.0
 74
     0
 49
-12.7
 74
     0
  0
LTYPE
  5
85
330
5
100
AcDbSymbolTableRecord
100
AcDbLinetypeTableRecord
  2
CENTER
 70
     0
  3
Center ____ _ ____ _ ____ _ ____ _ ____ _ ____
 72
    65
 73
     4
 40
2.0
 49
1.25
 74
     0
 49
-0.25
 74
     0
 49
0.25
 74
     0
 49
-0.25
 74
     0
  0
LTYPE
  5
86
330
5
100
AcDbSymbolTableRecord
100
AcDbLinetypeTableRecord
  2
CENTER2
 70
     0
  3
Center (.5x) ___ _ ___ _ ___ _ ___ _ ___ _ ___
 72
    65
 73
     4
 40
28.575
 49
19.05
 74
     0
 49
-3.174999999999998
 74
     0
 49
3.174999999999998
 74
     0
 49
-3.174999999999998
 74
     0
  0
LTYPE
  5
87
330
5
100
AcDbSymbolTableRecord
100
AcDbLinetypeTableRecord
  2
CENTERX2
 70
     0
  3
Center (2x) ________  __  ________  __  _____
 72
    65
 73
     4
 40
101.6
 49
63.5
 74
     0
 49
-12.7
 74
     0
 49
12.7
 74
     0
 49
-12.7
 74
     0
  0
LTYPE
  5
88
330
5
100
AcDbSymbolTableRecord
100
AcDbLinetypeTableRecord
  2
DASHDOT
 70
     0
  3
Dash dot __ . __ . __ . __ . __ . __ . __ . __
 72
    65
 73
     4
 40
25.4
 49
12.7
 74
     0
 49
-6.349999999999997
 74
     0
 49
0.0
 74
     0
 49
-6.349999999999997
 74
     0
  0
LTYPE
  5
89
330
5
100
AcDbSymbolTableRecord
100
AcDbLinetypeTableRecord
  2
DASHDOT2
 70
     0
  3
Dash dot (.5x) _._._._._._._._._._._._._._._.
 72
    65
 73
     4
 40
12.7
 49
6.349999999999997
 74
     0
 49
-3.174999999999998
 74
     0
 49
0.0
 74
     0
 49
-3.174999999999998
 74
     0
  0
LTYPE
  5
8A
330
5
100
AcDbSymbolTableRecord
100
AcDbLinetypeTableRecord
  2
DASHDOTX2
 70
     0
  3
Dash dot (2x) ____  .  ____  .  ____  .  ___
 72
    65
 73
     4
 40
50.8
 49
25.4
 74
     0
 49
-12.7
 74
     0
 49
0.0
 74
     0
 49
-12.7
 74
     0
  0
LTYPE
  5
8B
330
5
100
AcDbSymbolTableRecord
100
AcDbLinetypeTableRecord
  2
DASHED2
 70
     0
  3
Dashed (.5x) _ _ _ _ _ _ _ _ _ _ _ _ _ _ _ _ _
 72
    65
 73
     2
 40
9.524999999999996
 49
6.349999999999997
 74
     0
 49
-3.174999999999998
 74
     0
  0
LTYPE
  5
8C
330
5
100
AcDbSymbolTableRecord
100
AcDbLinetypeTableRecord
  2
DASHEDX2
 70
     0
  3
Dashed (2x) ____  ____  ____  ____  ____  ___
 72
    65
 73
     2
 40
38.1
 49
25.4
 74
     0
 49
-12.7
 74
     0
  0
LTYPE
  5
8D
330
5
100
AcDbSymbolTableRecord
100
AcDbLinetypeTableRecord
  2
DIVIDE
 70
     0
  3
Divide ____ . . ____ . . ____ . . ____ . . ____
 72
    65
 73
     6
 40
31.75
 49
12.7
 74
     0
 49
-6.349999999999997
 74
     0
 49
0.0
 74
     0
 49
-6.349999999999997
 74
     0
 49
0.0
 74
     0
 49
-6.349999999999997
 74
     0
  0
LTYPE
  5
8E
330
5
100
AcDbSymbolTableRecord
100
AcDbLinetypeTableRecord
  2
DIVIDE2
 70
     0
  3
Divide (.5x) __..__..__..__..__..__..__..__.._
 72
    65
 73
     6
 40
15.875
 49
6.349999999999997
 74
     0
 49
-3.174999999999998
 74
     0
 49
0.0
 74
     0
 49
-3.174999999999998
 74
     0
 49
0.0
 74
     0
 49
-3.174999999999998
 74
     0
  0
LTYPE
  5
8F
330
5
100
AcDbSymbolTableRecord
100
AcDbLinetypeTableRecord
  2
DIVIDEX2
 70
     0
  3
Divide (2x) ________  .  .  ________  .  .  _
 72
    65
 73
     6
 40
63.49999999999999
 49
25.4
 74
     0
 49
-12.7
 74
     0
 49
0.0
 74
     0
 49
-12.7
 74
     0
 49
0.0
 74
     0
 49
-12.7
 74
     0
  0
LTYPE
  5
90
330
5
100
AcDbSymbolTableRecord
100
AcDbLinetypeTableRecord
  2
DOT2
 70
     0
  3
Dot (.5x) .....................................
 72
    65
 73
     2
 40
3.174999999999998
 49
0.0
 74
     0
 49
-3.174999999999998
 74
     0
  0
LTYPE
  5
91
330
5
100
AcDbSymbolTableRecord
100
AcDbLinetypeTableRecord
  2
DOTX2
 70
     0
  3
Dot (2x) .  .  .  .  .  .  .  .  .  .  .  .  . 
 72
    65
 73
     2
 40
12.7
 49
0.0
 74
     0
 49
-12.7
 74
     0
  0
LTYPE
  5
92
330
5
100
AcDbSymbolTableRecord
100
AcDbLinetypeTableRecord
  2
HIDDEN
 70
     0
  3
Hidden __ __ __ __ __ __ __ __ __ __ __ __ __ _
 72
    65
 73
     2
 40
9.524999999999996
 49
6.349999999999997
 74
     0
 49
-3.174999999999998
 74
     0
  0
LTYPE
  5
93
330
5
100
AcDbSymbolTableRecord
100
AcDbLinetypeTableRecord
  2
HIDDEN2
 70
     0
  3
Hidden (.5x) _ _ _ _ _ _ _ _ _ _ _ _ _ _ _ _ _
 72
    65
 73
     2
 40
4.762499999999998
 49
3.174999999999998
 74
     0
 49
-1.587499999999999
 74
     0
  0
LTYPE
  5
94
330
5
100
AcDbSymbolTableRecord
100
AcDbLinetypeTableRecord
  2
HIDDENX2
 70
     0
  3
Hidden (2x) ____ ____ ____ ____ ____ ____ ____
 72
    65
 73
     2
 40
19.05
 49
12.7
 74
     0
 49
-6.349999999999997
 74
     0
  0
LTYPE
  5
95
330
5
100
AcDbSymbolTableRecord
100
AcDbLinetypeTableRecord
  2
PHANTOM
 70
     0
  3
Phantom ______  __  __  ______  __  __  ______
 72
    65
 73
     6
 40
63.5
 49
31.75
 74
     0
 49
-6.349999999999997
 74
     0
 49
6.349999999999997
 74
     0
 49
-6.349999999999997
 74
     0
 49
6.349999999999997
 74
     0
 49
-6.349999999999997
 74
     0
  0
LTYPE
  5
96
330
5
100
AcDbSymbolTableRecord
100
AcDbLinetypeTableRecord
  2
PHANTOM2
 70
     0
  3
Phantom (.5x) ___ _ _ ___ _ _ ___ _ _ ___ _ _
 72
    65
 73
     6
 40
1.25
 49
0.625
 74
     0
 49
-0.125
 74
     0
 49
0.125
 74
     0
 49
-0.125
 74
     0
 49
0.125
 74
     0
 49
-0.125
 74
     0
  0
LTYPE
  5
97
330
5
100
AcDbSymbolTableRecord
100
AcDbLinetypeTableRecord
  2
PHANTOMX2
 70
     0
  3
Phantom (2x) ____________    ____    ____   _
 72
    65
 73
     6
 40
127.0
 49
63.5
 74
     0
 49
-12.7
 74
     0
 49
12.7
 74
     0
 49
-12.7
 74
     0
 49
12.7
 74
     0
 49
-12.7
 74
     0
  0
LTYPE
  5
98
330
5
100
AcDbSymbolTableRecord
100
AcDbLinetypeTableRecord
  2
ACAD_ISO02W100
 70
     0
  3
ISO dash __ __ __ __ __ __ __ __ __ __ __ __ __
 72
    65
 73
     2
 40
15.0
 49
12.0
 74
     0
 49
-3.0
 74
     0
  0
LTYPE
  5
99
330
5
100
AcDbSymbolTableRecord
100
AcDbLinetypeTableRecord
  2
ACAD_ISO03W100
 70
     0
  3
ISO dash space __    __    __    __    __    __
 72
    65
 73
     2
 40
30.0
 49
12.0
 74
     0
 49
-18.0
 74
     0
  0
LTYPE
  5
9A
330
5
100
AcDbSymbolTableRecord
100
AcDbLinetypeTableRecord
  2
ACAD_ISO04W100
 70
     0
  3
ISO long-dash dot ____ . ____ . ____ . ____ . _
 72
    65
 73
     4
 40
30.0
 49
24.0
 74
     0
 49
-3.0
 74
     0
 49
0.0
 74
     0
 49
-3.0
 74
     0
  0
LTYPE
  5
9B
330
5
100
AcDbSymbolTableRecord
100
AcDbLinetypeTableRecord
  2
ACAD_ISO05W100
 70
     0
  3
ISO long-dash double-dot ____ .. ____ .. ____ .
 72
    65
 73
     6
 40
33.0
 49
24.0
 74
     0
 49
-3.0
 74
     0
 49
0.0
 74
     0
 49
-3.0
 74
     0
 49
0.0
 74
     0
 49
-3.0
 74
     0
  0
LTYPE
  5
9C
330
5
100
AcDbSymbolTableRecord
100
AcDbLinetypeTableRecord
  2
ACAD_ISO06W100
 70
     0
  3
ISO long-dash triple-dot ____ ... ____ ... ____
 72
    65
 73
     8
 40
36.0
 49
24.0
 74
     0
 49
-3.0
 74
     0
 49
0.0
 74
     0
 49
-3.0
 74
     0
 49
0.0
 74
     0
 49
-3.0
 74
     0
 49
0.0
 74
     0
 49
-3.0
 74
     0
  0
LTYPE
  5
9D
330
5
100
AcDbSymbolTableRecord
100
AcDbLinetypeTableRecord
  2
ACAD_ISO07W100
 70
     0
  3
ISO dot . . . . . . . . . . . . . . . . . . . .
 72
    65
 73
     2
 40
3.0
 49
0.0
 74
     0
 49
-3.0
 74
     0
  0
LTYPE
  5
9E
330
5
100
AcDbSymbolTableRecord
100
AcDbLinetypeTableRecord
  2
ACAD_ISO08W100
 70
     0
  3
ISO long-dash short-dash ____ __ ____ __ ____ _
 72
    65
 73
     4
 40
36.0
 49
24.0
 74
     0
 49
-3.0
 74
     0
 49
6.0
 74
     0
 49
-3.0
 74
     0
  0
LTYPE
  5
9F
330
5
100
AcDbSymbolTableRecord
100
AcDbLinetypeTableRecord
  2
ACAD_ISO09W100
 70
     0
  3
ISO long-dash double-short-dash ____ __ __ ____
 72
    65
 73
     6
 40
45.0
 49
24.0
 74
     0
 49
-3.0
 74
     0
 49
6.0
 74
     0
 49
-3.0
 74
     0
 49
6.0
 74
     0
 49
-3.0
 74
     0
  0
LTYPE
  5
A0
330
5
100
AcDbSymbolTableRecord
100
AcDbLinetypeTableRecord
  2
ACAD_ISO10W100
 70
     0
  3
ISO dash dot __ . __ . __ . __ . __ . __ . __ .
 72
    65
 73
     4
 40
18.0
 49
12.0
 74
     0
 49
-3.0
 74
     0
 49
0.0
 74
     0
 49
-3.0
 74
     0
  0
LTYPE
  5
A1
330
5
100
AcDbSymbolTableRecord
100
AcDbLinetypeTableRecord
  2
ACAD_ISO11W100
 70
     0
  3
ISO double-dash dot __ __ . __ __ . __ __ . __ 
 72
    65
 73
     6
 40
33.0
 49
12.0
 74
     0
 49
-3.0
 74
     0
 49
12.0
 74
     0
 49
-3.0
 74
     0
 49
0.0
 74
     0
 49
-3.0
 74
     0
  0
LTYPE
  5
A2
330
5
100
AcDbSymbolTableRecord
100
AcDbLinetypeTableRecord
  2
ACAD_ISO12W100
 70
     0
  3
ISO dash double-dot __ . . __ . . __ . . __ . .
 72
    65
 73
     6
 40
21.0
 49
12.0
 74
     0
 49
-3.0
 74
     0
 49
0.0
 74
     0
 49
-3.0
 74
     0
 49
0.0
 74
     0
 49
-3.0
 74
     0
  0
LTYPE
  5
A3
330
5
100
AcDbSymbolTableRecord
100
AcDbLinetypeTableRecord
  2
ACAD_ISO13W100
 70
     0
  3
ISO double-dash double-dot __ __ . . __ __ . . 
 72
    65
 73
     8
 40
36.0
 49
12.0
 74
     0
 49
-3.0
 74
     0
 49
12.0
 74
     0
 49
-3.0
 74
     0
 49
0.0
 74
     0
 49
-3.0
 74
     0
 49
0.0
 74
     0
 49
-3.0
 74
     0
  0
LTYPE
  5
A4
330
5
100
AcDbSymbolTableRecord
100
AcDbLinetypeTableRecord
  2
ACAD_ISO14W100
 70
     0
  3
ISO dash triple-dot __ . . . __ . . . __ . . . 
 72
    65
 73
     8
 40
24.0
 49
12.0
 74
     0
 49
-3.0
 74
     0
 49
0.0
 74
     0
 49
-3.0
 74
     0
 49
0.0
 74
     0
 49
-3.0
 74
     0
 49
0.0
 74
     0
 49
-3.0
 74
     0
  0
LTYPE
  5
A5
330
5
100
AcDbSymbolTableRecord
100
AcDbLinetypeTableRecord
  2
ACAD_ISO15W100
 70
     0
  3
ISO double-dash triple-dot __ __ . . . __ __ . 
 72
    65
 73
    10
 40
39.0
 49
12.0
 74
     0
 49
-3.0
 74
     0
 49
12.0
 74
     0
 49
-3.0
 74
     0
 49
0.0
 74
     0
 49
-3.0
 74
     0
 49
0.0
 74
     0
 49
-3.0
 74
     0
 49
0.0
 74
     0
 49
-3.0
 74
     0
  0
LTYPE
  5
A8
330
5
100
AcDbSymbolTableRecord
100
AcDbLinetypeTableRecord
  2
FENCELINE1
 70
     0
  3
Fenceline circle ----0-----0----0-----0----0---
 72
    65
 73
     4
 40
36.83
 49
6.349999999999997
 74
     0
 49
-2.54
 74
     4
 75
   133
340
A7
 46
2.54
 50
0.0
 44
-2.54
 45
0.0
 49
-2.54
 74
     0
 49
25.4
 74
     0
  0
LTYPE
  5
A9
330
5
100
AcDbSymbolTableRecord
100
AcDbLinetypeTableRecord
  2
FENCELINE2
 70
     0
  3
Fenceline square ----[]-----[]----[]-----[]----
 72
    65
 73
     4
 40
36.83
 49
6.349999999999997
 74
     0
 49
-2.54
 74
     4
 75
   132
340
A7
 46
2.54
 50
0.0
 44
-2.54
 45
0.0
 49
-2.54
 74
     0
 49
25.4
 74
     0
  0
LTYPE
  5
AA
330
5
100
AcDbSymbolTableRecord
100
AcDbLinetypeTableRecord
  2
TRACKS
 70
     0
  3
Tracks -|-|-|-|-|-|-|-|-|-|-|-|-|-|-|-|-|-|-|-|
 72
    65
 73
     2
 40
7.62
 49
3.81
 74
     4
 75
   130
340
A7
 46
6.349999999999997
 50
0.0
 44
0.0
 45
0.0
 49
3.81
 74
     0
  0
LTYPE
  5
AB
330
5
100
AcDbSymbolTableRecord
100
AcDbLinetypeTableRecord
  2
BATTING
 70
     0
  3
Batting SSSSSSSSSSSSSSSSSSSSSSSSSSSSSSSSSSSSSSS
 72
    65
 73
     4
 40
10.16254
 49
0.00254
 74
     0
 49
-2.54
 74
     4
 75
   134
340
A7
 46
2.54
 50
0.0
 44
-2.54
 45
0.0
 49
-5.08
 74
     4
 75
   134
340
A7
 46
2.54
 50
180.0
 44
2.54
 45
0.0
 49
-2.54
 74
     0
  0
LTYPE
  5
AC
330
5
100
AcDbSymbolTableRecord
100
AcDbLinetypeTableRecord
  2
HOT_WATER_SUPPLY
 70
     0
  3
Hot water supply ---- HW ---- HW ---- HW ----
 72
    65
 73
     3
 40
22.86
 49
12.7
 74
     0
 49
-5.08
 74
     2
 75
     0
340
55
 46
2.54
 50
0.0
 44
-2.54
 45
-1.27
  9
HW
 49
-5.08
 74
     0
  0
LTYPE
  5
AD
330
5
100
AcDbSymbolTableRecord
100
AcDbLinetypeTableRecord
  2
GAS_LINE
 70
     0
  3
Gas line ----GAS----GAS----GAS----GAS----GAS---
 72
    65
 73
     3
 40
24.13
 49
12.7
 74
     0
 49
-5.08
 74
     2
 75
     0
340
55
 46
2.54
 50
0.0
 44
-2.54
 45
-1.27
  9
GAS
 49
-6.349999999999997
 74
     0
  0
LTYPE
  5
AE
330
5
100
AcDbSymbolTableRecord
100
AcDbLinetypeTableRecord
  2
ZIGZAG
 70
     0
  3
Zig zag /\/\/\/\/\/\/\/\/\/\/\/\/\/\/\/\/\/\/\/
 72
    65
 73
     4
 40
20.32254
 49
0.00254
 74
     0
 49
-5.08
 74
     4
 75
   131
340
A7
 46
5.08
 50
0.0
 44
-5.08
 45
0.0
 49
-10.16
 74
     4
 75
   131
340
A7
 46
5.08
 50
180.0
 44
5.08
 45
0.0
 49
-5.08
 74
     0
  0
LTYPE
  5
66C
330
5
100
AcDbSymbolTableRecord
100
AcDbLinetypeTableRecord
  2
AM_ISO02W050
 70
     0
  3
__ __ __ __ __ __ __ __ __ __ __ __ __ __ __
 72
    65
 73
     2
 40
7.5
 49
6.0
 74
     0
 49
-1.5
 74
     0
  0
LTYPE
  5
66D
330
5
100
AcDbSymbolTableRecord
100
AcDbLinetypeTableRecord
  2
AM_ISO08W050
 70
     0
  3
____ . ____ . ____ . ____ . ____ . ____ . ____
 72
    65
 73
     4
 40
18.0
 49
12.0
 74
     0
 49
-1.5
 74
     0
 49
3.0
 74
     0
 49
-1.5
 74
     0
  0
LTYPE
  5
66E
330
5
100
AcDbSymbolTableRecord
100
AcDbLinetypeTableRecord
  2
AM_ISO09W050
 70
     0
  3
_____ . . _____ . . _____ . . ____ .. ____
 72
    65
 73
     6
 40
22.5
 49
12.0
 74
     0
 49
-1.5
 74
     0
 49
3.0
 74
     0
 49
-1.5
 74
     0
 49
3.0
 74
     0
 49
-1.5
 74
     0
  0
LTYPE
  5
66F
330
5
100
AcDbSymbolTableRecord
100
AcDbLinetypeTableRecord
  2
Amconstr
 70
     0
  3
_______________________
 72
    65
 73
     2
 40
9999.0
 49
9999.0
 74
     0
 49
0.0
 74
     0
  0
LTYPE
  5
670
330
5
100
AcDbSymbolTableRecord
100
AcDbLinetypeTableRecord
  2
AM_ISO08W050x2
 70
     0
  3
__ . __ . __ . __ . __ . __
 72
    65
 73
     4
 40
9.0
 49
6.0
 74
     0
 49
-0.75
 74
     0
 49
1.5
 74
     0
 49
-0.75
 74
     0
  0
LTYPE
  5
671
330
5
100
AcDbSymbolTableRecord
100
AcDbLinetypeTableRecord
  2
AM_ISO02W050x2
 70
     0
  3
 _ _ _ _ _ _ _ _ _ _ _ _
 72
    65
 73
     2
 40
3.75
 49
3.0
 74
     0
 49
-0.75
 74
     0
  0
LTYPE
  5
672
330
5
100
AcDbSymbolTableRecord
100
AcDbLinetypeTableRecord
  2
Amzigzag
 70
     0
  3
/\/-/\/-/\/-/\/-/\/-/\/
 72
    65
 73
     2
 40
11.0001
 49
0.0001
 74
     4
 75
   135
340
A7
 46
0.04
 50
0.0
 44
0.0
 45
0.0
 49
-11.0
 74
     0
  0
LTYPE
  5
6B1
330
5
100
AcDbSymbolTableRecord
100
AcDbLinetypeTableRecord
  2
ACANSTGB
 70
     0
  3
__ . . __ . .
 72
    65
 73
     6
 40
0.35433070866
 49
0.15748031496
 74
     0
 49
-0.03937007874
 74
     0
 49
0.03937007874
 74
     0
 49
-0.03937007874
 74
     0
 49
0.03937007874
 74
     0
 49
-0.03937007874
 74
     0
  0
LTYPE
  5
6B2
330
5
100
AcDbSymbolTableRecord
100
AcDbLinetypeTableRecord
  2
ACANSTGL
 70
     0
  3
_ _ _ _ _
 72
    65
 73
     2
 40
0.11811023622
 49
0.07874015748
 74
     0
 49
-0.03937007874
 74
     0
  0
LTYPE
  5
6DA
330
5
100
AcDbSymbolTableRecord
100
AcDbLinetypeTableRecord
  2
ACJISTGB
 70
     0
  3
__ . . __ . .
 72
    65
 73
     6
 40
9.0
 49
4.0
 74
     0
 49
-1.0
 74
     0
 49
1.0
 74
     0
 49
-1.0
 74
     0
 49
1.0
 74
     0
 49
-1.0
 74
     0
  0
LTYPE
  5
6DB
330
5
100
AcDbSymbolTableRecord
100
AcDbLinetypeTableRecord
  2
ACJISTGL
 70
     0
  3
_ _ _ _ _
 72
    65
 73
     2
 40
3.0
 49
2.0
 74
     0
 49
-1.0
 74
     0
  0
ENDTAB
  0
TABLE
  2
LAYER
  5
2
330
0
100
AcDbSymbolTable
 70
     4
  0
LAYER
  5
54
330
2
100
AcDbSymbolTableRecord
100
AcDbLayerTableRecord
  2
0
 70
     0
 62
     7
  6
Continuous
370
    25
390
F
  0
LAYER
  5
BF
330
2
100
AcDbSymbolTableRecord
100
AcDbLayerTableRecord
  2
Overlay (ISO)
 70
     0
 62
     7
  6
LONG_DASH_DOTTED
370
    18
390
F
  0
LAYER
  5
C6
330
2
100
AcDbSymbolTableRecord
100
AcDbLayerTableRecord
  2
Visible (ISO)
 70
     0
 62
     7
  6
Continuous
370
    35
390
F
  0
LAYER
  5
C7
330
2
100
AcDbSymbolTableRecord
100
AcDbLayerTableRecord
  2
Visible Narrow (ISO)
 70
     0
 62
     7
  6
Continuous
370
    35
390
F
  0
ENDTAB
  0
TABLE
  2
STYLE
  5
3
330
0
100
AcDbSymbolTable
 70
     7
  0
STYLE
  5
55
330
3
100
AcDbSymbolTableRecord
100
AcDbTextStyleTableRecord
  2
Standard
 70
     0
 40
0.0
 41
1.0
 50
0.0
 71
     0
 42
0.2
  3

  4

1001
ACAD
1000
MS PGothic
1071
      256
  0
STYLE
  5
5A
330
3
100
AcDbSymbolTableRecord
100
AcDbTextStyleTableRecord
  2
Annotative
 70
     0
 40
0.0
 41
1.0
 50
0.0
 71
     0
 42
0.2
  3
txt
  4

1001
AcadAnnotative
1000
AnnotativeData
1002
{
1070
     1
1070
     1
1002
}
  0
STYLE
  5
A7
330
3
100
AcDbSymbolTableRecord
100
AcDbTextStyleTableRecord
  2

 70
     1
 40
0.0
 41
1.0
 50
0.0
 71
     0
 42
0.2
  3
ltypeshp.shx
  4

  0
STYLE
  5
6AA
330
3
100
AcDbSymbolTableRecord
100
AcDbTextStyleTableRecord
  2
ACANSTS
 70
     0
 40
1.0
 41
1.0
 50
0.0
 71
     0
 42
0.2
  3
romans.shx
  4

  0
STYLE
  5
6AD
330
3
100
AcDbSymbolTableRecord
100
AcDbTextStyleTableRecord
  2
ACANSGDT
 70
     0
 40
0.0
 41
1.0
 50
0.0
 71
     0
 42
0.2
  3
amgdtans.shx
  4

  0
STYLE
  5
6D3
330
3
100
AcDbSymbolTableRecord
100
AcDbTextStyleTableRecord
  2
ACJISTS
 70
     0
 40
1.0
 41
1.0
 50
0.0
 71
     0
 42
0.2
  3
isocp.shx
  4
extfont.shx
  0
STYLE
  5
6D6
330
3
100
AcDbSymbolTableRecord
100
AcDbTextStyleTableRecord
  2
ACJISGDT
 70
     0
 40
0.0
 41
1.0
 50
0.0
 71
     0
 42
0.2
  3
amgdt.shx
  4

  0
ENDTAB
  0
TABLE
  2
VIEW
  5
6
330
0
100
AcDbSymbolTable
 70
     0
  0
ENDTAB
  0
TABLE
  2
UCS
  5
7
330
0
100
AcDbSymbolTable
 70
     0
  0
ENDTAB
  0
TABLE
  2
APPID
  5
9
330
0
100
AcDbSymbolTable
 70
    17
  0
APPID
  5
56
330
9
100
AcDbSymbolTableRecord
100
AcDbRegAppTableRecord
  2
ACAD
 70
     0
  0
APPID
  5
5E
330
9
100
AcDbSymbolTableRecord
100
AcDbRegAppTableRecord
  2
AcadAnnotative
 70
     0
  0
APPID
  5
657
330
9
100
AcDbSymbolTableRecord
100
AcDbRegAppTableRecord
  2
ACAD_MLEADERVER
 70
     0
  0
APPID
  5
660
330
9
100
AcDbSymbolTableRecord
100
AcDbRegAppTableRecord
  2
MCAD_NO_VIS
 70
     0
  0
APPID
  5
661
330
9
100
AcDbSymbolTableRecord
100
AcDbRegAppTableRecord
  2
ACAD_TEMP_GRAPHIC
 70
     0
  0
APPID
  5
662
330
9
100
AcDbSymbolTableRecord
100
AcDbRegAppTableRecord
  2
ACATTRIBSERVICES
 70
     0
  0
APPID
  5
663
330
9
100
AcDbSymbolTableRecord
100
AcDbRegAppTableRecord
  2
AD_DRAW
 70
     0
  0
APPID
  5
664
330
9
100
AcDbSymbolTableRecord
100
AcDbRegAppTableRecord
  2
DESIGNERASSEMBLIES
 70
     0
  0
APPID
  5
665
330
9
100
AcDbSymbolTableRecord
100
AcDbRegAppTableRecord
  2
ACADM_DIM_EDIT
 70
     0
  0
APPID
  5
666
330
9
100
AcDbSymbolTableRecord
100
AcDbRegAppTableRecord
  2
AMDT_DM_ADJ
 70
     0
  0
APPID
  5
667
330
9
100
AcDbSymbolTableRecord
100
AcDbRegAppTableRecord
  2
ACAD_DSTYLE_DIMJAG
 70
     0
  0
APPID
  5
668
330
9
100
AcDbSymbolTableRecord
100
AcDbRegAppTableRecord
  2
ACAD_DSTYLE_DIMBREAK
 70
     0
  0
APPID
  5
724
330
9
100
AcDbSymbolTableRecord
100
AcDbRegAppTableRecord
  2
ACAD_EXEMPT_FROM_CAD_STANDARDS
 70
     0
  0
APPID
  5
75C
330
9
100
AcDbSymbolTableRecord
100
AcDbRegAppTableRecord
  2
ACAD_DSTYLE_DIMARC_LENGTH_SYMBOL
 70
     0
  0
APPID
  5
75D
330
9
100
AcDbSymbolTableRecord
100
AcDbRegAppTableRecord
  2
ACAD_DSTYLE_DIM_LINETYPE
 70
     0
  0
APPID
  5
75E
330
9
100
AcDbSymbolTableRecord
100
AcDbRegAppTableRecord
  2
ACAD_DSTYLE_DIM_EXT1_LINETYPE
 70
     0
  0
APPID
  5
75F
330
9
100
AcDbSymbolTableRecord
100
AcDbRegAppTableRecord
  2
ACAD_DSTYLE_DIM_EXT2_LINETYPE
 70
     0
  0
ENDTAB
  0
TABLE
  2
DIMSTYLE
  5
A
330
0
100
AcDbSymbolTable
 70
    15
100
AcDbDimStyleTable
 71
     0
  0
DIMSTYLE
105
58
330
A
100
AcDbSymbolTableRecord
100
AcDbDimStyleTableRecord
  2
Standard
 70
     0
340
55
  0
DIMSTYLE
105
59
330
A
100
AcDbSymbolTableRecord
100
AcDbDimStyleTableRecord
  2
Annotative
 70
     0
340
55
1001
AcadAnnotative
1000
AnnotativeData
1002
{
1070
     1
1070
     1
1002
}
  0
DIMSTYLE
105
6C3
330
A
100
AcDbSymbolTableRecord
100
AcDbDimStyleTableRecord
  2
AM_ANSI
 70
     0
  4
mm
 40
0.5
 41
0.1
 42
0.05
 43
0.5
 44
0.1
 47
0.1
 48
0.1
 78
     7
 79
     2
140
0.12
141
0.0
146
0.71
147
0.06
176
   256
177
   256
178
     2
274
     4
284
     7
340
55
371
    -1
372
    -1
  0
DIMSTYLE
105
6C4
330
A
100
AcDbSymbolTableRecord
100
AcDbDimStyleTableRecord
  2
AM_ANSI$3
 70
     0
  4
mm
 40
0.5
 41
0.1
 42
0.05
 43
0.5
 44
0.1
 47
0.1
 48
0.1
 78
     7
 79
     2
140
0.12
141
0.0
146
0.71
147
0.06
176
   256
177
   256
178
     2
274
     4
284
     7
288
     1
289
     0
340
55
371
    -1
372
    -1
  0
DIMSTYLE
105
6C5
330
A
100
AcDbSymbolTableRecord
100
AcDbDimStyleTableRecord
  2
AM_ANSI$4
 70
     0
  4
mm
 40
0.5
 41
0.1
 42
0.05
 43
0.5
 44
0.1
 47
0.1
 48
0.1
 78
     7
 79
     2
140
0.12
141
0.0
146
0.71
147
0.06
176
   256
177
   256
178
     2
274
     4
284
     7
288
     1
289
     0
340
55
371
    -1
372
    -1
  0
DIMSTYLE
105
6C6
330
A
100
AcDbSymbolTableRecord
100
AcDbDimStyleTableRecord
  2
AM_ANSI$7
 70
     0
  4
mm
 40
0.5
 41
0.1
 42
0.05
 43
0.5
 44
0.1
 47
0.1
 48
0.1
 78
     7
 79
     2
140
0.24
141
0.0
146
0.71
147
0.06
176
   256
177
   256
178
     2
274
     4
284
     7
340
55
371
    -1
372
    -1
  0
DIMSTYLE
105
6C7
330
A
100
AcDbSymbolTableRecord
100
AcDbDimStyleTableRecord
  2
AM_ANSI$SF
 70
     0
  4
mm
 40
0.5
 41
0.1
 42
0.05
 43
0.5
 44
0.1
 47
0.1
 48
0.1
 75
     1
 76
     1
 78
     7
 79
     2
140
0.12
141
0.0
146
0.71
147
0.06
176
   256
177
   256
178
     2
274
     4
284
     7
340
55
371
    -1
372
    -1
  0
DIMSTYLE
105
6C8
330
A
100
AcDbSymbolTableRecord
100
AcDbDimStyleTableRecord
  2
AM_ANSI$SH
 70
     0
  4
mm
 40
0.5
 41
0.1
 42
0.05
 43
0.5
 44
0.1
 47
0.1
 48
0.1
 75
     1
 76
     1
 78
     7
 79
     2
140
0.12
141
0.0
146
0.71
147
0.06
173
     1
176
   256
177
   256
178
     2
274
     4
284
     7
340
55
343
6C9
371
    -1
372
    -1
  0
DIMSTYLE
105
6EC
330
A
100
AcDbSymbolTableRecord
100
AcDbDimStyleTableRecord
  2
AM_JIS
 70
     0
  4
"
 40
0.5
 41
2.5
 42
1.0
 43
10.0
 44
1.0
 47
0.1
 48
0.1
 73
     0
 74
     0
 77
     3
 78
     8
 79
     2
140
3.5
141
0.0
143
0.0393701
146
0.71
147
1.5
172
     1
176
   256
177
   256
178
     2
271
     2
272
     3
274
     4
283
     0
284
     8
340
55
341
6ED
342
6ED
343
6ED
344
6ED
371
    -1
372
    -1
1001
ACAD_DSTYLE_DIMJAG
1070
   388
1040
1.5
1001
ACAD_DSTYLE_DIMBREAK
1070
   391
1040
3.75
1001
ACAD_DSTYLE_DIMARC_LENGTH_SYMBOL
1070
   379
1070
     1
1001
ACAD_DSTYLE_DIM_LINETYPE
1070
   380
1005
5B
1001
ACAD_DSTYLE_DIM_EXT1_LINETYPE
1070
   381
1005
5B
1001
ACAD_DSTYLE_DIM_EXT2_LINETYPE
1070
   382
1005
5B
  0
DIMSTYLE
105
6F3
330
A
100
AcDbSymbolTableRecord
100
AcDbDimStyleTableRecord
  2
AM_JIS$3
 70
     0
  4
"
 40
0.5
 41
2.5
 42
1.0
 43
10.0
 44
1.0
 47
0.1
 48
0.1
 73
     0
 77
     3
 78
     8
 79
     2
140
3.5
141
0.0
143
0.0393701
146
0.71
147
1.5
172
     1
176
   256
177
   256
178
     2
271
     2
272
     3
274
     4
283
     0
284
     8
288
     1
289
     0
340
55
341
6ED
342
6ED
343
6ED
344
6ED
371
    -1
372
    -1
1001
ACAD_DSTYLE_DIMBREAK
1070
   391
1040
3.75
1001
ACAD_DSTYLE_DIMJAG
1070
   388
1040
1.5
1001
ACAD_DSTYLE_DIMARC_LENGTH_SYMBOL
1070
   379
1070
     1
1001
ACAD_DSTYLE_DIM_LINETYPE
1070
   380
1005
5B
1001
ACAD_DSTYLE_DIM_EXT1_LINETYPE
1070
   381
1005
5B
1001
ACAD_DSTYLE_DIM_EXT2_LINETYPE
1070
   382
1005
5B
  0
DIMSTYLE
105
6F4
330
A
100
AcDbSymbolTableRecord
100
AcDbDimStyleTableRecord
  2
AM_JIS$4
 70
     0
  4
"
 40
0.5
 41
2.5
 42
1.0
 43
10.0
 44
1.0
 47
0.1
 48
0.1
 73
     0
 74
     0
 77
     3
 78
     8
 79
     2
140
3.5
141
0.0
143
0.0393701
146
0.71
147
1.5
172
     1
176
   256
177
   256
178
     2
271
     2
272
     3
274
     4
283
     0
284
     8
340
55
341
6ED
342
6ED
343
6ED
344
6ED
371
    -1
372
    -1
1001
ACAD_DSTYLE_DIMBREAK
1070
   391
1040
3.75
1001
ACAD_DSTYLE_DIMJAG
1070
   388
1040
1.5
1001
ACAD_DSTYLE_DIMARC_LENGTH_SYMBOL
1070
   379
1070
     1
1001
ACAD_DSTYLE_DIM_LINETYPE
1070
   380
1005
5B
1001
ACAD_DSTYLE_DIM_EXT1_LINETYPE
1070
   381
1005
5B
1001
ACAD_DSTYLE_DIM_EXT2_LINETYPE
1070
   382
1005
5B
  0
DIMSTYLE
105
6F5
330
A
100
AcDbSymbolTableRecord
100
AcDbDimStyleTableRecord
  2
AM_JIS$6
 70
     0
  4
"
 40
0.5
 41
2.5
 42
1.0
 43
10.0
 44
1.0
 47
0.1
 48
0.1
 73
     0
 74
     0
 78
     8
 79
     2
140
3.5
141
0.0
143
0.0393701
146
0.71
147
1.5
172
     1
176
   256
177
   256
178
     2
271
     2
272
     3
274
     4
283
     0
284
     8
340
55
341
6ED
342
6ED
343
6ED
344
6ED
371
    -1
372
    -1
1001
ACAD_DSTYLE_DIMBREAK
1070
   391
1040
3.75
1001
ACAD_DSTYLE_DIMJAG
1070
   388
1040
1.5
1001
ACAD_DSTYLE_DIMARC_LENGTH_SYMBOL
1070
   379
1070
     1
1001
ACAD_DSTYLE_DIM_LINETYPE
1070
   380
1005
5B
1001
ACAD_DSTYLE_DIM_EXT1_LINETYPE
1070
   381
1005
5B
1001
ACAD_DSTYLE_DIM_EXT2_LINETYPE
1070
   382
1005
5B
  0
DIMSTYLE
105
6F6
330
A
100
AcDbSymbolTableRecord
100
AcDbDimStyleTableRecord
  2
AM_JIS$7
 70
     0
  4
"
 40
0.5
 41
2.5
 42
1.0
 43
10.0
 44
1.0
 47
0.1
 48
0.1
 73
     0
 74
     0
 77
     3
 78
     8
 79
     2
140
3.5
141
0.0
143
0.0393701
146
0.71
147
1.5
172
     1
176
   256
177
   256
178
     2
271
     2
272
     3
274
     4
283
     0
284
     8
340
55
341
6ED
342
6ED
343
6ED
344
6ED
371
    -1
372
    -1
1001
ACAD_DSTYLE_DIMBREAK
1070
   391
1040
3.75
1001
ACAD_DSTYLE_DIMJAG
1070
   388
1040
1.5
1001
ACAD_DSTYLE_DIMARC_LENGTH_SYMBOL
1070
   379
1070
     1
1001
ACAD_DSTYLE_DIM_LINETYPE
1070
   380
1005
5B
1001
ACAD_DSTYLE_DIM_EXT1_LINETYPE
1070
   381
1005
5B
1001
ACAD_DSTYLE_DIM_EXT2_LINETYPE
1070
   382
1005
5B
  0
DIMSTYLE
105
6F7
330
A
100
AcDbSymbolTableRecord
100
AcDbDimStyleTableRecord
  2
AM_JIS$SF
 70
     0
  4
"
 40
0.5
 41
2.5
 42
1.0
 43
10.0
 44
1.0
 47
0.1
 48
0.1
 73
     0
 74
     0
 75
     1
 76
     1
 77
     3
 78
     8
 79
     2
140
3.5
141
0.0
143
0.0393701
146
0.71
147
1.5
172
     1
176
   256
177
   256
178
     2
271
     2
272
     3
274
     4
283
     0
284
     8
340
55
341
6ED
342
6ED
343
6ED
344
6ED
371
    -1
372
    -1
1001
ACAD_DSTYLE_DIMBREAK
1070
   391
1040
3.75
1001
ACAD_DSTYLE_DIMJAG
1070
   388
1040
1.5
1001
ACAD_DSTYLE_DIMARC_LENGTH_SYMBOL
1070
   379
1070
     1
1001
ACAD_DSTYLE_DIM_LINETYPE
1070
   380
1005
5B
1001
ACAD_DSTYLE_DIM_EXT1_LINETYPE
1070
   381
1005
5B
1001
ACAD_DSTYLE_DIM_EXT2_LINETYPE
1070
   382
1005
5B
  0
DIMSTYLE
105
6F8
330
A
100
AcDbSymbolTableRecord
100
AcDbDimStyleTableRecord
  2
AM_JIS$SH
 70
     0
  4
"
 40
0.5
 41
2.5
 42
1.0
 43
10.0
 44
1.0
 47
0.1
 48
0.1
 73
     0
 74
     0
 75
     1
 76
     1
 77
     3
 78
     8
 79
     2
140
3.5
141
0.0
143
0.0393701
144
2.0
146
0.71
147
1.5
172
     1
173
     1
176
   256
177
   256
178
     2
271
     2
272
     3
274
     4
283
     0
284
     8
340
55
341
6ED
342
6ED
343
6C9
344
6ED
371
    -1
372
    -1
1001
ACAD_DSTYLE_DIMBREAK
1070
   391
1040
3.75
1001
ACAD_DSTYLE_DIMJAG
1070
   388
1040
1.5
1001
ACAD_DSTYLE_DIMARC_LENGTH_SYMBOL
1070
   379
1070
     1
1001
ACAD_DSTYLE_DIM_LINETYPE
1070
   380
1005
5B
1001
ACAD_DSTYLE_DIM_EXT1_LINETYPE
1070
   381
1005
5B
1001
ACAD_DSTYLE_DIM_EXT2_LINETYPE
1070
   382
1005
5B
  0
ENDTAB
  0
TABLE
  2
BLOCK_RECORD
  5
1
330
0
100
AcDbSymbolTable
 70
     4
  0
BLOCK_RECORD
  5
6C
330
1
100
AcDbSymbolTableRecord
100
AcDbBlockTableRecord
  2
*Model_Space
340
6F
  0
BLOCK_RECORD
  5
68
330
1
100
AcDbSymbolTableRecord
100
AcDbBlockTableRecord
  2
*Paper_Space
340
6B
  0
BLOCK_RECORD
  5
70
330
1
100
AcDbSymbolTableRecord
100
AcDbBlockTableRecord
  2
*Paper_Space0
340
73
  0
BLOCK_RECORD
  5
6C9
330
1
100
AcDbSymbolTableRecord
100
AcDbBlockTableRecord
  2
GENAXEH
340
0
  0
BLOCK_RECORD
  5
6ED
330
1
100
AcDbSymbolTableRecord
100
AcDbBlockTableRecord
  2
_Open30
340
0
  0
ENDTAB
  0
ENDSEC
  0
SECTION
  2
BLOCKS
  0
BLOCK
  5
6D
330
6C
100
AcDbEntity
  8
0
100
AcDbBlockBegin
  2
*Model_Space
 70
     0
 10
0.0
 20
0.0
 30
0.0
  3
*Model_Space
  1

  0
ENDBLK
  5
6E
330
6C
100
AcDbEntity
  8
0
100
AcDbBlockEnd
  0
BLOCK
  5
69
330
68
100
AcDbEntity
 67
     1
  8
0
100
AcDbBlockBegin
  2
*Paper_Space
 70
     0
 10
0.0
 20
0.0
 30
0.0
  3
*Paper_Space
  1

  0
ENDBLK
  5
6A
330
68
100
AcDbEntity
 67
     1
  8
0
100
AcDbBlockEnd
  0
BLOCK
  5
71
330
70
100
AcDbEntity
 67
     1
  8
0
100
AcDbBlockBegin
  2
*Paper_Space0
 70
     0
 10
0.0
 20
0.0
 30
0.0
  3
*Paper_Space0
  1

  0
ENDBLK
  5
72
330
70
100
AcDbEntity
 67
     1
  8
0
100
AcDbBlockEnd
  0
BLOCK
  5
7C5
330
6C9
100
AcDbEntity
  8
0
100
AcDbBlockBegin
  2
GENAXEH
 70
     0
 10
0.0
 20
0.0
 30
0.0
  3
GENAXEH
  1

  0
LINE
  5
7C6
330
6C9
100
AcDbEntity
  8
0
100
AcDbLine
 10
-1.0
 20
0.0
 30
0.0
 11
1.0
 21
0.0
 31
0.0
  0
ENDBLK
  5
7C7
330
6C9
100
AcDbEntity
  8
0
100
AcDbBlockEnd
  0
BLOCK
  5
7E9
330
6ED
100
AcDbEntity
  8
0
100
AcDbBlockBegin
  2
_Open30
 70
     0
 10
0.0
 20
0.0
 30
0.0
  3
_Open30
  1

  0
LINE
  5
7EA
330
6ED
100
AcDbEntity
  8
0
  6
ByBlock
 62
     0
370
    -2
100
AcDbLine
 10
-1.0
 20
0.26794919
 30
0.0
 11
0.0
 21
0.0
 31
0.0
  0
LINE
  5
7EB
330
6ED
100
AcDbEntity
  8
0
  6
ByBlock
 62
     0
370
    -2
100
AcDbLine
 10
0.0
 20
0.0
 30
0.0
 11
-1.0
 21
-0.26794919
 31
0.0
  0
LINE
  5
7EC
330
6ED
100
AcDbEntity
  8
0
  6
ByBlock
 62
     0
370
    -2
100
AcDbLine
 10
0.0
 20
0.0
 30
0.0
 11
-1.0
 21
0.0
 31
0.0
  0
ENDBLK
  5
7ED
330
6ED
100
AcDbEntity
  8
0
100
AcDbBlockEnd
  0
ENDSEC
  0
SECTION
  2
ENTITIES
  0
LINE
  5
CC
330
6C
100
AcDbEntity
  8
Visible (ISO)
100
AcDbLine
 10
145.9066825716188
 20
36.25660583148683
 30
0.0
 11
145.9066825716188
 21
52.75660583148685
 31
0.0
  0
LINE
  5
CD
330
6C
100
AcDbEntity
  8
Visible (ISO)
100
AcDbLine
 10
146.4066825716188
 20
52.25660583148684
 30
0.0
 11
146.4066825716188
 21
36.75660583148682
 31
0.0
  0
LINE
  5
CE
330
6C
100
AcDbEntity
  8
Visible (ISO)
100
AcDbLine
 10
146.4066825716188
 20
36.75660583148682
 30
0.0
 11
145.9066825716188
 21
36.25660583148683
 31
0.0
  0
LINE
  5
CF
330
6C
100
AcDbEntity
  8
Visible (ISO)
100
AcDbLine
 10
146.4066825716188
 20
52.25660583148684
 30
0.0
 11
145.9066825716188
 21
52.75660583148685
 31
0.0
  0
SPLINE
  5
D0
330
6C
100
AcDbEntity
  8
Visible (ISO)
100
AcDbSpline
210
0.0
220
0.0
230
1.0
 70
    12
 71
     2
 72
     6
 73
     3
 74
     0
 42
0.0000000001
 43
0.0000000001
 40
0.4256073096284686
 40
0.4256073096284686
 40
0.4256073096284686
 40
0.8365524254088846
 40
0.8365524254088846
 40
0.8365524254088846
 10
132.9736698697266
 20
40.85797595165522
 30
0.0
 41
1.045691116018826
 10
133.4066825716188
 20
42.7593746214266
 30
0.0
 41
1.044904085362813
 10
133.4066825716188
 20
44.50660583148681
 30
0.0
 41
1.0
  0
LINE
  5
D1
330
6C
100
AcDbEntity
  8
Visible (ISO)
100
AcDbLine
 10
132.9736698697266
 20
40.85797595165522
 30
0.0
 11
132.9736698697266
 21
38.96970483923491
 31
0.0
  0
LINE
  5
D2
330
6C
100
AcDbEntity
  8
Visible (ISO)
100
AcDbLine
 10
133.4066825716188
 20
37.14538989931912
 30
0.0
 11
133.4066825716188
 21
44.50660583148681
 31
0.0
  0
LINE
  5
D3
330
6C
100
AcDbEntity
  8
Visible (ISO)
100
AcDbLine
 10
132.9736698697266
 20
50.04350682373875
 30
0.0
 11
132.9736698697266
 21
48.15523571131842
 31
0.0
  0
SPLINE
  5
D4
330
6C
100
AcDbEntity
  8
Visible (ISO)
100
AcDbSpline
210
0.0
220
0.0
230
1.0
 70
    12
 71
     2
 72
     6
 73
     3
 74
     0
 42
0.0000000001
 43
0.0000000001
 40
0.8365524254088846
 40
0.8365524254088846
 40
0.8365524254088846
 40
1.2474975411893
 40
1.2474975411893
 40
1.2474975411893
 10
133.4066825716188
 20
44.50660583148681
 30
0.0
 41
1.0
 10
133.4066825716188
 20
46.25383704154704
 30
0.0
 41
1.044904085362809
 10
132.9736698697266
 20
48.15523571131842
 30
0.0
 41
1.045691116018822
  0
LINE
  5
D5
330
6C
100
AcDbEntity
  8
Visible (ISO)
100
AcDbLine
 10
133.4066825716188
 20
44.50660583148681
 30
0.0
 11
133.4066825716188
 21
51.86782176365454
 31
0.0
  0
LINE
  5
D6
330
6C
100
AcDbEntity
  8
Visible (ISO)
100
AcDbLine
 10
133.4066825716188
 20
51.86782176365454
 30
0.0
 11
133.4066825716188
 21
53.00660583148681
 31
0.0
  0
LINE
  5
D7
330
6C
100
AcDbEntity
  8
Visible (ISO)
100
AcDbLine
 10
133.4066825716188
 20
36.00660583148684
 30
0.0
 11
133.4066825716188
 21
37.14538989931912
 31
0.0
  0
LINE
  5
D8
330
6C
100
AcDbEntity
  8
Visible (ISO)
100
AcDbLine
 10
133.4066825716188
 20
53.00660583148681
 30
0.0
 11
132.9736698697266
 21
53.75660583148683
 31
0.0
  0
LINE
  5
D9
330
6C
100
AcDbEntity
  8
Visible (ISO)
100
AcDbLine
 10
133.4066825716188
 20
36.00660583148684
 30
0.0
 11
132.9736698697266
 21
35.25660583148685
 31
0.0
  0
SPLINE
  5
DA
330
6C
100
AcDbEntity
  8
Visible (ISO)
100
AcDbSpline
210
0.0
220
0.0
230
1.0
 70
    12
 71
     2
 72
     6
 73
     3
 74
     0
 42
0.0000000001
 43
0.0000000001
 40
0.8365524254088846
 40
0.8365524254088846
 40
0.8365524254088846
 40
1.2474975411893
 40
1.2474975411893
 40
1.2474975411893
 10
133.4066825716188
 20
37.14538989931912
 30
0.0
 41
1.0
 10
133.4066825716188
 20
38.01900550434922
 30
0.0
 41
1.044904085362819
 10
132.9736698697266
 20
38.96970483923491
 30
0.0
 41
1.045691116018833
  0
SPLINE
  5
DB
330
6C
100
AcDbEntity
  8
Visible (ISO)
100
AcDbSpline
210
0.0
220
0.0
230
1.0
 70
    12
 71
     2
 72
     6
 73
     3
 74
     0
 42
0.0000000001
 43
0.0000000001
 40
0.4256073096284686
 40
0.4256073096284686
 40
0.4256073096284686
 40
0.8365524254088844
 40
0.8365524254088844
 40
0.8365524254088844
 10
132.9736698697266
 20
50.04350682373875
 30
0.0
 41
1.045691116018839
 10
133.4066825716188
 20
50.99420615862443
 30
0.0
 41
1.044904085362823
 10
133.4066825716188
 20
51.86782176365454
 30
0.0
 41
1.0
  0
LINE
  5
DC
330
6C
100
AcDbEntity
  8
Visible (ISO)
100
AcDbLine
 10
132.9736698697266
 20
53.75660583148683
 30
0.0
 11
132.9736698697266
 21
53.69213670357035
 31
0.0
  0
SPLINE
  5
DD
330
6C
100
AcDbEntity
  8
Visible (ISO)
100
AcDbSpline
210
0.0
220
0.0
230
1.0
 70
    12
 71
     2
 72
     6
 73
     3
 74
     0
 42
0.0000000001
 43
0.0000000001
 40
0.8365524254088844
 40
0.8365524254088844
 40
0.8365524254088844
 40
1.2474975411893
 40
1.2474975411893
 40
1.2474975411893
 10
133.4066825716188
 20
51.86782176365454
 30
0.0
 41
1.0
 10
133.4066825716188
 20
52.74143736868467
 30
0.0
 41
1.044904085362819
 10
132.9736698697266
 20
53.69213670357035
 30
0.0
 41
1.045691116018834
  0
SPLINE
  5
DE
330
6C
100
AcDbEntity
  8
Visible (ISO)
100
AcDbSpline
210
0.0
220
0.0
230
1.0
 70
    12
 71
     2
 72
     6
 73
     3
 74
     0
 42
0.0000000001
 43
0.0000000001
 40
0.4256073096284692
 40
0.4256073096284692
 40
0.4256073096284692
 40
0.8365524254088846
 40
0.8365524254088846
 40
0.8365524254088846
 10
132.9736698697266
 20
35.3210749594033
 30
0.0
 41
1.045691116018834
 10
133.4066825716188
 20
36.271774294289
 30
0.0
 41
1.044904085362819
 10
133.4066825716188
 20
37.14538989931912
 30
0.0
 41
1.0
  0
LINE
  5
DF
330
6C
100
AcDbEntity
  8
Visible (ISO)
100
AcDbLine
 10
132.9736698697266
 20
35.3210749594033
 30
0.0
 11
132.9736698697266
 21
35.25660583148682
 31
0.0
  0
LINE
  5
E0
330
6C
100
AcDbEntity
  8
Visible (ISO)
100
AcDbLine
 10
128.339695273511
 20
35.3210749594033
 30
0.0
 11
132.9736698697266
 21
35.3210749594033
 31
0.0
  0
LINE
  5
E1
330
6C
100
AcDbEntity
  8
Visible (ISO)
100
AcDbLine
 10
128.339695273511
 20
35.25660583148682
 30
0.0
 11
128.339695273511
 21
35.3210749594033
 31
0.0
  0
LINE
  5
E2
330
6C
100
AcDbEntity
  8
Visible (ISO)
100
AcDbLine
 10
132.9736698697266
 20
38.96970483923492
 30
0.0
 11
128.339695273511
 21
38.96970483923492
 31
0.0
  0
SPLINE
  5
E3
330
6C
100
AcDbEntity
  8
Visible (ISO)
100
AcDbSpline
210
0.0
220
0.0
230
1.0
 70
    12
 71
     2
 72
     6
 73
     3
 74
     0
 42
0.0000000001
 43
0.0000000001
 40
0.3847937513989837
 40
0.3847937513989837
 40
0.3847937513989837
 40
0.7911618380462638
 40
0.7911618380462638
 40
0.7911618380462638
 10
128.339695273511
 20
38.96970483923491
 30
0.0
 41
1.041774167103256
 10
127.9066825716188
 20
38.01900550434922
 30
0.0
 41
1.042945248861377
 10
127.9066825716188
 20
37.14538989931912
 30
0.0
 41
1.0
  0
SPLINE
  5
E4
330
6C
100
AcDbEntity
  8
Visible (ISO)
100
AcDbSpline
210
0.0
220
0.0
230
1.0
 70
    12
 71
     2
 72
     6
 73
     3
 74
     0
 42
0.0000000001
 43
0.0000000001
 40
0.7911618380462638
 40
0.7911618380462638
 40
0.7911618380462638
 40
1.197529924693542
 40
1.197529924693542
 40
1.197529924693542
 10
127.9066825716188
 20
37.14538989931912
 30
0.0
 41
1.0
 10
127.9066825716188
 20
36.271774294289
 30
0.0
 41
1.04294524886138
 10
128.339695273511
 20
35.3210749594033
 30
0.0
 41
1.041774167103257
  0
LINE
  5
E5
330
6C
100
AcDbEntity
  8
Visible (ISO)
100
AcDbLine
 10
128.339695273511
 20
39.75660583148683
 30
0.0
 11
127.9066825716188
 21
40.50660583148682
 31
0.0
  0
LINE
  5
E6
330
6C
100
AcDbEntity
  8
Visible (ISO)
100
AcDbLine
 10
128.339695273511
 20
38.96970483923491
 30
0.0
 11
128.339695273511
 21
39.75660583148684
 31
0.0
  0
LINE
  5
E7
330
6C
100
AcDbEntity
  8
Visible (ISO)
100
AcDbLine
 10
128.339695273511
 20
50.04350682373875
 30
0.0
 11
132.9736698697266
 21
50.04350682373875
 31
0.0
  0
LINE
  5
E8
330
6C
100
AcDbEntity
  8
Visible (ISO)
100
AcDbLine
 10
128.339695273511
 20
49.25660583148681
 30
0.0
 11
128.339695273511
 21
50.04350682373875
 31
0.0
  0
LINE
  5
E9
330
6C
100
AcDbEntity
  8
Visible (ISO)
100
AcDbLine
 10
127.9066825716188
 20
48.50660583148684
 30
0.0
 11
128.339695273511
 21
49.25660583148681
 31
0.0
  0
LINE
  5
EA
330
6C
100
AcDbEntity
  8
Visible (ISO)
100
AcDbLine
 10
132.9736698697266
 20
53.69213670357035
 30
0.0
 11
128.339695273511
 21
53.69213670357035
 31
0.0
  0
SPLINE
  5
EB
330
6C
100
AcDbEntity
  8
Visible (ISO)
100
AcDbSpline
210
0.0
220
0.0
230
1.0
 70
    12
 71
     2
 72
     6
 73
     3
 74
     0
 42
0.0000000001
 43
0.0000000001
 40
0.3847937513989835
 40
0.3847937513989835
 40
0.3847937513989835
 40
0.7911618380462635
 40
0.7911618380462635
 40
0.7911618380462635
 10
128.339695273511
 20
53.69213670357035
 30
0.0
 41
1.041774167103255
 10
127.9066825716188
 20
52.74143736868467
 30
0.0
 41
1.042945248861377
 10
127.9066825716188
 20
51.86782176365454
 30
0.0
 41
1.0
  0
SPLINE
  5
EC
330
6C
100
AcDbEntity
  8
Visible (ISO)
100
AcDbSpline
210
0.0
220
0.0
230
1.0
 70
    12
 71
     2
 72
     6
 73
     3
 74
     0
 42
0.0000000001
 43
0.0000000001
 40
0.7911618380462635
 40
0.7911618380462635
 40
0.7911618380462635
 40
1.197529924693542
 40
1.197529924693542
 40
1.197529924693542
 10
127.9066825716188
 20
51.86782176365454
 30
0.0
 41
1.0
 10
127.9066825716188
 20
50.99420615862445
 30
0.0
 41
1.042945248861377
 10
128.339695273511
 20
50.04350682373875
 30
0.0
 41
1.041774167103256
  0
LINE
  5
ED
330
6C
100
AcDbEntity
  8
Visible (ISO)
100
AcDbLine
 10
128.339695273511
 20
53.69213670357035
 30
0.0
 11
128.339695273511
 21
53.75660583148683
 31
0.0
  0
LINE
  5
EE
330
6C
100
AcDbEntity
  8
Visible (ISO)
100
AcDbLine
 10
127.9066825716188
 20
48.50660583148684
 30
0.0
 11
127.9066825716188
 21
51.86782176365454
 31
0.0
  0
LINE
  5
EF
330
6C
100
AcDbEntity
  8
Visible (ISO)
100
AcDbLine
 10
127.9066825716188
 20
51.86782176365454
 30
0.0
 11
127.9066825716188
 21
53.00660583148681
 31
0.0
  0
LINE
  5
F0
330
6C
100
AcDbEntity
  8
Visible (ISO)
100
AcDbLine
 10
127.9066825716188
 20
37.1453898993191
 30
0.0
 11
127.9066825716188
 21
40.50660583148682
 31
0.0
  0
LINE
  5
F1
330
6C
100
AcDbEntity
  8
Visible (ISO)
100
AcDbLine
 10
127.9066825716188
 20
36.00660583148683
 30
0.0
 11
127.9066825716188
 21
37.14538989931912
 31
0.0
  0
LINE
  5
F2
330
6C
100
AcDbEntity
  8
Visible (ISO)
100
AcDbLine
 10
128.339695273511
 20
35.25660583148685
 30
0.0
 11
132.9736698697266
 21
35.25660583148685
 31
0.0
  0
LINE
  5
F3
330
6C
100
AcDbEntity
  8
Visible (ISO)
100
AcDbLine
 10
128.339695273511
 20
53.75660583148683
 30
0.0
 11
132.9736698697266
 21
53.75660583148683
 31
0.0
  0
LINE
  5
F4
330
6C
100
AcDbEntity
  8
Visible (ISO)
100
AcDbLine
 10
127.9066825716188
 20
53.00660583148681
 30
0.0
 11
128.339695273511
 21
53.75660583148683
 31
0.0
  0
LINE
  5
F5
330
6C
100
AcDbEntity
  8
Visible (ISO)
100
AcDbLine
 10
127.9066825716188
 20
36.00660583148683
 30
0.0
 11
128.339695273511
 21
35.25660583148685
 31
0.0
  0
LINE
  5
F6
330
6C
100
AcDbEntity
  8
Visible (ISO)
100
AcDbLine
 10
110.839695273511
 20
40.85797595165522
 30
0.0
 11
132.9736698697266
 21
40.85797595165522
 31
0.0
  0
LINE
  5
F7
330
6C
100
AcDbEntity
  8
Visible (ISO)
100
AcDbLine
 10
110.839695273511
 20
38.96970483923491
 30
0.0
 11
110.839695273511
 21
40.85797595165522
 31
0.0
  0
LINE
  5
F8
330
6C
100
AcDbEntity
  8
Visible (ISO)
100
AcDbLine
 10
115.4736698697266
 20
38.96970483923492
 30
0.0
 11
110.839695273511
 21
38.96970483923492
 31
0.0
  0
LINE
  5
F9
330
6C
100
AcDbEntity
  8
Visible (ISO)
100
AcDbLine
 10
132.9736698697266
 20
48.15523571131842
 30
0.0
 11
110.839695273511
 21
48.15523571131842
 31
0.0
  0
LINE
  5
FA
330
6C
100
AcDbEntity
  8
Visible (ISO)
100
AcDbLine
 10
110.839695273511
 20
50.04350682373875
 30
0.0
 11
115.4736698697266
 21
50.04350682373875
 31
0.0
  0
LINE
  5
FB
330
6C
100
AcDbEntity
  8
Visible (ISO)
100
AcDbLine
 10
110.839695273511
 20
48.15523571131842
 30
0.0
 11
110.839695273511
 21
50.04350682373875
 31
0.0
  0
LINE
  5
FC
330
6C
100
AcDbEntity
  8
Visible (ISO)
100
AcDbLine
 10
110.839695273511
 20
35.25660583148682
 30
0.0
 11
110.839695273511
 21
35.3210749594033
 31
0.0
  0
LINE
  5
FD
330
6C
100
AcDbEntity
  8
Visible (ISO)
100
AcDbLine
 10
110.839695273511
 20
53.69213670357035
 30
0.0
 11
110.839695273511
 21
53.75660583148683
 31
0.0
  0
LINE
  5
FE
330
6C
100
AcDbEntity
  8
Visible (ISO)
100
AcDbLine
 10
115.4736698697266
 20
53.69213670357035
 30
0.0
 11
110.839695273511
 21
53.69213670357035
 31
0.0
  0
LINE
  5
FF
330
6C
100
AcDbEntity
  8
Visible (ISO)
100
AcDbLine
 10
110.839695273511
 20
35.3210749594033
 30
0.0
 11
115.4736698697266
 21
35.3210749594033
 31
0.0
  0
LINE
  5
100
330
6C
100
AcDbEntity
  8
Visible (ISO)
100
AcDbLine
 10
110.839695273511
 20
53.75660583148683
 30
0.0
 11
115.4736698697266
 21
53.75660583148683
 31
0.0
  0
LINE
  5
101
330
6C
100
AcDbEntity
  8
Visible (ISO)
100
AcDbLine
 10
110.839695273511
 20
35.25660583148685
 30
0.0
 11
115.4736698697266
 21
35.25660583148685
 31
0.0
  0
LINE
  5
102
330
6C
100
AcDbEntity
  8
Visible (ISO)
100
AcDbLine
 10
115.4736698697266
 20
39.75660583148683
 30
0.0
 11
115.4736698697266
 21
38.96970483923492
 31
0.0
  0
LINE
  5
103
330
6C
100
AcDbEntity
  8
Visible (ISO)
100
AcDbLine
 10
115.9066825716188
 20
40.50660583148682
 30
0.0
 11
115.4736698697266
 21
39.75660583148683
 31
0.0
  0
LINE
  5
104
330
6C
100
AcDbEntity
  8
Visible (ISO)
100
AcDbLine
 10
115.4736698697266
 20
49.25660583148681
 30
0.0
 11
115.9066825716188
 21
48.50660583148684
 31
0.0
  0
LINE
  5
105
330
6C
100
AcDbEntity
  8
Visible (ISO)
100
AcDbLine
 10
115.4736698697266
 20
50.04350682373876
 30
0.0
 11
115.4736698697266
 21
49.25660583148681
 31
0.0
  0
LINE
  5
106
330
6C
100
AcDbEntity
  8
Visible (ISO)
100
AcDbLine
 10
115.4736698697266
 20
53.75660583148683
 30
0.0
 11
115.4736698697266
 21
53.69213670357035
 31
0.0
  0
SPLINE
  5
107
330
6C
100
AcDbEntity
  8
Visible (ISO)
100
AcDbSpline
210
0.0
220
0.0
230
1.0
 70
    12
 71
     2
 72
     6
 73
     3
 74
     0
 42
0.0000000001
 43
0.0000000001
 40
0.3847937513989829
 40
0.3847937513989829
 40
0.3847937513989829
 40
0.7911618380462635
 40
0.7911618380462635
 40
0.7911618380462635
 10
115.4736698697266
 20
50.04350682373875
 30
0.0
 41
1.041774167103256
 10
115.9066825716188
 20
50.99420615862445
 30
0.0
 41
1.042945248861377
 10
115.9066825716188
 20
51.86782176365454
 30
0.0
 41
1.0
  0
SPLINE
  5
108
330
6C
100
AcDbEntity
  8
Visible (ISO)
100
AcDbSpline
210
0.0
220
0.0
230
1.0
 70
    12
 71
     2
 72
     6
 73
     3
 74
     0
 42
0.0000000001
 43
0.0000000001
 40
0.7911618380462635
 40
0.7911618380462635
 40
0.7911618380462635
 40
1.197529924693542
 40
1.197529924693542
 40
1.197529924693542
 10
115.9066825716188
 20
51.86782176365454
 30
0.0
 41
1.0
 10
115.9066825716188
 20
52.74143736868467
 30
0.0
 41
1.042945248861377
 10
115.4736698697266
 20
53.69213670357035
 30
0.0
 41
1.041774167103254
  0
LINE
  5
109
330
6C
100
AcDbEntity
  8
Visible (ISO)
100
AcDbLine
 10
115.9066825716188
 20
51.86782176365454
 30
0.0
 11
115.9066825716188
 21
53.00660583148681
 31
0.0
  0
LINE
  5
10A
330
6C
100
AcDbEntity
  8
Visible (ISO)
100
AcDbLine
 10
115.9066825716188
 20
48.50660583148684
 30
0.0
 11
115.9066825716188
 21
51.86782176365454
 31
0.0
  0
SPLINE
  5
10B
330
6C
100
AcDbEntity
  8
Visible (ISO)
100
AcDbSpline
210
0.0
220
0.0
230
1.0
 70
    12
 71
     2
 72
     6
 73
     3
 74
     0
 42
0.0000000001
 43
0.0000000001
 40
0.7911618380462631
 40
0.7911618380462631
 40
0.7911618380462631
 40
1.197529924693542
 40
1.197529924693542
 40
1.197529924693542
 10
115.9066825716188
 20
37.14538989931912
 30
0.0
 41
1.0
 10
115.9066825716188
 20
38.01900550434922
 30
0.0
 41
1.042945248861377
 10
115.4736698697266
 20
38.96970483923491
 30
0.0
 41
1.041774167103256
  0
LINE
  5
10C
330
6C
100
AcDbEntity
  8
Visible (ISO)
100
AcDbLine
 10
115.9066825716188
 20
37.1453898993191
 30
0.0
 11
115.9066825716188
 21
40.50660583148682
 31
0.0
  0
SPLINE
  5
10D
330
6C
100
AcDbEntity
  8
Visible (ISO)
100
AcDbSpline
210
0.0
220
0.0
230
1.0
 70
    12
 71
     2
 72
     6
 73
     3
 74
     0
 42
0.0000000001
 43
0.0000000001
 40
0.384793751398983
 40
0.384793751398983
 40
0.384793751398983
 40
0.7911618380462631
 40
0.7911618380462631
 40
0.7911618380462631
 10
115.4736698697266
 20
35.3210749594033
 30
0.0
 41
1.041774167103257
 10
115.9066825716188
 20
36.271774294289
 30
0.0
 41
1.04294524886138
 10
115.9066825716188
 20
37.14538989931912
 30
0.0
 41
1.0
  0
LINE
  5
10E
330
6C
100
AcDbEntity
  8
Visible (ISO)
100
AcDbLine
 10
115.4736698697266
 20
35.3210749594033
 30
0.0
 11
115.4736698697266
 21
35.25660583148682
 31
0.0
  0
LINE
  5
10F
330
6C
100
AcDbEntity
  8
Visible (ISO)
100
AcDbLine
 10
115.9066825716188
 20
36.00660583148683
 30
0.0
 11
115.9066825716188
 21
37.14538989931912
 31
0.0
  0
LINE
  5
110
330
6C
100
AcDbEntity
  8
Visible (ISO)
100
AcDbLine
 10
115.9066825716188
 20
53.00660583148681
 30
0.0
 11
115.4736698697266
 21
53.75660583148683
 31
0.0
  0
LINE
  5
111
330
6C
100
AcDbEntity
  8
Visible (ISO)
100
AcDbLine
 10
115.9066825716188
 20
36.00660583148683
 30
0.0
 11
115.4736698697266
 21
35.25660583148685
 31
0.0
  0
LINE
  5
112
330
6C
100
AcDbEntity
  8
Visible (ISO)
100
AcDbLine
 10
127.9066825716188
 20
40.50660583148682
 30
0.0
 11
115.9066825716188
 21
40.50660583148682
 31
0.0
  0
LINE
  5
113
330
6C
100
AcDbEntity
  8
Visible (ISO)
100
AcDbLine
 10
115.9066825716188
 20
48.50660583148684
 30
0.0
 11
127.9066825716188
 21
48.50660583148684
 31
0.0
  0
SPLINE
  5
114
330
6C
100
AcDbEntity
  8
Visible (ISO)
100
AcDbSpline
210
0.0
220
0.0
230
1.0
 70
    12
 71
     2
 72
     6
 73
     3
 74
     0
 42
0.0000000001
 43
0.0000000001
 40
0.4226777092670462
 40
0.4226777092670462
 40
0.4226777092670462
 40
0.8332926396892185
 40
0.8332926396892185
 40
0.8332926396892185
 10
110.839695273511
 20
48.15523571131842
 30
0.0
 41
1.045413293158438
 10
110.4066825716188
 20
46.25383704154706
 30
0.0
 41
1.044765269262242
 10
110.4066825716188
 20
44.50660583148681
 30
0.0
 41
1.0
  0
SPLINE
  5
115
330
6C
100
AcDbEntity
  8
Visible (ISO)
100
AcDbSpline
210
0.0
220
0.0
230
1.0
 70
    12
 71
     2
 72
     6
 73
     3
 74
     0
 42
0.0000000001
 43
0.0000000001
 40
0.8332926396892185
 40
0.8332926396892185
 40
0.8332926396892185
 40
1.243907570111389
 40
1.243907570111389
 40
1.243907570111389
 10
110.4066825716188
 20
44.50660583148681
 30
0.0
 41
1.0
 10
110.4066825716188
 20
42.7593746214266
 30
0.0
 41
1.044765269262244
 10
110.839695273511
 20
40.85797595165522
 30
0.0
 41
1.045413293158438
  0
SPLINE
  5
116
330
6C
100
AcDbEntity
  8
Visible (ISO)
100
AcDbSpline
210
0.0
220
0.0
230
1.0
 70
    12
 71
     2
 72
     6
 73
     3
 74
     0
 42
0.0000000001
 43
0.0000000001
 40
0.4226777092670475
 40
0.4226777092670475
 40
0.4226777092670475
 40
0.8332926396892188
 40
0.8332926396892188
 40
0.8332926396892188
 10
110.839695273511
 20
38.96970483923492
 30
0.0
 41
1.045413293158431
 10
110.4066825716188
 20
38.01900550434922
 30
0.0
 41
1.044765269262237
 10
110.4066825716188
 20
37.14538989931912
 30
0.0
 41
1.0
  0
LINE
  5
117
330
6C
100
AcDbEntity
  8
Visible (ISO)
100
AcDbLine
 10
110.4066825716188
 20
44.50660583148681
 30
0.0
 11
110.4066825716188
 21
37.14538989931912
 31
0.0
  0
SPLINE
  5
118
330
6C
100
AcDbEntity
  8
Visible (ISO)
100
AcDbSpline
210
0.0
220
0.0
230
1.0
 70
    12
 71
     2
 72
     6
 73
     3
 74
     0
 42
0.0000000001
 43
0.0000000001
 40
0.8332926396892188
 40
0.8332926396892188
 40
0.8332926396892188
 40
1.243907570111389
 40
1.243907570111389
 40
1.243907570111389
 10
110.4066825716188
 20
37.14538989931912
 30
0.0
 41
1.0
 10
110.4066825716188
 20
36.271774294289
 30
0.0
 41
1.044765269262234
 10
110.839695273511
 20
35.3210749594033
 30
0.0
 41
1.045413293158427
  0
LINE
  5
119
330
6C
100
AcDbEntity
  8
Visible (ISO)
100
AcDbLine
 10
110.4066825716188
 20
37.14538989931912
 30
0.0
 11
110.4066825716188
 21
36.00660583148684
 31
0.0
  0
LINE
  5
11A
330
6C
100
AcDbEntity
  8
Visible (ISO)
100
AcDbLine
 10
110.4066825716188
 20
53.00660583148681
 30
0.0
 11
110.4066825716188
 21
51.86782176365457
 31
0.0
  0
SPLINE
  5
11B
330
6C
100
AcDbEntity
  8
Visible (ISO)
100
AcDbSpline
210
0.0
220
0.0
230
1.0
 70
    12
 71
     2
 72
     6
 73
     3
 74
     0
 42
0.0000000001
 43
0.0000000001
 40
0.4226777092670467
 40
0.4226777092670467
 40
0.4226777092670467
 40
0.8332926396892183
 40
0.8332926396892183
 40
0.8332926396892183
 10
110.839695273511
 20
53.69213670357035
 30
0.0
 41
1.045413293158434
 10
110.4066825716188
 20
52.74143736868467
 30
0.0
 41
1.044765269262239
 10
110.4066825716188
 20
51.86782176365454
 30
0.0
 41
1.0
  0
SPLINE
  5
11C
330
6C
100
AcDbEntity
  8
Visible (ISO)
100
AcDbSpline
210
0.0
220
0.0
230
1.0
 70
    12
 71
     2
 72
     6
 73
     3
 74
     0
 42
0.0000000001
 43
0.0000000001
 40
0.8332926396892183
 40
0.8332926396892183
 40
0.8332926396892183
 40
1.243907570111389
 40
1.243907570111389
 40
1.243907570111389
 10
110.4066825716188
 20
51.86782176365454
 30
0.0
 41
1.0
 10
110.4066825716188
 20
50.99420615862445
 30
0.0
 41
1.044765269262239
 10
110.839695273511
 20
50.04350682373875
 30
0.0
 41
1.045413293158434
  0
LINE
  5
11D
330
6C
100
AcDbEntity
  8
Visible (ISO)
100
AcDbLine
 10
110.4066825716188
 20
51.86782176365454
 30
0.0
 11
110.4066825716188
 21
44.50660583148681
 31
0.0
  0
LINE
  5
11E
330
6C
100
AcDbEntity
  8
Visible (ISO)
100
AcDbLine
 10
110.4066825716188
 20
36.00660583148684
 30
0.0
 11
110.839695273511
 21
35.25660583148685
 31
0.0
  0
LINE
  5
11F
330
6C
100
AcDbEntity
  8
Visible (ISO)
100
AcDbLine
 10
110.4066825716188
 20
53.00660583148681
 30
0.0
 11
110.839695273511
 21
53.75660583148683
 31
0.0
  0
LINE
  5
120
330
6C
100
AcDbEntity
  8
Visible (ISO)
100
AcDbLine
 10
116.7680645081048
 20
43.75714623360425
 30
0.0
 11
117.86016021997
 21
46.81059772563446
 31
0.0
  0
ELLIPSE
  5
121
330
6C
100
AcDbEntity
  8
Visible (ISO)
100
AcDbEllipse
 10
118.3726494895291
 20
46.58313345078252
 30
0.0
 11
0.5653269642954283
 21
0.0000000000008308
 31
0.0
210
0.0
220
0.0
230
1.0
 40
0.9531667975378875
 41
0.4357918987539078
 42
2.705800754833092
  0
LINE
  5
122
330
6C
100
AcDbEntity
  8
Visible (ISO)
100
AcDbLine
 10
118.8851387590882
 20
46.81059772563457
 30
0.0
 11
119.9774890285837
 21
43.75643450168583
 31
0.0
  0
ELLIPSE
  5
123
330
6C
100
AcDbEntity
  8
Visible (ISO)
100
AcDbEllipse
 10
120.5343282937364
 20
43.93737564910927
 30
0.0
 11
-0.5883077352017581
 21
-0.0000000000000282
 31
0.0
210
0.0
220
0.0
230
1.0
 40
0.9531667975376029
 41
0.3285531705514044
 42
2.110876526947181
  0
LINE
  5
124
330
6C
100
AcDbEntity
  8
Visible (ISO)
100
AcDbLine
 10
120.8368389423271
 20
43.45643399808293
 30
0.0
 11
120.8729573641366
 21
43.47707424336414
 31
0.0
  0
LINE
  5
125
330
6C
100
AcDbEntity
  8
Visible (ISO)
100
AcDbLine
 10
120.8729573641366
 20
43.47707424336414
 30
0.0
 11
120.1824472358481
 21
42.16073158806801
 31
0.0
  0
ELLIPSE
  5
126
330
6C
100
AcDbEntity
  8
Visible (ISO)
100
AcDbEllipse
 10
120.1166724314681
 20
42.19207876789278
 30
0.0
 11
0.0735384669001882
 21
0.0000000000000271
 31
0.0
210
0.0
220
0.0
230
1.0
 40
0.9531667975395267
 41
3.962594650552751
 42
5.819537698179257
  0
ELLIPSE
  5
127
330
6C
100
AcDbEntity
  8
Visible (ISO)
100
AcDbEllipse
 10
118.3726494895291
 20
40.40693842875366
 30
0.0
 11
2.485600181227439
 21
-0.0000000000002831
 31
0.0
210
0.0
220
0.0
230
1.0
 40
0.9531667975375935
 41
0.8210019969645859
 42
2.320590656625419
  0
ELLIPSE
  5
128
330
6C
100
AcDbEntity
  8
Visible (ISO)
100
AcDbEllipse
 10
116.6286265475902
 20
42.19207876789278
 30
0.0
 11
0.0735384669002225
 21
0.0000000000000042
 31
0.0
210
0.0
220
0.0
230
1.0
 40
0.9531667975374901
 41
3.605240262590537
 42
5.462183310214954
  0
LINE
  5
129
330
6C
100
AcDbEntity
  8
Visible (ISO)
100
AcDbLine
 10
116.5628517432102
 20
42.16073158806799
 30
0.0
 11
115.8723416149216
 21
43.47707424336414
 31
0.0
  0
LINE
  5
12A
330
6C
100
AcDbEntity
  8
Visible (ISO)
100
AcDbLine
 10
115.8723416149216
 20
43.47707424336414
 30
0.0
 11
115.9170713753512
 21
43.45245895938002
 31
0.0
  0
ELLIPSE
  5
12B
330
6C
100
AcDbEntity
  8
Visible (ISO)
100
AcDbEllipse
 10
116.2112252429521
 20
43.93808738102769
 30
0.0
 11
-0.5883077352017625
 21
0.0000000000000488
 31
0.0
210
0.0
220
0.0
230
1.0
 40
0.9531667975375855
 41
1.047197551196687
 42
2.813039483038433
  0
LINE
  5
12C
330
6C
100
AcDbEntity
  8
Visible (ISO)
100
AcDbLine
 10
126.4278971704772
 20
43.79482634558342
 30
0.0
 11
126.4278971704772
 21
43.29923163192703
 31
0.0
  0
LINE
  5
12D
330
6C
100
AcDbEntity
  8
Visible (ISO)
100
AcDbLine
 10
126.4278971704772
 20
43.29923163192703
 30
0.0
 11
124.6901891304415
 21
43.29923163192703
 31
0.0
  0
ARC
  5
12E
330
6C
100
AcDbEntity
  8
Visible (ISO)
100
AcDbCircle
 10
125.4781345060612
 20
43.54702898875522
 30
0.0
 40
0.8259911894273129
100
AcDbArc
 50
197.457603123722
 51
316.5096153456693
  0
LINE
  5
12F
330
6C
100
AcDbEntity
  8
Visible (ISO)
100
AcDbLine
 10
126.0773827550236
 20
42.97855473153062
 30
0.0
 11
126.4278971704772
 21
42.62804031607696
 31
0.0
  0
ARC
  5
130
330
6C
100
AcDbEntity
  8
Visible (ISO)
100
AcDbCircle
 10
125.4781345060612
 20
43.54702898875522
 30
0.0
 40
1.321585903083698
100
AcDbArc
 50
44.05655693703279
 51
315.9434430629681
  0
LINE
  5
131
330
6C
100
AcDbEntity
  8
Visible (ISO)
100
AcDbLine
 10
126.4278971704772
 20
44.46601766143348
 30
0.0
 11
126.0773827550236
 21
44.11550324597985
 31
0.0
  0
ARC
  5
132
330
6C
100
AcDbEntity
  8
Visible (ISO)
100
AcDbCircle
 10
125.4781345060612
 20
43.54702898875522
 30
0.0
 40
0.8259911894273136
100
AcDbArc
 50
43.49038465433067
 51
162.5423968762779
  0
LINE
  5
133
330
6C
100
AcDbEntity
  8
Visible (ISO)
100
AcDbLine
 10
124.6901891304415
 20
43.79482634558342
 30
0.0
 11
126.4278971704772
 21
43.79482634558342
 31
0.0
  0
ARC
  5
134
330
6C
100
AcDbEntity
  8
Visible (ISO)
100
AcDbCircle
 10
122.731704668179
 20
43.53750409858064
 30
0.0
 40
1.321585903083698
100
AcDbArc
 50
45.00000000000055
 51
315.0
  0
LINE
  5
135
330
6C
100
AcDbEntity
  8
Visible (ISO)
100
AcDbLine
 10
123.6662070221701
 20
44.47200645257169
 30
0.0
 11
123.3157686394234
 21
44.12156806982506
 31
0.0
  0
ARC
  5
136
330
6C
100
AcDbEntity
  8
Visible (ISO)
100
AcDbCircle
 10
122.731704668179
 20
43.53750409858064
 30
0.0
 40
0.8259911894273129
100
AcDbArc
 50
45.0
 51
315.0
  0
LINE
  5
137
330
6C
100
AcDbEntity
  8
Visible (ISO)
100
AcDbLine
 10
123.3157686394234
 20
42.95344012733625
 30
0.0
 11
123.6662070221701
 21
42.60300174458961
 31
0.0
  0
LINE
  5
138
330
6C
100
AcDbEntity
  8
Visible (ISO)
100
AcDbLine
 10
118.3033952348881
 20
44.55394349141093
 30
0.0
 11
118.0400543445296
 21
43.85112167479371
 31
0.0
  0
ELLIPSE
  5
139
330
6C
100
AcDbEntity
  8
Visible (ISO)
100
AcDbEllipse
 10
118.3726494912824
 20
44.53036818505974
 30
0.0
 11
0.0735384669002193
 21
0.0000000000000001
 31
0.0
210
0.0
220
0.0
230
1.0
 40
0.9531667975375063
 41
0.3430239404206459
 42
2.798568713169143
  0
LINE
  5
13A
330
6C
100
AcDbEntity
  8
Visible (ISO)
100
AcDbLine
 10
118.7052446350331
 20
43.85112167454803
 30
0.0
 11
118.4419037476768
 21
44.55394349141093
 31
0.0
  0
ELLIPSE
  5
13B
330
6C
100
AcDbEntity
  8
Visible (ISO)
100
AcDbEllipse
 10
118.6359903785927
 20
43.8275463683197
 30
0.0
 11
0.0735384669002201
 21
0.0000000000000141
 31
0.0
210
0.0
220
0.0
230
1.0
 40
0.9531667975375228
 41
4.712388980384504
 42
6.626209245739198
  0
LINE
  5
13C
330
6C
100
AcDbEntity
  8
Visible (ISO)
100
AcDbLine
 10
118.1093086008779
 20
43.7574519433286
 30
0.0
 11
118.6359903785927
 21
43.7574519433286
 31
0.0
  0
ELLIPSE
  5
13D
330
6C
100
AcDbEntity
  8
Visible (ISO)
100
AcDbEllipse
 10
118.1093086008779
 20
43.8275463683197
 30
0.0
 11
-0.0735384669002224
 21
0.0000000000000012
 31
0.0
210
0.0
220
0.0
230
1.0
 40
0.9531667975374929
 41
5.940161364897996
 42
7.853981633974497
  0
SPLINE
  5
13E
330
6C
100
AcDbEntity
  8
Visible (ISO)
100
AcDbSpline
210
0.0
220
0.0
230
1.0
 70
     8
 71
     3
 72
    22
 73
    18
 74
     0
 42
0.0000000001
 43
0.0000000001
 40
0.930303521037988
 40
0.930303521037988
 40
0.9303035210404583
 40
0.9303035210404583
 40
1.161283013875379
 40
1.161283013875379
 40
1.392262506710301
 40
1.392262506710301
 40
1.62643477439561
 40
1.62643477439561
 40
1.860607042080914
 40
1.860607042080914
 40
2.094779309766223
 40
2.094779309766223
 40
2.328951577451529
 40
2.328951577451529
 40
2.559931070286451
 40
2.559931070286451
 40
2.790910563121121
 40
2.790910563121121
 40
2.790910563121374
 40
2.790910563121374
 10
127.8066825716188
 20
53.00660583148681
 30
0.0
 10
127.8066825716188
 20
53.00660583148681
 30
0.0
 10
127.6470718337674
 20
52.89348620177684
 30
0.0
 10
127.0352992834071
 20
52.48723262818696
 30
0.0
 10
126.584386529726
 20
52.19726816911848
 30
0.0
 10
125.5658474379447
 20
51.62348712640988
 30
0.0
 10
124.9217091256138
 20
51.29465722655054
 30
0.0
 10
123.4843667796357
 20
50.78962907257142
 30
0.0
 10
122.6872567972365
 20
50.62542924779817
 30
0.0
 10
121.1261083460011
 20
50.62542924779817
 30
0.0
 10
120.3289983636019
 20
50.78962907257142
 30
0.0
 10
118.8916560176238
 20
51.29465722655054
 30
0.0
 10
118.2475177052929
 20
51.62348712640988
 30
0.0
 10
117.2289786135116
 20
52.19726816911848
 30
0.0
 10
116.7780658598305
 20
52.48723262818696
 30
0.0
 10
116.1662933094706
 20
52.89348620177662
 30
0.0
 10
116.0066825716192
 20
53.00660583148658
 30
0.0
 10
116.0066825716188
 20
53.00660583148681
 30
0.0
  0
LINE
  5
13F
330
6C
100
AcDbEntity
  8
Visible (ISO)
100
AcDbLine
 10
116.0066825716188
 20
53.00660583148681
 30
0.0
 11
116.0066825716188
 21
55.00660583148686
 31
0.0
  0
LINE
  5
140
330
6C
100
AcDbEntity
  8
Visible (ISO)
100
AcDbLine
 10
127.8066825716188
 20
53.00660583148681
 30
0.0
 11
127.8066825716188
 21
55.00660583148686
 31
0.0
  0
LINE
  5
141
330
6C
100
AcDbEntity
  8
Visible (ISO)
100
AcDbLine
 10
145.9066825716188
 20
36.25660583148683
 30
0.0
 11
133.4066825716188
 21
36.25660583148683
 31
0.0
  0
LINE
  5
142
330
6C
100
AcDbEntity
  8
Visible (ISO)
100
AcDbLine
 10
145.9066825716188
 20
52.75660583148685
 30
0.0
 11
133.4066825716188
 21
52.75660583148685
 31
0.0
  0
LINE
  5
143
330
6C
100
AcDbEntity
  8
Visible (ISO)
100
AcDbLine
 10
127.9066825716188
 20
53.00660583148681
 30
0.0
 11
127.8066825716188
 21
53.00660583148681
 31
0.0
  0
LINE
  5
144
330
6C
100
AcDbEntity
  8
Visible (ISO)
100
AcDbLine
 10
116.0066825716188
 20
53.00660583148681
 30
0.0
 11
115.9066825716188
 21
53.00660583148681
 31
0.0
  0
LINE
  5
145
330
6C
100
AcDbEntity
  8
Visible (ISO)
100
AcDbLine
 10
127.9066825716188
 20
36.00660583148683
 30
0.0
 11
115.9066825716188
 21
36.00660583148683
 31
0.0
  0
LINE
  5
146
330
6C
100
AcDbEntity
  8
Visible (ISO)
100
AcDbLine
 10
125.4066825716188
 20
73.00660583148682
 30
0.0
 11
118.4066825716188
 21
73.00660583148682
 31
0.0
  0
LINE
  5
147
330
6C
100
AcDbEntity
  8
Visible (ISO)
100
AcDbLine
 10
125.4066825716188
 20
66.00660583148682
 30
0.0
 11
125.4066825716188
 21
61.00660583148684
 31
0.0
  0
LINE
  5
148
330
6C
100
AcDbEntity
  8
Visible Narrow (ISO)
100
AcDbLine
 10
125.4066825716188
 20
66.00660583148682
 30
0.0
 11
118.4066825716188
 21
66.00660583148682
 31
0.0
  0
LINE
  5
149
330
6C
100
AcDbEntity
  8
Visible (ISO)
100
AcDbLine
 10
118.4066825716188
 20
61.00660583148684
 30
0.0
 11
118.4066825716188
 21
66.00660583148682
 31
0.0
  0
LINE
  5
14A
330
6C
100
AcDbEntity
  8
Visible (ISO)
100
AcDbLine
 10
118.4066825716188
 20
61.00660583148684
 30
0.0
 11
125.4066825716188
 21
61.00660583148684
 31
0.0
  0
LINE
  5
14B
330
6C
100
AcDbEntity
  8
Visible (ISO)
100
AcDbLine
 10
125.4066825716188
 20
61.00660583148684
 30
0.0
 11
125.4066825716188
 21
60.75886058625775
 31
0.0
  0
SPLINE
  5
14C
330
6C
100
AcDbEntity
  8
Visible (ISO)
100
AcDbSpline
210
0.0
220
0.0
230
1.0
 70
     8
 71
     3
 72
    14
 73
    10
 74
     0
 42
0.0000000001
 43
0.0000000001
 40
0.0979815127343829
 40
0.0979815127343829
 40
0.0979815127343829
 40
0.0979815127343829
 40
0.1506624850332004
 40
0.1506624850332004
 40
0.3013249700664007
 40
0.3013249700664007
 40
0.4554237426914714
 40
0.4554237426914714
 40
0.5051911393277391
 40
0.5051911393277391
 40
0.5051911393277391
 40
0.5051911393277391
 10
116.4882224957517
 20
55.00660583148686
 30
0.0
 10
116.4997016886012
 20
55.18551789102873
 30
0.0
 10
116.5142951353734
 20
55.36221418812541
 30
0.0
 10
116.5814193021728
 20
56.0240586146095
 30
0.0
 10
116.6550655448702
 20
56.47040646482452
 30
0.0
 10
116.8182763013384
 20
57.18254211706813
 30
0.0
 10
116.9192847360293
 20
57.49319214637965
 30
0.0
 10
117.0565282941044
 20
57.76574521419292
 30
0.0
 10
117.0903128463962
 20
57.82186781226528
 30
0.0
 10
117.1238202415143
 20
57.866959582994
 30
0.0
  0
ELLIPSE
  5
14D
330
6C
100
AcDbEntity
  8
Visible (ISO)
100
AcDbEllipse
 10
53.40668257161882
 20
61.35448026381125
 30
0.0
 11
-64.99999999999999
 21
-0.0000000000000034
 31
0.0
210
0.0
220
0.0
230
1.0
 40
0.2713992095570839
 41
2.942587086109377
 42
3.032609081529033
  0
SPLINE
  5
14E
330
6C
100
AcDbEntity
  8
Visible (ISO)
100
AcDbSpline
210
0.0
220
0.0
230
1.0
 70
     8
 71
     3
 72
    10
 73
     6
 74
     0
 42
0.0000000001
 43
0.0000000001
 40
5.578615183636051
 40
5.578615183636051
 40
5.578615183636051
 40
5.578615183636051
 40
6.021510703961547
 40
6.021510703961547
 40
6.267952460891861
 40
6.267952460891861
 40
6.267952460891861
 40
6.267952460891861
 10
118.0210483764908
 20
59.43571027766065
 30
0.0
 10
118.1793439765236
 20
59.8283481339196
 30
0.0
 10
118.2940794003552
 20
60.15773930862065
 30
0.0
 10
118.3891893487874
 20
60.5505123998454
 30
0.0
 10
118.4066825716188
 20
60.66722357628832
 30
0.0
 10
118.4066825716188
 20
60.75886058625777
 30
0.0
  0
LINE
  5
14F
330
6C
100
AcDbEntity
  8
Visible (ISO)
100
AcDbLine
 10
127.3251426474859
 20
55.00660583148686
 30
0.0
 11
124.5047587829721
 21
55.00660583148686
 31
0.0
  0
SPLINE
  5
150
330
6C
100
AcDbEntity
  8
Visible (ISO)
100
AcDbSpline
210
0.0
220
0.0
230
1.0
 70
     8
 71
     3
 72
    14
 73
    10
 74
     0
 42
0.0000000001
 43
0.0000000001
 40
1.926793397172414
 40
1.926793397172414
 40
1.926793397172414
 40
1.926793397172414
 40
1.976560793808679
 40
1.976560793808679
 40
2.130659566433751
 40
2.130659566433751
 40
2.28132205146695
 40
2.28132205146695
 40
2.334003023765768
 40
2.334003023765768
 40
2.334003023765768
 40
2.334003023765768
 10
126.6895449017233
 20
57.866959582994
 30
0.0
 10
126.7230522968414
 20
57.82186781226528
 30
0.0
 10
126.7568368491332
 20
57.76574521419292
 30
0.0
 10
126.8940804072083
 20
57.49319214637965
 30
0.0
 10
126.9950888418992
 20
57.18254211706813
 30
0.0
 10
127.1582995983674
 20
56.47040646482452
 30
0.0
 10
127.2319458410648
 20
56.0240586146095
 30
0.0
 10
127.2990700078642
 20
55.36221418812541
 30
0.0
 10
127.3136634546364
 20
55.18551789102873
 30
0.0
 10
127.3251426474859
 20
55.00660583148686
 30
0.0
  0
LINE
  5
151
330
6C
100
AcDbEntity
  8
Visible Narrow (ISO)
100
AcDbLine
 10
126.6895449017233
 20
57.866959582994
 30
0.0
 11
117.1238202415143
 21
57.866959582994
 31
0.0
  0
LINE
  5
152
330
6C
100
AcDbEntity
  8
Visible (ISO)
100
AcDbLine
 10
119.3086063602655
 20
55.00660583148686
 30
0.0
 11
116.4882224957517
 21
55.00660583148686
 31
0.0
  0
ELLIPSE
  5
153
330
6C
100
AcDbEntity
  8
Visible (ISO)
100
AcDbEllipse
 10
190.4066825716188
 20
61.35448026381125
 30
0.0
 11
64.99999999999999
 21
-0.0000000000000022
 31
0.0
210
0.0
220
0.0
230
1.0
 40
0.2713992095570839
 41
3.250576225650544
 42
3.340598221070201
  0
LINE
  5
154
330
6C
100
AcDbEntity
  8
Visible Narrow (ISO)
100
AcDbLine
 10
125.7923167667468
 20
59.43571027766065
 30
0.0
 11
118.0210483764908
 21
59.43571027766065
 31
0.0
  0
SPLINE
  5
155
330
6C
100
AcDbEntity
  8
Visible (ISO)
100
AcDbSpline
210
0.0
220
0.0
230
1.0
 70
     8
 71
     3
 72
    10
 73
     6
 74
     0
 42
0.0000000001
 43
0.0000000001
 40
4.585290746366443
 40
4.585290746366443
 40
4.585290746366443
 40
4.585290746366443
 40
4.831732503296846
 40
4.831732503296846
 40
5.274628023622251
 40
5.274628023622251
 40
5.274628023622251
 40
5.274628023622251
 10
125.4066825716188
 20
60.75886058625777
 30
0.0
 10
125.4066825716188
 20
60.66722357628828
 30
0.0
 10
125.4241757944502
 20
60.55051239984532
 30
0.0
 10
125.5192857428825
 20
60.15773930862053
 30
0.0
 10
125.634021166714
 20
59.82834813391953
 30
0.0
 10
125.7923167667468
 20
59.43571027766065
 30
0.0
  0
LINE
  5
156
330
6C
100
AcDbEntity
  8
Visible (ISO)
100
AcDbLine
 10
118.4066825716188
 20
60.75886058625777
 30
0.0
 11
118.4066825716188
 21
61.00660583148684
 31
0.0
  0
LINE
  5
157
330
6C
100
AcDbEntity
  8
Visible (ISO)
100
AcDbLine
 10
125.4066825716188
 20
66.00660583148682
 30
0.0
 11
125.4066825716188
 21
73.00660583148682
 31
0.0
  0
SPLINE
  5
158
330
6C
100
AcDbEntity
  8
Visible (ISO)
100
AcDbSpline
210
0.0
220
0.0
230
1.0
 70
     8
 71
     3
 72
    10
 73
     6
 74
     0
 42
0.0000000001
 43
0.0000000001
 40
1.75851045369192
 40
1.75851045369192
 40
1.75851045369192
 40
1.75851045369192
 40
1.769985036102441
 40
1.769985036102441
 40
1.77528265148158
 40
1.77528265148158
 40
1.77528265148158
 40
1.77528265148158
 10
128.566404793841
 20
55.0066058314869
 30
0.0
 10
128.5781850659594
 20
55.0066058314869
 30
0.0
 10
128.5899690939708
 20
55.01289459808946
 30
0.0
 10
128.6067358369841
 20
55.03016184990912
 30
0.0
 10
128.6119659554385
 20
55.03678557980407
 30
0.0
 10
128.6171062059716
 20
55.04442275528685
 30
0.0
  0
LINE
  5
159
330
6C
100
AcDbEntity
  8
Visible (ISO)
100
AcDbLine
 10
128.6148865041182
 20
55.00660583148686
 30
0.0
 11
128.5664047938417
 21
55.00660583148686
 31
0.0
  0
SPLINE
  5
15A
330
6C
100
AcDbEntity
  8
Visible (ISO)
100
AcDbSpline
210
0.0
220
0.0
230
1.0
 70
     8
 71
     3
 72
     8
 73
     4
 74
     0
 42
0.0000000001
 43
0.0000000001
 40
-0.0038487373741095
 40
-0.0038487373741095
 40
-0.0038487373741095
 40
-0.0038487373741095
 40
0.0
 40
0.0
 40
0.0
 40
0.0
 10
128.6171062059716
 20
55.04442275528681
 30
0.0
 10
128.6163663107074
 20
55.03181703508559
 30
0.0
 10
128.6156264100399
 20
55.01921139291827
 30
0.0
 10
128.6148865041182
 20
55.00660583148686
 30
0.0
  0
SPLINE
  5
15B
330
6C
100
AcDbEntity
  8
Visible (ISO)
100
AcDbSpline
210
0.0
220
0.0
230
1.0
 70
     8
 71
     3
 72
    10
 73
     6
 74
     0
 42
0.0000000001
 43
0.0000000001
 40
1.741738255902264
 40
1.741738255902264
 40
1.741738255902264
 40
1.741738255902264
 40
1.7470358712814
 40
1.7470358712814
 40
1.758510453691921
 40
1.758510453691921
 40
1.758510453691921
 40
1.758510453691921
 10
115.196258937266
 20
55.04442275528685
 30
0.0
 10
115.2013991877991
 20
55.03678557980406
 30
0.0
 10
115.2066293062535
 20
55.03016184990899
 30
0.0
 10
115.2233960492669
 20
55.01289459808933
 30
0.0
 10
115.2351800772782
 20
55.00660583148686
 30
0.0
 10
115.2469603493966
 20
55.00660583148685
 30
0.0
  0
SPLINE
  5
15C
330
6C
100
AcDbEntity
  8
Visible (ISO)
100
AcDbSpline
210
0.0
220
0.0
230
1.0
 70
     8
 71
     3
 72
     8
 73
     4
 74
     0
 42
0.0000000001
 43
0.0000000001
 40
-0.0038487374224739
 40
-0.0038487374224739
 40
-0.0038487374224739
 40
-0.0038487374224739
 40
0.0
 40
0.0
 40
0.0
 40
0.0
 10
115.1984786391194
 20
55.00660583148686
 30
0.0
 10
115.1977387331944
 20
55.01921139297433
 30
0.0
 10
115.1969988325237
 20
55.03181703519793
 30
0.0
 10
115.196258937266
 20
55.04442275528681
 30
0.0
  0
LINE
  5
15D
330
6C
100
AcDbEntity
  8
Visible (ISO)
100
AcDbLine
 10
115.2469603493966
 20
55.00660583148686
 30
0.0
 11
115.1984786391198
 21
55.00660583148686
 31
0.0
  0
SPLINE
  5
15E
330
6C
100
AcDbEntity
  8
Visible (ISO)
100
AcDbSpline
210
0.0
220
0.0
230
1.0
 70
     8
 71
     3
 72
    22
 73
    18
 74
     0
 42
0.0000000001
 43
0.0000000001
 40
1.758510453691921
 40
1.758510453691921
 40
1.758510453691921
 40
1.758510453691921
 40
1.769985036102444
 40
1.769985036102444
 40
1.781459618512965
 40
1.781459618512965
 40
1.804408783334004
 40
1.804408783334004
 40
1.879967807849264
 40
1.879967807849264
 40
1.955526832364521
 40
1.955526832364521
 40
2.150713591741938
 40
2.150713591741938
 40
2.345900351119353
 40
2.345900351119353
 40
2.573780108621498
 40
2.573780108621498
 40
2.573780108621498
 40
2.573780108621498
 10
115.2469603493966
 20
55.00660583148685
 30
0.0
 10
115.258740621515
 20
55.00660583148685
 30
0.0
 10
115.2704592139606
 20
55.01289459808969
 30
0.0
 10
115.2931550258911
 20
55.03652113845046
 30
0.0
 10
115.3041332228113
 20
55.0538494454603
 30
0.0
 10
115.3353196119193
 20
55.11730214655972
 30
0.0
 10
115.3538360571216
 20
55.17503843369857
 30
0.0
 10
115.4197400359578
 20
55.42047049235904
 30
0.0
 10
115.4566772390253
 20
55.6613173257296
 30
0.0
 10
115.5225600892493
 20
56.16027320367305
 30
0.0
 10
115.5501373035237
 20
56.42033621504793
 30
0.0
 10
115.6329981386645
 20
57.27705814677022
 30
0.0
 10
115.6796190847733
 20
57.91894692297706
 30
0.0
 10
115.7647272407672
 20
59.2316352496145
 30
0.0
 10
115.8023830153409
 20
59.90304620651893
 30
0.0
 10
115.8782496746832
 20
61.38057214904695
 30
0.0
 10
115.9153736695159
 20
62.19018194149754
 30
0.0
 10
115.9500954462453
 20
63.00660583148681
 30
0.0
  0
LINE
  5
15F
330
6C
100
AcDbEntity
  8
Visible (ISO)
100
AcDbLine
 10
116.4882224957517
 20
55.00660583148686
 30
0.0
 11
115.2469603493966
 21
55.00660583148686
 31
0.0
  0
LINE
  5
160
330
6C
100
AcDbEntity
  8
Visible (ISO)
100
AcDbLine
 10
115.729934730963
 20
64.00134940947747
 30
0.0
 11
118.4066825716188
 21
64.00134940947747
 31
0.0
  0
SPLINE
  5
161
330
6C
100
AcDbEntity
  8
Visible (ISO)
100
AcDbSpline
210
0.0
220
0.0
230
1.0
 70
     8
 71
     3
 72
    10
 73
     6
 74
     0
 42
0.0000000001
 43
0.0000000001
 40
1.026679612955202
 40
1.026679612955202
 40
1.026679612955202
 40
1.026679612955202
 40
1.0549869503969
 40
1.0549869503969
 40
1.150372975748467
 40
1.150372975748467
 40
1.150372975748467
 40
1.150372975748467
 10
115.9500954462453
 20
63.00660583148681
 30
0.0
 10
115.9356090640416
 20
63.08521109103184
 30
0.0
 10
115.9208164223225
 20
63.16285941687306
 30
0.0
 10
115.8546418904513
 20
63.49749263979076
 30
0.0
 10
115.795984697683
 20
63.76214254498762
 30
0.0
 10
115.729934730963
 20
64.00134940947747
 30
0.0
  0
SPLINE
  5
162
330
6C
100
AcDbEntity
  8
Visible (ISO)
100
AcDbSpline
210
0.0
220
0.0
230
1.0
 70
     8
 71
     3
 72
    22
 73
    18
 74
     0
 42
0.0000000001
 43
0.0000000001
 40
0.9432407987623507
 40
0.9432407987623507
 40
0.9432407987623507
 40
0.9432407987623507
 40
1.171120556264495
 40
1.171120556264495
 40
1.366307315641912
 40
1.366307315641912
 40
1.561494075019328
 40
1.561494075019328
 40
1.637053099534583
 40
1.637053099534583
 40
1.712612124049838
 40
1.712612124049838
 40
1.735561288870879
 40
1.735561288870879
 40
1.7470358712814
 40
1.7470358712814
 40
1.75851045369192
 40
1.75851045369192
 40
1.75851045369192
 40
1.75851045369192
 10
127.8632696969924
 20
63.00660583148681
 30
0.0
 10
127.8979914737217
 20
62.19018194149754
 30
0.0
 10
127.9351154685544
 20
61.38057214904693
 30
0.0
 10
128.0109821278967
 20
59.9030462065189
 30
0.0
 10
128.0486379024704
 20
59.2316352496145
 30
0.0
 10
128.1337460584643
 20
57.91894692297706
 30
0.0
 10
128.1803670045731
 20
57.2770581467702
 30
0.0
 10
128.2632278397139
 20
56.42033621504793
 30
0.0
 10
128.2908050539884
 20
56.16027320367305
 30
0.0
 10
128.3566879042123
 20
55.66131732572963
 30
0.0
 10
128.3936251072798
 20
55.42047049235907
 30
0.0
 10
128.459529086116
 20
55.17503843369862
 30
0.0
 10
128.4780455313183
 20
55.11730214655972
 30
0.0
 10
128.5092319204263
 20
55.0538494454603
 30
0.0
 10
128.5202101173465
 20
55.03652113845043
 30
0.0
 10
128.542905929277
 20
55.01289459808964
 30
0.0
 10
128.5546245217227
 20
55.0066058314869
 30
0.0
 10
128.566404793841
 20
55.0066058314869
 30
0.0
  0
SPLINE
  5
163
330
6C
100
AcDbEntity
  8
Visible (ISO)
100
AcDbSpline
210
0.0
220
0.0
230
1.0
 70
     8
 71
     3
 72
    10
 73
     6
 74
     0
 42
0.0000000001
 43
0.0000000001
 40
1.5278493950117
 40
1.5278493950117
 40
1.5278493950117
 40
1.5278493950117
 40
1.623235420363269
 40
1.623235420363269
 40
1.651542757804969
 40
1.651542757804969
 40
1.651542757804969
 40
1.651542757804969
 10
128.0834304122747
 20
64.00134940947747
 30
0.0
 10
128.0173804455546
 20
63.76214254498762
 30
0.0
 10
127.9587232527863
 20
63.49749263979077
 30
0.0
 10
127.8925487209151
 20
63.16285941687308
 30
0.0
 10
127.877756079196
 20
63.08521109103184
 30
0.0
 10
127.8632696969924
 20
63.00660583148681
 30
0.0
  0
LINE
  5
164
330
6C
100
AcDbEntity
  8
Visible (ISO)
100
AcDbLine
 10
125.4066825716188
 20
64.00134940947747
 30
0.0
 11
128.0834304122747
 21
64.00134940947747
 31
0.0
  0
LINE
  5
165
330
6C
100
AcDbEntity
  8
Visible (ISO)
100
AcDbLine
 10
128.5664047938411
 20
55.00660583148686
 30
0.0
 11
127.3251426474859
 21
55.00660583148686
 31
0.0
  0
LINE
  5
166
330
6C
100
AcDbEntity
  8
Visible (ISO)
100
AcDbLine
 10
118.4066825716188
 20
66.00660583148682
 30
0.0
 11
118.4066825716188
 21
73.00660583148682
 31
0.0
  0
SPLINE
  5
167
330
6C
100
AcDbEntity
  8
Visible (ISO)
100
AcDbSpline
210
0.0
220
0.0
230
1.0
 70
     8
 71
     3
 72
    22
 73
    18
 74
     0
 42
0.0000000001
 43
0.0000000001
 40
0.080169667649563
 40
0.080169667649563
 40
0.080169667649563
 40
0.080169667649563
 40
0.1449225509834109
 40
0.1449225509834109
 40
0.2230755465214004
 40
0.2230755465214004
 40
0.2985369780978444
 40
0.2985369780978444
 40
0.3739984096742883
 40
0.3739984096742883
 40
0.4494598412507325
 40
0.4494598412507325
 40
0.5249212728271763
 40
0.5249212728271763
 40
0.6030742683651658
 40
0.6030742683651658
 40
0.6678271516990139
 40
0.6678271516990139
 40
0.6678271516990139
 40
0.6678271516990139
 10
119.3086063602655
 20
55.00660583148686
 30
0.0
 10
119.4069844971954
 20
55.20558238609178
 30
0.0
 10
119.5448787543512
 20
55.38269715612771
 30
0.0
 10
119.8783756441695
 20
55.69736397334839
 30
0.0
 10
120.1334756538721
 20
55.85824418475177
 30
0.0
 10
120.5895045730638
 20
56.06141005751499
 30
0.0
 10
120.8479911057791
 20
56.14045167439911
 30
0.0
 10
121.3808418058079
 20
56.24144809305981
 30
0.0
 10
121.655144466364
 20
56.26382717900177
 30
0.0
 10
122.1582206768736
 20
56.26382717900177
 30
0.0
 10
122.4325233374297
 20
56.24144809305981
 30
0.0
 10
122.9653740374585
 20
56.14045167439911
 30
0.0
 10
123.2238605701739
 20
56.06141005751499
 30
0.0
 10
123.6798894893655
 20
55.85824418475177
 30
0.0
 10
123.9349894990681
 20
55.69736397334839
 30
0.0
 10
124.2684863888865
 20
55.38269715612771
 30
0.0
 10
124.4063806460422
 20
55.20558238609178
 30
0.0
 10
124.5047587829721
 20
55.00660583148686
 30
0.0
  0
LINE
  5
168
330
6C
100
AcDbEntity
  8
Visible (ISO)
100
AcDbLine
 10
119.3086063602655
 20
55.00660583148686
 30
0.0
 11
124.5047587829722
 21
55.00660583148686
 31
0.0
  0
LINE
  5
169
330
6C
100
AcDbEntity
  8
Visible (ISO)
100
AcDbLine
 10
114.9066825716188
 20
55.00660583148686
 30
0.0
 11
115.1984786391194
 21
55.00660583148686
 31
0.0
  0
LINE
  5
16A
330
6C
100
AcDbEntity
  8
Visible (ISO)
100
AcDbLine
 10
128.6148865041182
 20
55.00660583148686
 30
0.0
 11
128.9066825716188
 21
55.00660583148686
 31
0.0
  0
LINE
  5
16B
330
6C
100
AcDbEntity
  8
Visible (ISO)
100
AcDbLine
 10
116.4066825716188
 20
71.00660583148682
 30
0.0
 11
118.4066825716188
 21
71.00660583148682
 31
0.0
  0
LINE
  5
16C
330
6C
100
AcDbEntity
  8
Visible (ISO)
100
AcDbLine
 10
125.4066825716188
 20
71.00660583148682
 30
0.0
 11
127.4066825716188
 21
71.00660583148682
 31
0.0
  0
LINE
  5
16D
330
6C
100
AcDbEntity
  8
Visible (ISO)
100
AcDbLine
 10
114.4566825716188
 20
63.00660583148681
 30
0.0
 11
115.9500954462453
 21
63.00660583148681
 31
0.0
  0
LINE
  5
16E
330
6C
100
AcDbEntity
  8
Visible (ISO)
100
AcDbLine
 10
127.8632696969924
 20
63.00660583148681
 30
0.0
 11
129.3566825716188
 21
63.00660583148681
 31
0.0
  0
LINE
  5
16F
330
6C
100
AcDbEntity
  8
Visible (ISO)
100
AcDbLine
 10
127.4066825716188
 20
71.00660583148682
 30
0.0
 11
129.3566825716188
 21
63.00660583148681
 31
0.0
  0
LINE
  5
170
330
6C
100
AcDbEntity
  8
Visible (ISO)
100
AcDbLine
 10
116.4066825716188
 20
71.00660583148682
 30
0.0
 11
114.4566825716188
 21
63.00660583148681
 31
0.0
  0
LINE
  5
171
330
6C
100
AcDbEntity
  8
Visible (ISO)
100
AcDbLine
 10
114.9066825716188
 20
55.00660583148686
 30
0.0
 11
114.4566825716188
 21
63.00660583148681
 31
0.0
  0
LINE
  5
172
330
6C
100
AcDbEntity
  8
Visible (ISO)
100
AcDbLine
 10
128.9066825716188
 20
55.00660583148686
 30
0.0
 11
129.3566825716188
 21
63.00660583148681
 31
0.0
  0
LINE
  5
173
330
6C
100
AcDbEntity
  8
Visible (ISO)
100
AcDbLine
 10
125.4066825716188
 20
71.80660583148682
 30
0.0
 11
126.9066825716188
 21
71.80660583148682
 31
0.0
  0
LINE
  5
174
330
6C
100
AcDbEntity
  8
Visible Narrow (ISO)
100
AcDbLine
 10
127.4066825716188
 20
71.30660583148682
 30
0.0
 11
125.4066825716188
 21
71.30660583148682
 31
0.0
  0
LINE
  5
175
330
6C
100
AcDbEntity
  8
Visible (ISO)
100
AcDbLine
 10
116.9066825716188
 20
71.80660583148682
 30
0.0
 11
118.4066825716188
 21
71.80660583148682
 31
0.0
  0
LINE
  5
176
330
6C
100
AcDbEntity
  8
Visible Narrow (ISO)
100
AcDbLine
 10
118.4066825716188
 20
71.30660583148682
 30
0.0
 11
116.4066825716188
 21
71.30660583148682
 31
0.0
  0
ARC
  5
177
330
6C
100
AcDbEntity
  8
Visible (ISO)
100
AcDbCircle
 10
126.9066825716188
 20
71.30660583148682
 30
0.0
 40
0.5
100
AcDbArc
 50
0.0
 51
90.0
  0
ARC
  5
178
330
6C
100
AcDbEntity
  8
Visible (ISO)
100
AcDbCircle
 10
116.9066825716188
 20
71.30660583148682
 30
0.0
 40
0.5
100
AcDbArc
 50
90.0
 51
180.0
  0
LINE
  5
179
330
6C
100
AcDbEntity
  8
Visible (ISO)
100
AcDbLine
 10
127.4066825716188
 20
71.00660583148682
 30
0.0
 11
125.4066825716188
 21
71.00660583148682
 31
0.0
  0
LINE
  5
17A
330
6C
100
AcDbEntity
  8
Visible (ISO)
100
AcDbLine
 10
118.4066825716188
 20
71.00660583148682
 30
0.0
 11
116.4066825716188
 21
71.00660583148682
 31
0.0
  0
LINE
  5
17B
330
6C
100
AcDbEntity
  8
Visible (ISO)
100
AcDbLine
 10
127.4066825716188
 20
71.30660583148682
 30
0.0
 11
127.4066825716188
 21
71.00660583148682
 31
0.0
  0
LINE
  5
17C
330
6C
100
AcDbEntity
  8
Visible (ISO)
100
AcDbLine
 10
116.4066825716188
 20
71.30660583148682
 30
0.0
 11
116.4066825716188
 21
71.00660583148682
 31
0.0
  0
SPLINE
  5
17D
330
6C
100
AcDbEntity
  8
Visible (ISO)
100
AcDbSpline
210
0.0
220
0.0
230
1.0
 70
    12
 71
     2
 72
     6
 73
     3
 74
     0
 42
0.0000000001
 43
0.0000000001
 40
0.2934711240705181
 40
0.2934711240705181
 40
0.2934711240705181
 40
0.8365524254088843
 40
0.8365524254088843
 40
0.8365524254088843
 10
109.647493193064
 20
39.599128543375
 30
0.0
 41
1.041636008661481
 10
110.4066825716188
 20
42.22903769582213
 30
0.0
 41
1.05934264255201
 10
110.4066825716188
 20
44.50660583148681
 30
0.0
 41
1.0
  0
SPLINE
  5
17E
330
6C
100
AcDbEntity
  8
Visible (ISO)
100
AcDbSpline
210
0.0
220
0.0
230
1.0
 70
    12
 71
     2
 72
     6
 73
     3
 74
     0
 42
0.0000000001
 43
0.0000000001
 40
0.836552425408885
 40
0.836552425408885
 40
0.836552425408885
 40
1.379633726747249
 40
1.379633726747249
 40
1.379633726747249
 10
110.4066825716188
 20
37.1453898993191
 30
0.0
 41
1.0
 10
110.4066825716188
 20
38.28417396715142
 30
0.0
 41
1.059342642551996
 10
109.647493193064
 20
39.599128543375
 30
0.0
 41
1.041636008661469
  0
LINE
  5
17F
330
6C
100
AcDbEntity
  8
Visible (ISO)
100
AcDbLine
 10
110.4066825716188
 20
37.1453898993191
 30
0.0
 11
110.4066825716188
 21
44.50660583148681
 31
0.0
  0
SPLINE
  5
180
330
6C
100
AcDbEntity
  8
Visible (ISO)
100
AcDbSpline
210
0.0
220
0.0
230
1.0
 70
    12
 71
     2
 72
     6
 73
     3
 74
     0
 42
0.0000000001
 43
0.0000000001
 40
0.2934711240705192
 40
0.2934711240705192
 40
0.2934711240705192
 40
0.836552425408885
 40
0.836552425408885
 40
0.836552425408885
 10
109.647493193064
 20
49.41408311959865
 30
0.0
 41
1.041636008661477
 10
110.4066825716188
 20
50.72903769582222
 30
0.0
 41
1.059342642552006
 10
110.4066825716188
 20
51.86782176365457
 30
0.0
 41
1.0
  0
SPLINE
  5
181
330
6C
100
AcDbEntity
  8
Visible (ISO)
100
AcDbSpline
210
0.0
220
0.0
230
1.0
 70
    12
 71
     2
 72
     6
 73
     3
 74
     0
 42
0.0000000001
 43
0.0000000001
 40
0.8365524254088843
 40
0.8365524254088843
 40
0.8365524254088843
 40
1.379633726747249
 40
1.379633726747249
 40
1.379633726747249
 10
110.4066825716188
 20
44.50660583148681
 30
0.0
 41
1.0
 10
110.4066825716188
 20
46.7841739671515
 30
0.0
 41
1.059342642552006
 10
109.647493193064
 20
49.41408311959865
 30
0.0
 41
1.041636008661477
  0
LINE
  5
182
330
6C
100
AcDbEntity
  8
Visible (ISO)
100
AcDbLine
 10
110.4066825716188
 20
44.50660583148681
 30
0.0
 11
110.4066825716188
 21
51.86782176365457
 31
0.0
  0
SPLINE
  5
183
330
6C
100
AcDbEntity
  8
Visible (ISO)
100
AcDbSpline
210
0.0
220
0.0
230
1.0
 70
    12
 71
     2
 72
     6
 73
     3
 74
     0
 42
0.0000000001
 43
0.0000000001
 40
0.836552425408885
 40
0.836552425408885
 40
0.836552425408885
 40
1.37963372674725
 40
1.37963372674725
 40
1.37963372674725
 10
110.4066825716188
 20
51.86782176365457
 30
0.0
 41
1.0
 10
110.4066825716188
 20
53.0066058314869
 30
0.0
 41
1.059342642552004
 10
109.647493193064
 20
54.32156040771046
 30
0.0
 41
1.041636008661477
  0
LINE
  5
184
330
6C
100
AcDbEntity
  8
Visible (ISO)
100
AcDbLine
 10
110.4066825716188
 20
51.86782176365458
 30
0.0
 11
110.4066825716188
 21
53.00660583148681
 31
0.0
  0
LINE
  5
185
330
6C
100
AcDbEntity
  8
Visible (ISO)
100
AcDbLine
 10
110.4066825716188
 20
36.00660583148683
 30
0.0
 11
110.4066825716188
 21
37.1453898993191
 31
0.0
  0
SPLINE
  5
186
330
6C
100
AcDbEntity
  8
Visible (ISO)
100
AcDbSpline
210
0.0
220
0.0
230
1.0
 70
    12
 71
     2
 72
     6
 73
     3
 74
     0
 42
0.0000000001
 43
0.0000000001
 40
0.2934711240705199
 40
0.2934711240705199
 40
0.2934711240705199
 40
0.836552425408885
 40
0.836552425408885
 40
0.836552425408885
 10
109.647493193064
 20
34.69165125526318
 30
0.0
 41
1.041636008661475
 10
110.4066825716188
 20
36.00660583148675
 30
0.0
 41
1.059342642552002
 10
110.4066825716188
 20
37.1453898993191
 30
0.0
 41
1.0
  0
LINE
  5
187
330
6C
100
AcDbEntity
  8
Visible (ISO)
100
AcDbLine
 10
110.4066825716188
 20
53.00660583148681
 30
0.0
 11
109.647493193064
 21
54.32156040771046
 31
0.0
  0
LINE
  5
188
330
6C
100
AcDbEntity
  8
Visible (ISO)
100
AcDbLine
 10
110.4066825716188
 20
36.00660583148683
 30
0.0
 11
109.647493193064
 21
34.69165125526318
 31
0.0
  0
LINE
  5
189
330
6C
100
AcDbEntity
  8
Visible (ISO)
100
AcDbLine
 10
98.16587195017369
 20
54.32156040771046
 30
0.0
 11
109.647493193064
 21
54.32156040771046
 31
0.0
  0
LINE
  5
18A
330
6C
100
AcDbEntity
  8
Visible (ISO)
100
AcDbLine
 10
98.16587195017369
 20
34.69165125526318
 30
0.0
 11
109.647493193064
 21
34.69165125526318
 31
0.0
  0
LINE
  5
18B
330
6C
100
AcDbEntity
  8
Visible (ISO)
100
AcDbLine
 10
98.16587195017369
 20
49.41408311959865
 30
0.0
 11
109.647493193064
 21
49.41408311959865
 31
0.0
  0
LINE
  5
18C
330
6C
100
AcDbEntity
  8
Visible (ISO)
100
AcDbLine
 10
98.16587195017369
 20
39.599128543375
 30
0.0
 11
109.647493193064
 21
39.599128543375
 31
0.0
  0
LINE
  5
18D
330
6C
100
AcDbEntity
  8
Visible (ISO)
100
AcDbLine
 10
97.40668257161885
 20
53.00660583148681
 30
0.0
 11
97.40668257161885
 21
51.86782176365454
 31
0.0
  0
SPLINE
  5
18E
330
6C
100
AcDbEntity
  8
Visible (ISO)
100
AcDbSpline
210
0.0
220
0.0
230
1.0
 70
    12
 71
     2
 72
     6
 73
     3
 74
     0
 42
0.0000000001
 43
0.0000000001
 40
0.2934711240705224
 40
0.2934711240705224
 40
0.2934711240705224
 40
0.836552425408885
 40
0.836552425408885
 40
0.836552425408885
 10
98.16587195017369
 20
54.32156040771046
 30
0.0
 41
1.041636008661464
 10
97.40668257161889
 20
53.00660583148689
 30
0.0
 41
1.059342642551986
 10
97.40668257161885
 20
51.86782176365457
 30
0.0
 41
1.0
  0
SPLINE
  5
18F
330
6C
100
AcDbEntity
  8
Visible (ISO)
100
AcDbSpline
210
0.0
220
0.0
230
1.0
 70
    12
 71
     2
 72
     6
 73
     3
 74
     0
 42
0.0000000001
 43
0.0000000001
 40
0.836552425408885
 40
0.836552425408885
 40
0.836552425408885
 40
1.379633726747248
 40
1.379633726747248
 40
1.379633726747248
 10
97.40668257161885
 20
51.86782176365457
 30
0.0
 41
1.0
 10
97.40668257161889
 20
50.72903769582222
 30
0.0
 41
1.059342642551986
 10
98.16587195017369
 20
49.41408311959865
 30
0.0
 41
1.041636008661464
  0
LINE
  5
190
330
6C
100
AcDbEntity
  8
Visible (ISO)
100
AcDbLine
 10
97.40668257161885
 20
51.86782176365454
 30
0.0
 11
97.40668257161885
 21
44.50660583148681
 31
0.0
  0
SPLINE
  5
191
330
6C
100
AcDbEntity
  8
Visible (ISO)
100
AcDbSpline
210
0.0
220
0.0
230
1.0
 70
    12
 71
     2
 72
     6
 73
     3
 74
     0
 42
0.0000000001
 43
0.0000000001
 40
0.2934711240705217
 40
0.2934711240705217
 40
0.2934711240705217
 40
0.836552425408885
 40
0.836552425408885
 40
0.836552425408885
 10
98.16587195017369
 20
49.41408311959865
 30
0.0
 41
1.041636008661465
 10
97.40668257161892
 20
46.78417396715149
 30
0.0
 41
1.05934264255199
 10
97.40668257161885
 20
44.50660583148681
 30
0.0
 41
1.0
  0
SPLINE
  5
192
330
6C
100
AcDbEntity
  8
Visible (ISO)
100
AcDbSpline
210
0.0
220
0.0
230
1.0
 70
    12
 71
     2
 72
     6
 73
     3
 74
     0
 42
0.0000000001
 43
0.0000000001
 40
0.836552425408885
 40
0.836552425408885
 40
0.836552425408885
 40
1.379633726747248
 40
1.379633726747248
 40
1.379633726747248
 10
97.40668257161885
 20
44.50660583148681
 30
0.0
 41
1.0
 10
97.40668257161889
 20
42.22903769582216
 30
0.0
 41
1.05934264255199
 10
98.16587195017369
 20
39.59912854337499
 30
0.0
 41
1.041636008661465
  0
LINE
  5
193
330
6C
100
AcDbEntity
  8
Visible (ISO)
100
AcDbLine
 10
97.40668257161885
 20
44.50660583148681
 30
0.0
 11
97.40668257161885
 21
37.1453898993191
 31
0.0
  0
SPLINE
  5
194
330
6C
100
AcDbEntity
  8
Visible (ISO)
100
AcDbSpline
210
0.0
220
0.0
230
1.0
 70
    12
 71
     2
 72
     6
 73
     3
 74
     0
 42
0.0000000001
 43
0.0000000001
 40
0.2934711240705221
 40
0.2934711240705221
 40
0.2934711240705221
 40
0.8365524254088846
 40
0.8365524254088846
 40
0.8365524254088846
 10
98.16587195017369
 20
39.599128543375
 30
0.0
 41
1.041636008661461
 10
97.40668257161889
 20
38.28417396715142
 30
0.0
 41
1.059342642551984
 10
97.40668257161885
 20
37.1453898993191
 30
0.0
 41
1.0
  0
SPLINE
  5
195
330
6C
100
AcDbEntity
  8
Visible (ISO)
100
AcDbSpline
210
0.0
220
0.0
230
1.0
 70
    12
 71
     2
 72
     6
 73
     3
 74
     0
 42
0.0000000001
 43
0.0000000001
 40
0.8365524254088846
 40
0.8365524254088846
 40
0.8365524254088846
 40
1.379633726747245
 40
1.379633726747245
 40
1.379633726747245
 10
97.40668257161885
 20
37.1453898993191
 30
0.0
 41
1.0
 10
97.40668257161889
 20
36.00660583148675
 30
0.0
 41
1.059342642551986
 10
98.16587195017369
 20
34.69165125526318
 30
0.0
 41
1.041636008661464
  0
LINE
  5
196
330
6C
100
AcDbEntity
  8
Visible (ISO)
100
AcDbLine
 10
97.40668257161885
 20
37.1453898993191
 30
0.0
 11
97.40668257161885
 21
36.00660583148683
 31
0.0
  0
LINE
  5
197
330
6C
100
AcDbEntity
  8
Visible (ISO)
100
AcDbLine
 10
97.40668257161885
 20
53.00660583148681
 30
0.0
 11
98.16587195017369
 21
54.32156040771046
 31
0.0
  0
LINE
  5
198
330
6C
100
AcDbEntity
  8
Visible (ISO)
100
AcDbLine
 10
97.40668257161885
 20
36.00660583148683
 30
0.0
 11
98.16587195017369
 21
34.69165125526318
 31
0.0
  0
SPLINE
  5
199
330
6C
100
AcDbEntity
  8
Visible (ISO)
100
AcDbSpline
210
0.0
220
0.0
230
1.0
 70
    28
 71
     2
 72
     6
 73
     3
 74
     0
 42
0.0000000001
 43
0.0000000001
 40
1.095568088175594
 40
1.095568088175594
 40
1.095568088175594
 40
1.379633726747245
 40
1.379633726747245
 40
1.379633726747245
 10
124.1842507072833
 20
36.00660583148684
 30
0.0
 41
1.039079097512447
 10
123.107567096958
 20
35.38498225923344
 30
0.0
 41
1.050897690569257
 10
121.9066825716188
 20
34.6916512552632
 30
0.0
 41
1.041636008661464
  0
SPLINE
  5
19A
330
6C
100
AcDbEntity
  8
Visible (ISO)
100
AcDbSpline
210
0.0
220
0.0
230
1.0
 70
    28
 71
     2
 72
     6
 73
     3
 74
     0
 42
0.0000000001
 43
0.0000000001
 40
0.2934711240705221
 40
0.2934711240705221
 40
0.2934711240705221
 40
0.5775367626421756
 40
0.5775367626421756
 40
0.5775367626421756
 10
121.9066825716188
 20
34.6916512552632
 30
0.0
 41
1.041636008661464
 10
120.7057980462796
 20
35.38498225923343
 30
0.0
 41
1.050897690569255
 10
119.6291144359542
 20
36.00660583148684
 30
0.0
 41
1.039079097512447
  0
LINE
  5
19B
330
6C
100
AcDbEntity
  8
Visible (ISO)
100
AcDbLine
 10
145.906682571667
 20
118.8818680996864
 30
0.0
 11
145.906682571667
 21
135.3818680996864
 31
0.0
  0
LINE
  5
19C
330
6C
100
AcDbEntity
  8
Visible (ISO)
100
AcDbLine
 10
146.406682571667
 20
134.8818680996864
 30
0.0
 11
146.406682571667
 21
119.3818680996864
 31
0.0
  0
LINE
  5
19D
330
6C
100
AcDbEntity
  8
Visible (ISO)
100
AcDbLine
 10
146.406682571667
 20
119.3818680996864
 30
0.0
 11
145.906682571667
 21
118.8818680996864
 31
0.0
  0
LINE
  5
19E
330
6C
100
AcDbEntity
  8
Visible (ISO)
100
AcDbLine
 10
146.406682571667
 20
134.8818680996864
 30
0.0
 11
145.906682571667
 21
135.3818680996864
 31
0.0
  0
SPLINE
  5
19F
330
6C
100
AcDbEntity
  8
Visible (ISO)
100
AcDbSpline
210
0.0
220
0.0
230
1.0
 70
    12
 71
     2
 72
     6
 73
     3
 74
     0
 42
0.0000000001
 43
0.0000000001
 40
0.4256073096284686
 40
0.4256073096284686
 40
0.4256073096284686
 40
0.8365524254088844
 40
0.8365524254088844
 40
0.8365524254088844
 10
132.9736698697747
 20
119.7220619347469
 30
0.0
 41
1.045691116018839
 10
133.406682571667
 20
121.368721485491
 30
0.0
 41
1.044904085362823
 10
133.406682571667
 20
122.8818680996886
 30
0.0
 41
1.0
  0
SPLINE
  5
1A0
330
6C
100
AcDbEntity
  8
Visible (ISO)
100
AcDbSpline
210
0.0
220
0.0
230
1.0
 70
    12
 71
     2
 72
     6
 73
     3
 74
     0
 42
0.0000000001
 43
0.0000000001
 40
0.4256073096284702
 40
0.4256073096284702
 40
0.4256073096284702
 40
0.8365524254088839
 40
0.8365524254088839
 40
0.8365524254088839
 10
132.9736698697747
 20
128.222061934748
 30
0.0
 41
1.04569111601883
 10
133.406682571667
 20
129.8687214854917
 30
0.0
 41
1.044904085362817
 10
133.406682571667
 20
131.3818680996885
 30
0.0
 41
1.0
  0
LINE
  5
1A1
330
6C
100
AcDbEntity
  8
Visible (ISO)
100
AcDbLine
 10
132.9736698697747
 20
128.222061934748
 30
0.0
 11
132.9736698697747
 21
126.0416742646303
 31
0.0
  0
SPLINE
  5
1A2
330
6C
100
AcDbEntity
  8
Visible (ISO)
100
AcDbSpline
210
0.0
220
0.0
230
1.0
 70
    12
 71
     2
 72
     6
 73
     3
 74
     0
 42
0.0000000001
 43
0.0000000001
 40
0.8365524254088844
 40
0.8365524254088844
 40
0.8365524254088844
 40
1.2474975411893
 40
1.2474975411893
 40
1.2474975411893
 10
133.406682571667
 20
122.8818680996886
 30
0.0
 41
1.0
 10
133.406682571667
 20
124.395014713886
 30
0.0
 41
1.044904085362819
 10
132.9736698697747
 20
126.0416742646303
 30
0.0
 41
1.045691116018834
  0
SPLINE
  5
1A3
330
6C
100
AcDbEntity
  8
Visible (ISO)
100
AcDbSpline
210
0.0
220
0.0
230
1.0
 70
    12
 71
     2
 72
     6
 73
     3
 74
     0
 42
0.0000000001
 43
0.0000000001
 40
0.8365524254088839
 40
0.8365524254088839
 40
0.8365524254088839
 40
1.247497541189297
 40
1.247497541189297
 40
1.247497541189297
 10
133.406682571667
 20
131.3818680996885
 30
0.0
 41
1.0
 10
133.406682571667
 20
132.8950147138855
 30
0.0
 41
1.044904085362814
 10
132.9736698697747
 20
134.5416742646292
 30
0.0
 41
1.04569111601883
  0
LINE
  5
1A4
330
6C
100
AcDbEntity
  8
Visible (ISO)
100
AcDbLine
 10
128.3396952735592
 20
119.7220619347469
 30
0.0
 11
132.9736698697747
 21
119.7220619347469
 31
0.0
  0
LINE
  5
1A5
330
6C
100
AcDbEntity
  8
Visible (ISO)
100
AcDbLine
 10
128.3396952735592
 20
119.194614166494
 30
0.0
 11
128.3396952735592
 21
119.7220619347469
 31
0.0
  0
ELLIPSE
  5
1A6
330
6C
100
AcDbEntity
  8
Visible (ISO)
100
AcDbEllipse
 10
125.5972814949085
 20
127.1318680996864
 30
0.0
 11
0.0
 21
-9.25
 31
0.0
210
0.0
220
0.0
230
1.0
 40
0.577350269189626
 41
0.4471887452263418
 42
0.5392744123179991
  0
LINE
  5
1A7
330
6C
100
AcDbEntity
  8
Visible (ISO)
100
AcDbLine
 10
132.9736698697747
 20
126.0416742646303
 30
0.0
 11
129.2764842923375
 21
126.0416742646303
 31
0.0
  0
SPLINE
  5
1A8
330
6C
100
AcDbEntity
  8
Visible (ISO)
100
AcDbSpline
210
0.0
220
0.0
230
1.0
 70
    12
 71
     2
 72
     6
 73
     3
 74
     0
 42
0.0000000001
 43
0.0000000001
 40
0.8123858579521067
 40
0.8123858579521067
 40
0.8123858579521067
 40
1.197529924693542
 40
1.197529924693542
 40
1.197529924693542
 10
127.907907747701
 20
122.7173696699079
 30
0.0
 41
1.004365595477415
 10
127.9292741321518
 20
121.2828103593832
 30
0.0
 41
1.042884084947768
 10
128.3396952735592
 20
119.7220619347469
 30
0.0
 41
1.041774167103256
  0
LINE
  5
1A9
330
6C
100
AcDbEntity
  8
Visible (ISO)
100
AcDbLine
 10
129.2764842923375
 20
128.222061934748
 30
0.0
 11
132.9736698697747
 21
128.222061934748
 31
0.0
  0
LINE
  5
1AA
330
6C
100
AcDbEntity
  8
Visible (ISO)
100
AcDbLine
 10
132.9736698697747
 20
134.5416742646292
 30
0.0
 11
128.3559249614365
 21
134.5416742646292
 31
0.0
  0
SPLINE
  5
1AB
330
6C
100
AcDbEntity
  8
Visible (ISO)
100
AcDbSpline
210
0.0
220
0.0
230
1.0
 70
    12
 71
     2
 72
     6
 73
     3
 74
     0
 42
0.0000000001
 43
0.0000000001
 40
0.3932061578396785
 40
0.3932061578396785
 40
0.3932061578396785
 40
0.7699378181404222
 40
0.7699378181404222
 40
0.7699378181404222
 10
128.3219410732899
 20
134.4735362006454
 30
0.0
 41
1.041803747226504
 10
127.9288243167073
 20
132.9507248045559
 30
0.0
 41
1.042042755126312
 10
127.907907747701
 20
131.5463665294691
 30
0.0
 41
1.004365595477415
  0
LINE
  5
1AC
330
6C
100
AcDbEntity
  8
Visible (ISO)
100
AcDbLine
 10
127.906682571667
 20
119.6318680996876
 30
0.0
 11
127.906682571667
 21
122.7157046063382
 31
0.0
  0
LINE
  5
1AD
330
6C
100
AcDbEntity
  8
Visible (ISO)
100
AcDbLine
 10
127.906682571667
 20
131.5480315930389
 30
0.0
 11
127.906682571667
 21
133.1318680996882
 31
0.0
  0
SPLINE
  5
1AE
330
6C
100
AcDbEntity
  8
Visible (ISO)
100
AcDbSpline
210
0.0
220
0.0
230
1.0
 70
    12
 71
     2
 72
     6
 73
     3
 74
     0
 42
0.0000000001
 43
0.0000000001
 40
-1.486263498190694
 40
-1.486263498190694
 40
-1.486263498190694
 40
-1.36702465746637
 40
-1.36702465746637
 40
-1.36702465746637
 10
127.9066825717057
 20
119.6318680996473
 30
0.0
 41
1.0
 10
128.1170564683822
 20
119.4132411330707
 30
0.0
 41
1.0
 10
128.3396952735592
 20
119.194614166494
 30
0.0
 41
1.0
  0
LINE
  5
1AF
330
6C
100
AcDbEntity
  8
Visible (ISO)
100
AcDbLine
 10
132.9736698697747
 20
119.7220619347469
 30
0.0
 11
132.9736698697747
 21
118.6318680996875
 31
0.0
  0
SPLINE
  5
1B0
330
6C
100
AcDbEntity
  8
Visible (ISO)
100
AcDbSpline
210
0.0
220
0.0
230
1.0
 70
    28
 71
     2
 72
     6
 73
     3
 74
     0
 42
0.0000000001
 43
0.0000000001
 40
0.8365524254088846
 40
0.8365524254088846
 40
0.8365524254088846
 40
1.2474975411893
 40
1.2474975411893
 40
1.2474975411893
 10
133.406682571667
 20
118.6318680996864
 30
0.0
 41
1.0
 10
133.406682571667
 20
118.6318680996869
 30
0.0
 41
1.044904085362809
 10
132.9736698697747
 20
118.6318680996875
 30
0.0
 41
1.045691116018822
  0
LINE
  5
1B1
330
6C
100
AcDbEntity
  8
Visible (ISO)
100
AcDbLine
 10
133.406682571667
 20
118.6318680996864
 30
0.0
 11
133.406682571667
 21
122.8818680996886
 31
0.0
  0
LINE
  5
1B2
330
6C
100
AcDbEntity
  8
Visible (ISO)
100
AcDbLine
 10
133.406682571667
 20
122.8818680996886
 30
0.0
 11
133.406682571667
 21
131.3818680996885
 31
0.0
  0
SPLINE
  5
1B3
330
6C
100
AcDbEntity
  8
Visible (ISO)
100
AcDbSpline
210
0.0
220
0.0
230
1.0
 70
    28
 71
     2
 72
     6
 73
     3
 74
     0
 42
0.0000000001
 43
0.0000000001
 40
0.4256073096284699
 40
0.4256073096284699
 40
0.4256073096284699
 40
0.8365524254088839
 40
0.8365524254088839
 40
0.8365524254088839
 10
132.9736698697747
 20
135.6318680996875
 30
0.0
 41
1.045691116018829
 10
133.406682571667
 20
135.6318680996869
 30
0.0
 41
1.044904085362813
 10
133.406682571667
 20
135.6318680996864
 30
0.0
 41
1.0
  0
LINE
  5
1B4
330
6C
100
AcDbEntity
  8
Visible (ISO)
100
AcDbLine
 10
132.9736698697747
 20
135.6318680996875
 30
0.0
 11
132.9736698697747
 21
134.5416742646292
 31
0.0
  0
LINE
  5
1B5
330
6C
100
AcDbEntity
  8
Visible (ISO)
100
AcDbLine
 10
133.406682571667
 20
131.3818680996885
 30
0.0
 11
133.406682571667
 21
135.6318680996864
 31
0.0
  0
LINE
  5
1B6
330
6C
100
AcDbEntity
  8
Visible (ISO)
100
AcDbLine
 10
132.9736698697747
 20
118.6318680996875
 30
0.0
 11
126.861561384859
 21
118.6318680996875
 31
0.0
  0
LINE
  5
1B7
330
6C
100
AcDbEntity
  8
Visible (ISO)
100
AcDbLine
 10
116.9518037584751
 20
118.6318680996875
 30
0.0
 11
110.8396952735592
 21
118.6318680996875
 31
0.0
  0
LINE
  5
1B8
330
6C
100
AcDbEntity
  8
Visible (ISO)
100
AcDbLine
 10
110.8396952735592
 20
119.7220619347469
 30
0.0
 11
115.4736698697748
 21
119.7220619347469
 31
0.0
  0
LINE
  5
1B9
330
6C
100
AcDbEntity
  8
Visible (ISO)
100
AcDbLine
 10
110.8396952735592
 20
118.6318680996875
 30
0.0
 11
110.8396952735592
 21
119.7220619347469
 31
0.0
  0
LINE
  5
1BA
330
6C
100
AcDbEntity
  8
Visible (ISO)
100
AcDbLine
 10
110.8396952735592
 20
134.5416742646292
 30
0.0
 11
110.8396952735592
 21
135.6318680996875
 31
0.0
  0
LINE
  5
1BB
330
6C
100
AcDbEntity
  8
Visible (ISO)
100
AcDbLine
 10
110.8396952735592
 20
126.0416742646303
 30
0.0
 11
110.8396952735592
 21
128.222061934748
 31
0.0
  0
LINE
  5
1BC
330
6C
100
AcDbEntity
  8
Visible (ISO)
100
AcDbLine
 10
115.4574401818975
 20
134.5416742646292
 30
0.0
 11
110.8396952735592
 21
134.5416742646292
 31
0.0
  0
LINE
  5
1BD
330
6C
100
AcDbEntity
  8
Visible (ISO)
100
AcDbLine
 10
110.8396952735592
 20
135.6318680996875
 30
0.0
 11
114.229606305275
 21
135.6318680996875
 31
0.0
  0
LINE
  5
1BE
330
6C
100
AcDbEntity
  8
Visible (ISO)
100
AcDbLine
 10
114.5368808509964
 20
126.0416742646303
 30
0.0
 11
110.8396952735592
 21
126.0416742646303
 31
0.0
  0
LINE
  5
1BF
330
6C
100
AcDbEntity
  8
Visible (ISO)
100
AcDbLine
 10
110.8396952735592
 20
128.222061934748
 30
0.0
 11
114.5368808509964
 21
128.222061934748
 31
0.0
  0
LINE
  5
1C0
330
6C
100
AcDbEntity
  8
Visible (ISO)
100
AcDbLine
 10
129.5837588380591
 20
135.6318680996875
 30
0.0
 11
132.9736698697747
 21
135.6318680996875
 31
0.0
  0
SPLINE
  5
1C1
330
6C
100
AcDbEntity
  8
Visible (ISO)
100
AcDbSpline
210
0.0
220
0.0
230
1.0
 70
    28
 71
     2
 72
     6
 73
     3
 74
     0
 42
0.0000000001
 43
0.0000000001
 40
0.4226777092670462
 40
0.4226777092670462
 40
0.4226777092670462
 40
0.8332926396892185
 40
0.8332926396892185
 40
0.8332926396892185
 10
110.8396952735592
 20
118.6318680996875
 30
0.0
 41
1.045413293158438
 10
110.406682571667
 20
118.6318680996869
 30
0.0
 41
1.044765269262242
 10
110.406682571667
 20
118.6318680996864
 30
0.0
 41
1.0
  0
SPLINE
  5
1C2
330
6C
100
AcDbEntity
  8
Visible (ISO)
100
AcDbSpline
210
0.0
220
0.0
230
1.0
 70
    28
 71
     2
 72
     6
 73
     3
 74
     0
 42
0.0000000001
 43
0.0000000001
 40
0.8332926396892174
 40
0.8332926396892174
 40
0.8332926396892174
 40
1.243907570111385
 40
1.243907570111385
 40
1.243907570111385
 10
110.406682571667
 20
135.6318680996864
 30
0.0
 41
1.0
 10
110.406682571667
 20
135.6318680996869
 30
0.0
 41
1.044765269262236
 10
110.8396952735592
 20
135.6318680996875
 30
0.0
 41
1.045413293158431
  0
LINE
  5
1C3
330
6C
100
AcDbEntity
  8
Visible (ISO)
100
AcDbLine
 10
110.406682571667
 20
135.6318680996864
 30
0.0
 11
110.406682571667
 21
131.3818680996885
 31
0.0
  0
SPLINE
  5
1C4
330
6C
100
AcDbEntity
  8
Visible (ISO)
100
AcDbSpline
210
0.0
220
0.0
230
1.0
 70
    12
 71
     2
 72
     6
 73
     3
 74
     0
 42
0.0000000001
 43
0.0000000001
 40
0.4226777092670477
 40
0.4226777092670477
 40
0.4226777092670477
 40
0.8332926396892176
 40
0.8332926396892176
 40
0.8332926396892176
 10
110.8396952735592
 20
134.5416742646292
 30
0.0
 41
1.045413293158433
 10
110.406682571667
 20
132.8950147138854
 30
0.0
 41
1.044765269262237
 10
110.406682571667
 20
131.3818680996885
 30
0.0
 41
1.0
  0
SPLINE
  5
1C5
330
6C
100
AcDbEntity
  8
Visible (ISO)
100
AcDbSpline
210
0.0
220
0.0
230
1.0
 70
    12
 71
     2
 72
     6
 73
     3
 74
     0
 42
0.0000000001
 43
0.0000000001
 40
0.8332926396892176
 40
0.8332926396892176
 40
0.8332926396892176
 40
1.243907570111385
 40
1.243907570111385
 40
1.243907570111385
 10
110.406682571667
 20
131.3818680996885
 30
0.0
 41
1.0
 10
110.406682571667
 20
129.8687214854917
 30
0.0
 41
1.044765269262236
 10
110.8396952735592
 20
128.222061934748
 30
0.0
 41
1.045413293158431
  0
LINE
  5
1C6
330
6C
100
AcDbEntity
  8
Visible (ISO)
100
AcDbLine
 10
110.406682571667
 20
131.3818680996885
 30
0.0
 11
110.406682571667
 21
122.8818680996886
 31
0.0
  0
SPLINE
  5
1C7
330
6C
100
AcDbEntity
  8
Visible (ISO)
100
AcDbSpline
210
0.0
220
0.0
230
1.0
 70
    12
 71
     2
 72
     6
 73
     3
 74
     0
 42
0.0000000001
 43
0.0000000001
 40
0.4226777092670467
 40
0.4226777092670467
 40
0.4226777092670467
 40
0.8332926396892183
 40
0.8332926396892183
 40
0.8332926396892183
 10
110.8396952735592
 20
126.0416742646303
 30
0.0
 41
1.045413293158434
 10
110.406682571667
 20
124.395014713886
 30
0.0
 41
1.044765269262239
 10
110.406682571667
 20
122.8818680996886
 30
0.0
 41
1.0
  0
SPLINE
  5
1C8
330
6C
100
AcDbEntity
  8
Visible (ISO)
100
AcDbSpline
210
0.0
220
0.0
230
1.0
 70
    12
 71
     2
 72
     6
 73
     3
 74
     0
 42
0.0000000001
 43
0.0000000001
 40
0.8332926396892183
 40
0.8332926396892183
 40
0.8332926396892183
 40
1.243907570111389
 40
1.243907570111389
 40
1.243907570111389
 10
110.406682571667
 20
122.8818680996886
 30
0.0
 41
1.0
 10
110.406682571667
 20
121.368721485491
 30
0.0
 41
1.044765269262239
 10
110.8396952735592
 20
119.7220619347469
 30
0.0
 41
1.045413293158434
  0
LINE
  5
1C9
330
6C
100
AcDbEntity
  8
Visible (ISO)
100
AcDbLine
 10
110.406682571667
 20
122.8818680996885
 30
0.0
 11
110.406682571667
 21
118.6318680996864
 31
0.0
  0
LINE
  5
1CA
330
6C
100
AcDbEntity
  8
Visible (ISO)
100
AcDbLine
 10
115.906682571667
 20
118.7914544408814
 30
0.0
 11
116.9172496686462
 21
118.7914544408814
 31
0.0
  0
LINE
  5
1CB
330
6C
100
AcDbEntity
  8
Visible (ISO)
100
AcDbLine
 10
126.8961154746877
 20
118.7914544408814
 30
0.0
 11
127.906682571667
 21
118.7914544408814
 31
0.0
  0
LINE
  5
1CC
330
6C
100
AcDbEntity
  8
Visible (ISO)
100
AcDbLine
 10
115.906682571667
 20
119.6318680996875
 30
0.0
 11
116.728334105112
 21
119.6318680996875
 31
0.0
  0
LINE
  5
1CD
330
6C
100
AcDbEntity
  8
Visible (ISO)
100
AcDbLine
 10
127.0850310382219
 20
119.6318680996875
 30
0.0
 11
127.906682571667
 21
119.6318680996875
 31
0.0
  0
LINE
  5
1CE
330
6C
100
AcDbEntity
  8
Visible (ISO)
100
AcDbLine
 10
127.906682571667
 20
118.7914544408814
 30
0.0
 11
127.906682571667
 21
119.6318680996875
 31
0.0
  0
LINE
  5
1CF
330
6C
100
AcDbEntity
  8
Visible (ISO)
100
AcDbLine
 10
115.906682571667
 20
118.7914544408814
 30
0.0
 11
115.906682571667
 21
119.6318680996875
 31
0.0
  0
ELLIPSE
  5
1D0
330
6C
100
AcDbEntity
  8
Visible (ISO)
100
AcDbEllipse
 10
118.2160836484255
 20
127.1318680996864
 30
0.0
 11
0.0
 21
9.25
 31
0.0
210
0.0
220
0.0
230
1.0
 40
0.577350269189626
 41
2.602318241271794
 42
2.694403908363451
  0
LINE
  5
1D1
330
6C
100
AcDbEntity
  8
Visible (ISO)
100
AcDbLine
 10
115.4736698697748
 20
119.7220619347469
 30
0.0
 11
115.4736698697748
 21
119.194614166494
 31
0.0
  0
SPLINE
  5
1D2
330
6C
100
AcDbEntity
  8
Visible (ISO)
100
AcDbSpline
210
0.0
220
0.0
230
1.0
 70
    12
 71
     2
 72
     6
 73
     3
 74
     0
 42
0.0000000001
 43
0.0000000001
 40
0.8123858579521044
 40
0.8123858579521044
 40
0.8123858579521044
 40
1.189117518252846
 40
1.189117518252846
 40
1.189117518252846
 10
115.905457395633
 20
131.5463665294691
 30
0.0
 41
1.004365595477415
 10
115.8845408266267
 20
132.9507248045559
 30
0.0
 41
1.042042755126312
 10
115.4914240700441
 20
134.4735362006454
 30
0.0
 41
1.041803747226504
  0
SPLINE
  5
1D3
330
6C
100
AcDbEntity
  8
Visible (ISO)
100
AcDbSpline
210
0.0
220
0.0
230
1.0
 70
    12
 71
     2
 72
     6
 73
     3
 74
     0
 42
0.0000000001
 43
0.0000000001
 40
0.3847937513989829
 40
0.3847937513989829
 40
0.3847937513989829
 40
0.7699378181404203
 40
0.7699378181404203
 40
0.7699378181404203
 10
115.4736698697748
 20
119.7220619347469
 30
0.0
 41
1.041774167103256
 10
115.8840910111821
 20
121.2828103593832
 30
0.0
 41
1.042884084947768
 10
115.905457395633
 20
122.7173696699079
 30
0.0
 41
1.004365595477415
  0
LINE
  5
1D4
330
6C
100
AcDbEntity
  8
Visible (ISO)
100
AcDbLine
 10
115.906682571667
 20
131.5480315930389
 30
0.0
 11
115.906682571667
 21
133.1318680996882
 31
0.0
  0
LINE
  5
1D5
330
6C
100
AcDbEntity
  8
Visible (ISO)
100
AcDbLine
 10
115.906682571667
 20
119.6318680996876
 30
0.0
 11
115.906682571667
 21
122.7157046063382
 31
0.0
  0
SPLINE
  5
1D6
330
6C
100
AcDbEntity
  8
Visible (ISO)
100
AcDbSpline
210
0.0
220
0.0
230
1.0
 70
    12
 71
     2
 72
     6
 73
     3
 74
     0
 42
0.0000000001
 43
0.0000000001
 40
-1.486263498190694
 40
-1.486263498190694
 40
-1.486263498190694
 40
-1.36702465746637
 40
-1.36702465746637
 40
-1.36702465746637
 10
115.9066825716283
 20
119.6318680996473
 30
0.0
 41
1.0
 10
115.6963086749518
 20
119.4132411330707
 30
0.0
 41
1.0
 10
115.4736698697748
 20
119.194614166494
 30
0.0
 41
1.0
  0
ELLIPSE
  5
1D7
330
6C
100
AcDbEntity
  8
Visible (ISO)
100
AcDbEllipse
 10
121.906682571667
 20
144.1318680996864
 30
0.0
 11
0.0
 21
14.72243186433292
 31
0.0
210
0.0
220
0.0
230
1.0
 40
0.5773502691897253
 41
3.996844707048501
 42
4.002960670239064
  0
LINE
  5
1D8
330
6C
100
AcDbEntity
  8
Visible (ISO)
100
AcDbLine
 10
130.406682571667
 20
141.6318680996864
 30
0.0
 11
113.406682571667
 21
141.6318680996864
 31
0.0
  0
SPLINE
  5
1D9
330
6C
100
AcDbEntity
  8
Visible (ISO)
100
AcDbSpline
210
0.0
220
0.0
230
1.0
 70
     8
 71
     3
 72
     8
 73
     4
 74
     0
 42
0.0000000001
 43
0.0000000001
 40
0.8292463199719302
 40
0.8292463199719302
 40
0.8292463199719302
 40
0.8292463199719302
 40
1.069319888959278
 40
1.069319888959278
 40
1.069319888959278
 40
1.069319888959278
 10
115.4574401818975
 20
134.5416742646292
 30
0.0
 10
114.991419961817
 20
134.9472823589477
 30
0.0
 10
114.5655106789376
 20
135.3284842438151
 30
0.0
 10
114.229606305275
 20
135.6318680996875
 30
0.0
  0
ELLIPSE
  5
1DA
330
6C
100
AcDbEntity
  8
Visible (ISO)
100
AcDbEllipse
 10
121.906682571667
 20
144.1318680996864
 30
0.0
 11
0.0
 21
14.72243186433292
 31
0.0
210
0.0
220
0.0
230
1.0
 40
0.5773502691897253
 41
2.280224636940519
 42
2.286340600131083
  0
SPLINE
  5
1DB
330
6C
100
AcDbEntity
  8
Visible (ISO)
100
AcDbSpline
210
0.0
220
0.0
230
1.0
 70
     8
 71
     3
 72
    10
 73
     6
 74
     0
 42
0.0000000001
 43
0.0000000001
 40
2.358463870327546
 40
2.358463870327546
 40
2.358463870327546
 40
2.358463870327546
 40
2.381073897766034
 40
2.381073897766034
 40
2.502243251613869
 40
2.502243251613869
 40
2.502243251613869
 40
2.502243251613869
 10
115.4914240700441
 20
134.4735362006454
 30
0.0
 10
115.5139250019237
 20
134.404934782839
 30
0.0
 10
115.5361292748443
 20
134.3366895657813
 30
0.0
 10
115.6752651989946
 20
133.9055169123372
 30
0.0
 10
115.7928393394585
 20
133.5250528701308
 30
0.0
 10
115.906682571667
 20
133.1318680996882
 30
0.0
  0
LINE
  5
1DC
330
6C
100
AcDbEntity
  8
Visible (ISO)
100
AcDbLine
 10
115.906682571667
 20
133.1318680996882
 30
0.0
 11
116.6387370518272
 21
132.3998136195282
 31
0.0
  0
LINE
  5
1DD
330
6C
100
AcDbEntity
  8
Visible (ISO)
100
AcDbLine
 10
127.1746280915068
 20
132.3998136195282
 30
0.0
 11
127.906682571667
 21
133.1318680996882
 31
0.0
  0
SPLINE
  5
1DE
330
6C
100
AcDbEntity
  8
Visible (ISO)
100
AcDbSpline
210
0.0
220
0.0
230
1.0
 70
     8
 71
     3
 72
    10
 73
     6
 74
     0
 42
0.0000000001
 43
0.0000000001
 40
3.664699947043588
 40
3.664699947043588
 40
3.664699947043588
 40
3.664699947043588
 40
3.785869300891423
 40
3.785869300891423
 40
3.808479328329911
 40
3.808479328329911
 40
3.808479328329911
 40
3.808479328329911
 10
127.906682571667
 20
133.1318680996882
 30
0.0
 10
128.0205258038755
 20
133.5250528701308
 30
0.0
 10
128.1380999443394
 20
133.9055169123372
 30
0.0
 10
128.2772358684897
 20
134.3366895657813
 30
0.0
 10
128.2994401414103
 20
134.404934782839
 30
0.0
 10
128.3219410732899
 20
134.4735362006454
 30
0.0
  0
SPLINE
  5
1DF
330
6C
100
AcDbEntity
  8
Visible (ISO)
100
AcDbSpline
210
0.0
220
0.0
230
1.0
 70
     8
 71
     3
 72
     8
 73
     4
 74
     0
 42
0.0000000001
 43
0.0000000001
 40
4.714232720745108
 40
4.714232720745108
 40
4.714232720745108
 40
4.714232720745108
 40
4.954306289732459
 40
4.954306289732459
 40
4.954306289732459
 40
4.954306289732459
 10
129.5837588380591
 20
135.6318680996875
 30
0.0
 10
129.2479126638166
 20
135.3285367239894
 30
0.0
 10
128.822011425372
 20
134.9473405790043
 30
0.0
 10
128.3559249614365
 20
134.5416742646292
 30
0.0
  0
LINE
  5
1E0
330
6C
100
AcDbEntity
  8
Visible (ISO)
100
AcDbLine
 10
113.406682571667
 20
135.6318680996864
 30
0.0
 11
113.406682571667
 21
141.6318680996864
 31
0.0
  0
LINE
  5
1E1
330
6C
100
AcDbEntity
  8
Visible (ISO)
100
AcDbLine
 10
130.406682571667
 20
135.6318680996864
 30
0.0
 11
130.406682571667
 21
141.6318680996864
 31
0.0
  0
LINE
  5
1E2
330
6C
100
AcDbEntity
  8
Visible (ISO)
100
AcDbLine
 10
145.906682571667
 20
118.8818680996864
 30
0.0
 11
133.406682571667
 21
118.8818680996864
 31
0.0
  0
LINE
  5
1E3
330
6C
100
AcDbEntity
  8
Visible (ISO)
100
AcDbLine
 10
145.906682571667
 20
135.3818680996864
 30
0.0
 11
133.406682571667
 21
135.3818680996864
 31
0.0
  0
LINE
  5
1E4
330
6C
100
AcDbEntity
  8
Visible (ISO)
100
AcDbLine
 10
129.9066825716669
 20
142.1318680996864
 30
0.0
 11
130.406682571667
 21
141.6318680996864
 31
0.0
  0
LINE
  5
1E5
330
6C
100
AcDbEntity
  8
Visible (ISO)
100
AcDbLine
 10
113.906682571667
 20
142.1318680996864
 30
0.0
 11
113.406682571667
 21
141.6318680996864
 31
0.0
  0
LINE
  5
1E6
330
6C
100
AcDbEntity
  8
Visible (ISO)
100
AcDbLine
 10
125.1783818357222
 20
107.1318680996943
 30
0.0
 11
124.4874852072344
 21
113.7152984460912
 31
0.0
  0
LINE
  5
1E7
330
6C
100
AcDbEntity
  8
Visible Narrow (ISO)
100
AcDbLine
 10
124.4874852072344
 20
113.7152984460912
 30
0.0
 11
119.3258799360996
 21
113.7152984460912
 31
0.0
  0
LINE
  5
1E8
330
6C
100
AcDbEntity
  8
Visible (ISO)
100
AcDbLine
 10
119.3258799360996
 20
113.7152984460912
 30
0.0
 11
118.6349833076117
 21
107.1318680996943
 31
0.0
  0
LINE
  5
1E9
330
6C
100
AcDbEntity
  8
Visible (ISO)
100
AcDbLine
 10
118.6349833076117
 20
107.1318680996949
 30
0.0
 11
125.1783818357222
 21
107.1318680996949
 31
0.0
  0
LINE
  5
1EA
330
6C
100
AcDbEntity
  8
Visible (ISO)
100
AcDbLine
 10
125.406682571667
 20
87.1318680996949
 30
0.0
 11
118.406682571667
 21
87.1318680996949
 31
0.0
  0
LINE
  5
1EB
330
6C
100
AcDbEntity
  8
Visible (ISO)
100
AcDbLine
 10
125.406682571667
 20
104.9564312381582
 30
0.0
 11
125.406682571667
 21
87.1318680996949
 31
0.0
  0
LINE
  5
1EC
330
6C
100
AcDbEntity
  8
Visible (ISO)
100
AcDbLine
 10
125.1783818357222
 20
107.1318680996949
 30
0.0
 11
125.406682571667
 21
104.9564312381582
 31
0.0
  0
LINE
  5
1ED
330
6C
100
AcDbEntity
  8
Visible (ISO)
100
AcDbLine
 10
118.406682571667
 20
104.9564312381582
 30
0.0
 11
118.6349833076117
 21
107.1318680996949
 31
0.0
  0
LINE
  5
1EE
330
6C
100
AcDbEntity
  8
Visible (ISO)
100
AcDbLine
 10
118.406682571667
 20
87.1318680996949
 30
0.0
 11
118.406682571667
 21
104.9564312381582
 31
0.0
  0
ARC
  5
1EF
330
6C
100
AcDbEntity
  8
Visible (ISO)
100
AcDbCircle
 10
53.40668257166672
 20
104.9564312381556
 30
0.0
 40
65.00000000000027
100
AcDbArc
 50
0.0
 51
16.50009499227154
  0
ARC
  5
1F0
330
6C
100
AcDbEntity
  8
Visible (ISO)
100
AcDbCircle
 10
190.4066825716673
 20
104.9564312381555
 30
0.0
 40
65.00000000000031
100
AcDbArc
 50
163.4999050077284
 51
180.0
  0
SPLINE
  5
1F1
330
6C
100
AcDbEntity
  8
Visible (ISO)
100
AcDbSpline
210
0.0
220
0.0
230
1.0
 70
     8
 71
     3
 72
    10
 73
     6
 74
     0
 42
0.0000000001
 43
0.0000000001
 40
0.8843322889545374
 40
0.8843322889545374
 40
0.8843322889545374
 40
0.8843322889545374
 40
0.9081515042319823
 40
0.9081515042319823
 40
0.925972547537049
 40
0.925972547537049
 40
0.925972547537049
 40
0.925972547537049
 10
123.6276970524933
 20
121.9080659253402
 30
0.0
 10
123.5913240579797
 20
121.878978026337
 30
0.0
 10
123.5520470215525
 20
121.85013677046
 30
0.0
 10
123.4786790815514
 20
121.8007451261494
 30
0.0
 10
123.4436408053751
 20
121.7788991247026
 30
0.0
 10
123.4057709285474
 20
121.7569018337825
 30
0.0
  0
SPLINE
  5
1F2
330
6C
100
AcDbEntity
  8
Visible (ISO)
100
AcDbSpline
210
0.0
220
0.0
230
1.0
 70
     8
 71
     3
 72
    10
 73
     6
 74
     0
 42
0.0000000001
 43
0.0000000001
 40
1.26072965346429
 40
1.26072965346429
 40
1.26072965346429
 40
1.26072965346429
 40
1.278550696769362
 40
1.278550696769362
 40
1.302369912046807
 40
1.302369912046807
 40
1.302369912046807
 40
1.302369912046807
 10
120.4075942147867
 20
121.7569018337825
 30
0.0
 10
120.3697243379589
 20
121.7788991247025
 30
0.0
 10
120.3346860617827
 20
121.8007451261494
 30
0.0
 10
120.2613181217816
 20
121.85013677046
 30
0.0
 10
120.2220410853543
 20
121.878978026337
 30
0.0
 10
120.1856680908408
 20
121.9080659253402
 30
0.0
  0
LINE
  5
1F3
330
6C
100
AcDbEntity
  8
Visible (ISO)
100
AcDbLine
 10
123.6276970524933
 20
121.9080659253402
 30
0.0
 11
124.4874852072344
 21
113.7152984460912
 31
0.0
  0
LINE
  5
1F4
330
6C
100
AcDbEntity
  8
Visible (ISO)
100
AcDbLine
 10
119.3258799360996
 20
113.7152984460912
 30
0.0
 11
120.1856680908408
 21
121.9080659253402
 31
0.0
  0
ARC
  5
1F5
330
6C
100
AcDbEntity
  8
Visible (ISO)
100
AcDbCircle
 10
121.906682571667
 20
127.1318680996922
 30
0.0
 40
7.207531252864772
100
AcDbArc
 50
285.3041237151069
 51
328.9797515566896
  0
ARC
  5
1F6
330
6C
100
AcDbEntity
  8
Visible (ISO)
100
AcDbCircle
 10
121.906682571667
 20
127.1318680996922
 30
0.0
 40
7.207531252864776
100
AcDbArc
 50
211.0202484433095
 51
254.6958762848929
  0
ARC
  5
1F7
330
6C
100
AcDbEntity
  8
Visible (ISO)
100
AcDbCircle
 10
121.906682571667
 20
127.1318680996919
 30
0.0
 40
7.449999999999991
100
AcDbArc
 50
323.0863788866292
 51
216.9136211133707
  0
ARC
  5
1F8
330
6C
100
AcDbEntity
  8
Visible (ISO)
100
AcDbCircle
 10
120.906682571667
 20
126.1318680996945
 30
0.0
 40
1.999999999999999
100
AcDbArc
 50
180.0
 51
270.0
  0
LINE
  5
1F9
330
6C
100
AcDbEntity
  8
Visible (ISO)
100
AcDbLine
 10
120.906682571667
 20
124.1318680996945
 30
0.0
 11
124.406682571667
 21
124.1318680996945
 31
0.0
  0
LINE
  5
1FA
330
6C
100
AcDbEntity
  8
Visible (ISO)
100
AcDbLine
 10
124.406682571667
 20
124.1318680996945
 30
0.0
 11
124.406682571667
 21
123.6318680996944
 31
0.0
  0
LINE
  5
1FB
330
6C
100
AcDbEntity
  8
Visible (ISO)
100
AcDbLine
 10
124.406682571667
 20
123.6318680996944
 30
0.0
 11
125.406682571667
 21
124.6318680996945
 31
0.0
  0
LINE
  5
1FC
330
6C
100
AcDbEntity
  8
Visible (ISO)
100
AcDbLine
 10
125.406682571667
 20
124.6318680996945
 30
0.0
 11
124.406682571667
 21
125.6318680996944
 31
0.0
  0
LINE
  5
1FD
330
6C
100
AcDbEntity
  8
Visible (ISO)
100
AcDbLine
 10
124.406682571667
 20
125.6318680996944
 30
0.0
 11
124.406682571667
 21
125.1318680996944
 31
0.0
  0
LINE
  5
1FE
330
6C
100
AcDbEntity
  8
Visible (ISO)
100
AcDbLine
 10
124.406682571667
 20
125.1318680996944
 30
0.0
 11
121.406682571667
 21
125.1318680996944
 31
0.0
  0
ARC
  5
1FF
330
6C
100
AcDbEntity
  8
Visible (ISO)
100
AcDbCircle
 10
121.406682571667
 20
126.6318680996945
 30
0.0
 40
1.499999999999999
100
AcDbArc
 50
180.0
 51
270.0
  0
LINE
  5
200
330
6C
100
AcDbEntity
  8
Visible (ISO)
100
AcDbLine
 10
119.906682571667
 20
126.6318680996945
 30
0.0
 11
119.906682571667
 21
129.6318680996944
 31
0.0
  0
LINE
  5
201
330
6C
100
AcDbEntity
  8
Visible (ISO)
100
AcDbLine
 10
119.906682571667
 20
129.6318680996944
 30
0.0
 11
120.406682571667
 21
129.6318680996944
 31
0.0
  0
LINE
  5
202
330
6C
100
AcDbEntity
  8
Visible (ISO)
100
AcDbLine
 10
120.406682571667
 20
129.6318680996944
 30
0.0
 11
119.406682571667
 21
130.6318680996945
 31
0.0
  0
LINE
  5
203
330
6C
100
AcDbEntity
  8
Visible (ISO)
100
AcDbLine
 10
119.406682571667
 20
130.6318680996945
 30
0.0
 11
118.406682571667
 21
129.6318680996944
 31
0.0
  0
LINE
  5
204
330
6C
100
AcDbEntity
  8
Visible (ISO)
100
AcDbLine
 10
118.406682571667
 20
129.6318680996944
 30
0.0
 11
118.906682571667
 21
129.6318680996944
 31
0.0
  0
LINE
  5
205
330
6C
100
AcDbEntity
  8
Visible (ISO)
100
AcDbLine
 10
118.906682571667
 20
129.6318680996944
 30
0.0
 11
118.906682571667
 21
126.1318680996945
 31
0.0
  0
ARC
  5
206
330
6C
100
AcDbEntity
  8
Visible Narrow (ISO)
100
AcDbCircle
 10
121.906682571667
 20
127.1318680996944
 30
0.0
 40
4.999999999999999
100
AcDbArc
 50
281.5369590328153
 51
78.46304096718461
  0
SPLINE
  5
207
330
6C
100
AcDbEntity
  8
Visible (ISO)
100
AcDbSpline
210
0.0
220
0.0
230
1.0
 70
     8
 71
     3
 72
    18
 73
    14
 74
     0
 42
0.0000000001
 43
0.0000000001
 40
-0.0894071042414384
 40
-0.0894071042414384
 40
-0.0894071042414384
 40
-0.0894071042414384
 40
-0.0890024393096829
 40
-0.0890024393096829
 40
-0.071331341192769
 40
-0.071331341192769
 40
-0.054286520760514
 40
-0.054286520760514
 40
-0.033079826196916
 40
-0.033079826196916
 40
-0.0157603010710298
 40
-0.0157603010710298
 40
0.0
 40
0.0
 40
0.0
 40
0.0
 10
122.906682571667
 20
122.2328886141281
 30
0.0
 10
122.9077349193944
 20
122.2320293758067
 30
0.0
 10
122.9087873793568
 20
122.2311702719025
 30
0.0
 10
122.9558034659429
 20
122.1928019830899
 30
0.0
 10
123.0020715458459
 20
122.1554826765397
 30
0.0
 10
123.0908363099785
 20
122.0846471342874
 30
0.0
 10
123.1335732708153
 20
122.0509115677614
 30
0.0
 10
123.2239907539834
 20
121.9801689964978
 30
0.0
 10
123.2703439145394
 20
121.9443681892427
 30
0.0
 10
123.340012682935
 20
121.8909504735535
 30
0.0
 10
123.3655483701368
 20
121.8715357272507
 30
0.0
 10
123.3984062326099
 20
121.8466121656134
 30
0.0
 10
123.406682571667
 20
121.8403654775651
 30
0.0
 10
123.406682571667
 20
121.8403654775651
 30
0.0
  0
ARC
  5
208
330
6C
100
AcDbEntity
  8
Visible (ISO)
100
AcDbCircle
 10
121.906682571667
 20
127.1318680996943
 30
0.0
 40
5.499999999999999
100
AcDbArc
 50
285.8266201318722
 51
74.1733798681276
  0
SPLINE
  5
209
330
6C
100
AcDbEntity
  8
Visible (ISO)
100
AcDbSpline
210
0.0
220
0.0
230
1.0
 70
     8
 71
     3
 72
    18
 73
    14
 74
     0
 42
0.0000000001
 43
0.0000000001
 40
-0.0896419378859127
 40
-0.0896419378859127
 40
-0.0896419378859127
 40
-0.0896419378859127
 40
-0.0737683962096255
 40
-0.0737683962096255
 40
-0.0563244271724696
 40
-0.0563244271724696
 40
-0.0349653586842182
 40
-0.0349653586842182
 40
-0.0177980681434567
 40
-0.0177980681434567
 40
0.0
 40
0.0
 40
0.0004075725222773
 40
0.0004075725222773
 40
0.0004075725222773
 40
0.0004075725222773
 10
123.406682571667
 20
132.4233707218235
 30
0.0
 10
123.406682571667
 20
132.4233707218235
 30
0.0
 10
123.3984062326099
 20
132.4171240337752
 30
0.0
 10
123.3655483701368
 20
132.392200472138
 30
0.0
 10
123.340012682935
 20
132.3727857258352
 30
0.0
 10
123.2703439145394
 20
132.3193680101462
 30
0.0
 10
123.2239907539834
 20
132.283567202891
 30
0.0
 10
123.1335732708153
 20
132.2128246316275
 30
0.0
 10
123.0908363099785
 20
132.1790890651015
 30
0.0
 10
123.0020715458461
 20
132.1082535228493
 30
0.0
 10
122.9558034659439
 20
132.0709342162996
 30
0.0
 10
122.9087873793567
 20
132.0325659274863
 30
0.0
 10
122.9077349193945
 20
132.0317068235822
 30
0.0
 10
122.906682571667
 20
132.0308475852608
 30
0.0
  0
LINE
  5
20A
330
6C
100
AcDbEntity
  8
Visible Narrow (ISO)
100
AcDbLine
 10
123.406682571667
 20
121.7235411864983
 30
0.0
 11
122.906682571667
 21
121.7235411864985
 31
0.0
  0
LINE
  5
20B
330
6C
100
AcDbEntity
  8
Visible (ISO)
100
AcDbLine
 10
123.406682571667
 20
121.7235411864983
 30
0.0
 11
123.406682571667
 21
121.8403654775651
 31
0.0
  0
LINE
  5
20C
330
6C
100
AcDbEntity
  8
Visible Narrow (ISO)
100
AcDbLine
 10
122.906682571667
 20
122.2328886141281
 30
0.0
 11
122.906682571667
 21
121.7235411864985
 31
0.0
  0
LINE
  5
20D
330
6C
100
AcDbEntity
  8
Visible Narrow (ISO)
100
AcDbLine
 10
122.906682571667
 20
132.5401950128904
 30
0.0
 11
123.406682571667
 21
132.5401950128903
 31
0.0
  0
LINE
  5
20E
330
6C
100
AcDbEntity
  8
Visible Narrow (ISO)
100
AcDbLine
 10
122.906682571667
 20
132.5401950128904
 30
0.0
 11
122.906682571667
 21
132.0308475852608
 31
0.0
  0
LINE
  5
20F
330
6C
100
AcDbEntity
  8
Visible (ISO)
100
AcDbLine
 10
123.406682571667
 20
132.4233707218235
 30
0.0
 11
123.406682571667
 21
132.5401950128903
 31
0.0
  0
LINE
  5
210
330
6C
100
AcDbEntity
  8
Visible Narrow (ISO)
100
AcDbLine
 10
122.9975916625761
 20
133.031861095908
 30
0.0
 11
122.906682571667
 21
132.5401950128904
 31
0.0
  0
ARC
  5
211
330
6C
100
AcDbEntity
  8
Visible (ISO)
100
AcDbCircle
 10
121.906682571667
 20
127.1318680996944
 30
0.0
 40
5.999999999999957
100
AcDbArc
 50
79.52431830361006
 51
100.4756816963899
  0
LINE
  5
212
330
6C
100
AcDbEntity
  8
Visible Narrow (ISO)
100
AcDbLine
 10
120.906682571667
 20
132.5401950128904
 30
0.0
 11
120.8157734807579
 21
133.031861095908
 31
0.0
  0
ARC
  5
213
330
6C
100
AcDbEntity
  8
Visible Narrow (ISO)
100
AcDbCircle
 10
121.906682571667
 20
127.1318680996944
 30
0.0
 40
5.499999999999992
100
AcDbArc
 50
79.52431830361025
 51
100.4756816963897
  0
ARC
  5
214
330
6C
100
AcDbEntity
  8
Visible (ISO)
100
AcDbCircle
 10
122.906682571667
 20
132.5401950128903
 30
0.0
 40
0.4999999999999988
100
AcDbArc
 50
0.0
 51
79.52431830361145
  0
LINE
  5
215
330
6C
100
AcDbEntity
  8
Visible Narrow (ISO)
100
AcDbLine
 10
120.906682571667
 20
121.7235411864985
 30
0.0
 11
120.406682571667
 21
121.7235411864983
 31
0.0
  0
LINE
  5
216
330
6C
100
AcDbEntity
  8
Visible Narrow (ISO)
100
AcDbLine
 10
120.906682571667
 20
121.7235411864985
 30
0.0
 11
120.906682571667
 21
122.2328886141281
 31
0.0
  0
SPLINE
  5
217
330
6C
100
AcDbEntity
  8
Visible (ISO)
100
AcDbSpline
210
0.0
220
0.0
230
1.0
 70
     8
 71
     3
 72
    18
 73
    14
 74
     0
 42
0.0000000001
 43
0.0000000001
 40
-0.0004075725222822
 40
-0.0004075725222822
 40
-0.0004075725222822
 40
-0.0004075725222822
 40
0.0
 40
0.0
 40
0.0177980681435137
 40
0.0177980681435137
 40
0.0349653586843403
 40
0.0349653586843403
 40
0.0563244271726714
 40
0.0563244271726714
 40
0.0737683962098895
 40
0.0737683962098895
 40
0.0896419378862371
 40
0.0896419378862371
 40
0.0896419378862371
 40
0.0896419378862371
 10
120.906682571667
 20
122.2328886141281
 30
0.0
 10
120.9056302239396
 20
122.2320293758067
 30
0.0
 10
120.9045777639773
 20
122.2311702719025
 30
0.0
 10
120.8575616773899
 20
122.1928019830892
 30
0.0
 10
120.8112935974879
 20
122.1554826765395
 30
0.0
 10
120.7225288333556
 20
122.0846471342874
 30
0.0
 10
120.6797918725187
 20
122.0509115677614
 30
0.0
 10
120.5893743893507
 20
121.9801689964978
 30
0.0
 10
120.5430212287947
 20
121.9443681892427
 30
0.0
 10
120.4733524603991
 20
121.8909504735535
 30
0.0
 10
120.4478167731972
 20
121.8715357272507
 30
0.0
 10
120.4149589107242
 20
121.8466121656134
 30
0.0
 10
120.406682571667
 20
121.8403654775651
 30
0.0
 10
120.406682571667
 20
121.8403654775651
 30
0.0
  0
LINE
  5
218
330
6C
100
AcDbEntity
  8
Visible (ISO)
100
AcDbLine
 10
120.406682571667
 20
121.8403654775651
 30
0.0
 11
120.406682571667
 21
121.7235411864983
 31
0.0
  0
ARC
  5
219
330
6C
100
AcDbEntity
  8
Visible Narrow (ISO)
100
AcDbCircle
 10
121.906682571667
 20
127.1318680996944
 30
0.0
 40
4.999999999999998
100
AcDbArc
 50
101.5369590328153
 51
258.4630409671845
  0
SPLINE
  5
21A
330
6C
100
AcDbEntity
  8
Visible (ISO)
100
AcDbSpline
210
0.0
220
0.0
230
1.0
 70
     8
 71
     3
 72
    18
 73
    14
 74
     0
 42
0.0000000001
 43
0.0000000001
 40
-0.0894071042413794
 40
-0.0894071042413794
 40
-0.0894071042413794
 40
-0.0894071042413794
 40
-0.0890024393096068
 40
-0.0890024393096068
 40
-0.0713313411927872
 40
-0.0713313411927872
 40
-0.054286520760529
 40
-0.054286520760529
 40
-0.0330798261969246
 40
-0.0330798261969246
 40
-0.0157603010710319
 40
-0.0157603010710319
 40
0.0
 40
0.0
 40
0.0
 40
0.0
 10
120.906682571667
 20
132.0308475852608
 30
0.0
 10
120.9056302239396
 20
132.0317068235822
 30
0.0
 10
120.9045777639774
 20
132.0325659274863
 30
0.0
 10
120.8575616773896
 20
132.0709342162999
 30
0.0
 10
120.8112935974879
 20
132.1082535228494
 30
0.0
 10
120.7225288333556
 20
132.1790890651015
 30
0.0
 10
120.6797918725187
 20
132.2128246316275
 30
0.0
 10
120.5893743893506
 20
132.283567202891
 30
0.0
 10
120.5430212287947
 20
132.3193680101462
 30
0.0
 10
120.4733524603991
 20
132.3727857258352
 30
0.0
 10
120.4478167731972
 20
132.392200472138
 30
0.0
 10
120.4149589107242
 20
132.4171240337752
 30
0.0
 10
120.406682571667
 20
132.4233707218235
 30
0.0
 10
120.406682571667
 20
132.4233707218235
 30
0.0
  0
ARC
  5
21B
330
6C
100
AcDbEntity
  8
Visible (ISO)
100
AcDbCircle
 10
121.906682571667
 20
127.1318680996943
 30
0.0
 40
5.499999999999999
100
AcDbArc
 50
105.8266201318722
 51
254.1733798681276
  0
LINE
  5
21C
330
6C
100
AcDbEntity
  8
Visible Narrow (ISO)
100
AcDbLine
 10
120.406682571667
 20
132.5401950128903
 30
0.0
 11
120.906682571667
 21
132.5401950128904
 31
0.0
  0
LINE
  5
21D
330
6C
100
AcDbEntity
  8
Visible (ISO)
100
AcDbLine
 10
120.406682571667
 20
132.5401950128903
 30
0.0
 11
120.406682571667
 21
132.4233707218235
 31
0.0
  0
LINE
  5
21E
330
6C
100
AcDbEntity
  8
Visible Narrow (ISO)
100
AcDbLine
 10
120.906682571667
 20
132.0308475852608
 30
0.0
 11
120.906682571667
 21
132.5401950128904
 31
0.0
  0
ARC
  5
21F
330
6C
100
AcDbEntity
  8
Visible (ISO)
100
AcDbCircle
 10
120.906682571667
 20
132.5401950128903
 30
0.0
 40
0.5000000000000023
100
AcDbArc
 50
100.4756816963904
 51
180.0
  0
LINE
  5
220
330
6C
100
AcDbEntity
  8
Visible Narrow (ISO)
100
AcDbLine
 10
120.8157734807579
 20
121.2318751034805
 30
0.0
 11
120.906682571667
 21
121.7235411864985
 31
0.0
  0
ARC
  5
221
330
6C
100
AcDbEntity
  8
Visible (ISO)
100
AcDbCircle
 10
121.906682571667
 20
127.1318680996943
 30
0.0
 40
5.999999999999968
100
AcDbArc
 50
259.52431830361
 51
280.4756816963898
  0
LINE
  5
222
330
6C
100
AcDbEntity
  8
Visible Narrow (ISO)
100
AcDbLine
 10
122.906682571667
 20
121.7235411864985
 30
0.0
 11
122.9975916625761
 21
121.2318751034805
 31
0.0
  0
ARC
  5
223
330
6C
100
AcDbEntity
  8
Visible Narrow (ISO)
100
AcDbCircle
 10
121.906682571667
 20
127.1318680996944
 30
0.0
 40
5.5
100
AcDbArc
 50
259.5243183036103
 51
280.4756816963898
  0
ARC
  5
224
330
6C
100
AcDbEntity
  8
Visible (ISO)
100
AcDbCircle
 10
120.906682571667
 20
121.7235411864983
 30
0.0
 40
0.5000000000000006
100
AcDbArc
 50
180.0
 51
259.5243183036096
  0
ARC
  5
225
330
6C
100
AcDbEntity
  8
Visible (ISO)
100
AcDbCircle
 10
122.906682571667
 20
121.7235411864983
 30
0.0
 40
0.4999999999999984
100
AcDbArc
 50
280.4756816963905
 51
0.0
  0
SPLINE
  5
226
330
6C
100
AcDbEntity
  8
Visible (ISO)
100
AcDbSpline
210
0.0
220
0.0
230
1.0
 70
    12
 71
     2
 72
     6
 73
     3
 74
     0
 42
0.0000000001
 43
0.0000000001
 40
0.2934711240705192
 40
0.2934711240705192
 40
0.2934711240705192
 40
0.836552425408885
 40
0.836552425408885
 40
0.836552425408885
 10
109.6474931931122
 20
118.6318680996878
 30
0.0
 41
1.041636008661477
 10
110.406682571667
 20
120.9094362353526
 30
0.0
 41
1.059342642552006
 10
110.406682571667
 20
122.8818680996885
 30
0.0
 41
1.0
  0
SPLINE
  5
227
330
6C
100
AcDbEntity
  8
Visible (ISO)
100
AcDbSpline
210
0.0
220
0.0
230
1.0
 70
    28
 71
     2
 72
     6
 73
     3
 74
     0
 42
0.0000000001
 43
0.0000000001
 40
0.8365524254088843
 40
0.8365524254088843
 40
0.8365524254088843
 40
1.379633726747249
 40
1.379633726747249
 40
1.379633726747249
 10
110.406682571667
 20
118.6318680996863
 30
0.0
 41
1.0
 10
110.406682571667
 20
118.631868099687
 30
0.0
 41
1.059342642552006
 10
109.6474931931122
 20
118.6318680996878
 30
0.0
 41
1.041636008661477
  0
LINE
  5
228
330
6C
100
AcDbEntity
  8
Visible (ISO)
100
AcDbLine
 10
110.406682571667
 20
118.6318680996863
 30
0.0
 11
110.406682571667
 21
122.8818680996885
 31
0.0
  0
SPLINE
  5
229
330
6C
100
AcDbEntity
  8
Visible (ISO)
100
AcDbSpline
210
0.0
220
0.0
230
1.0
 70
    12
 71
     2
 72
     6
 73
     3
 74
     0
 42
0.0000000001
 43
0.0000000001
 40
0.836552425408885
 40
0.836552425408885
 40
0.836552425408885
 40
1.37963372674725
 40
1.37963372674725
 40
1.37963372674725
 10
110.406682571667
 20
122.8818680996885
 30
0.0
 41
1.0
 10
110.406682571667
 20
124.8542999640245
 30
0.0
 41
1.059342642552004
 10
109.6474931931122
 20
127.1318680996893
 30
0.0
 41
1.041636008661477
  0
LINE
  5
22A
330
6C
100
AcDbEntity
  8
Visible (ISO)
100
AcDbLine
 10
110.406682571667
 20
122.8818680996885
 30
0.0
 11
110.406682571667
 21
131.3818680996885
 31
0.0
  0
SPLINE
  5
22B
330
6C
100
AcDbEntity
  8
Visible (ISO)
100
AcDbSpline
210
0.0
220
0.0
230
1.0
 70
    12
 71
     2
 72
     6
 73
     3
 74
     0
 42
0.0000000001
 43
0.0000000001
 40
0.2934711240705186
 40
0.2934711240705186
 40
0.2934711240705186
 40
0.8365524254088846
 40
0.8365524254088846
 40
0.8365524254088846
 10
109.6474931931122
 20
127.1318680996893
 30
0.0
 41
1.041636008661481
 10
110.406682571667
 20
129.4094362353533
 30
0.0
 41
1.059342642552012
 10
110.406682571667
 20
131.3818680996885
 30
0.0
 41
1.0
  0
SPLINE
  5
22C
330
6C
100
AcDbEntity
  8
Visible (ISO)
100
AcDbSpline
210
0.0
220
0.0
230
1.0
 70
    12
 71
     2
 72
     6
 73
     3
 74
     0
 42
0.0000000001
 43
0.0000000001
 40
0.8365524254088846
 40
0.8365524254088846
 40
0.8365524254088846
 40
1.37963372674725
 40
1.37963372674725
 40
1.37963372674725
 10
110.406682571667
 20
131.3818680996885
 30
0.0
 41
1.0
 10
110.406682571667
 20
133.3542999640238
 30
0.0
 41
1.059342642552004
 10
109.6474931931122
 20
135.6318680996879
 30
0.0
 41
1.041636008661475
  0
LINE
  5
22D
330
6C
100
AcDbEntity
  8
Visible (ISO)
100
AcDbLine
 10
110.406682571667
 20
131.3818680996885
 30
0.0
 11
110.406682571667
 21
135.6318680996864
 31
0.0
  0
SPLINE
  5
22E
330
6C
100
AcDbEntity
  8
Visible (ISO)
100
AcDbSpline
210
0.0
220
0.0
230
1.0
 70
    28
 71
     2
 72
     6
 73
     3
 74
     0
 42
0.0000000001
 43
0.0000000001
 40
0.2934711240705211
 40
0.2934711240705211
 40
0.2934711240705211
 40
0.8365524254088846
 40
0.8365524254088846
 40
0.8365524254088846
 10
109.6474931931122
 20
135.6318680996879
 30
0.0
 41
1.041636008661469
 10
110.406682571667
 20
135.6318680996871
 30
0.0
 41
1.059342642551992
 10
110.406682571667
 20
135.6318680996864
 30
0.0
 41
1.0
  0
LINE
  5
22F
330
6C
100
AcDbEntity
  8
Visible (ISO)
100
AcDbLine
 10
98.16587195022188
 20
135.6318680996879
 30
0.0
 11
109.6474931931122
 21
135.6318680996879
 31
0.0
  0
LINE
  5
230
330
6C
100
AcDbEntity
  8
Visible (ISO)
100
AcDbLine
 10
98.16587195022194
 20
127.1318680996893
 30
0.0
 11
109.6474931931122
 21
127.1318680996893
 31
0.0
  0
LINE
  5
231
330
6C
100
AcDbEntity
  8
Visible (ISO)
100
AcDbLine
 10
98.16587195022194
 20
118.6318680996878
 30
0.0
 11
109.6474931931122
 21
118.6318680996878
 31
0.0
  0
SPLINE
  5
232
330
6C
100
AcDbEntity
  8
Visible (ISO)
100
AcDbSpline
210
0.0
220
0.0
230
1.0
 70
    12
 71
     2
 72
     6
 73
     3
 74
     0
 42
0.0000000001
 43
0.0000000001
 40
0.2934711240705226
 40
0.2934711240705226
 40
0.2934711240705226
 40
0.8365524254088853
 40
0.8365524254088853
 40
0.8365524254088853
 10
98.16587195022188
 20
135.6318680996879
 30
0.0
 41
1.041636008661464
 10
97.4066825716671
 20
133.3542999640238
 30
0.0
 41
1.059342642551986
 10
97.40668257166705
 20
131.3818680996885
 30
0.0
 41
1.0
  0
SPLINE
  5
233
330
6C
100
AcDbEntity
  8
Visible (ISO)
100
AcDbSpline
210
0.0
220
0.0
230
1.0
 70
    12
 71
     2
 72
     6
 73
     3
 74
     0
 42
0.0000000001
 43
0.0000000001
 40
0.8365524254088853
 40
0.8365524254088853
 40
0.8365524254088853
 40
1.379633726747248
 40
1.379633726747248
 40
1.379633726747248
 10
97.40668257166705
 20
131.3818680996885
 30
0.0
 41
1.0
 10
97.4066825716671
 20
129.4094362353534
 30
0.0
 41
1.059342642551984
 10
98.16587195022194
 20
127.1318680996893
 30
0.0
 41
1.041636008661461
  0
SPLINE
  5
234
330
6C
100
AcDbEntity
  8
Visible (ISO)
100
AcDbSpline
210
0.0
220
0.0
230
1.0
 70
    28
 71
     2
 72
     6
 73
     3
 74
     0
 42
0.0000000001
 43
0.0000000001
 40
0.8365524254088857
 40
0.8365524254088857
 40
0.8365524254088857
 40
1.379633726747248
 40
1.379633726747248
 40
1.379633726747248
 10
97.40668257166705
 20
135.6318680996864
 30
0.0
 41
1.0
 10
97.4066825716671
 20
135.6318680996871
 30
0.0
 41
1.059342642551986
 10
98.16587195022188
 20
135.6318680996879
 30
0.0
 41
1.041636008661464
  0
LINE
  5
235
330
6C
100
AcDbEntity
  8
Visible (ISO)
100
AcDbLine
 10
97.40668257166705
 20
135.6318680996864
 30
0.0
 11
97.40668257166705
 21
131.3818680996885
 31
0.0
  0
LINE
  5
236
330
6C
100
AcDbEntity
  8
Visible (ISO)
100
AcDbLine
 10
97.40668257166705
 20
131.3818680996885
 30
0.0
 11
97.40668257166705
 21
122.8818680996885
 31
0.0
  0
SPLINE
  5
237
330
6C
100
AcDbEntity
  8
Visible (ISO)
100
AcDbSpline
210
0.0
220
0.0
230
1.0
 70
    12
 71
     2
 72
     6
 73
     3
 74
     0
 42
0.0000000001
 43
0.0000000001
 40
0.2934711240705224
 40
0.2934711240705224
 40
0.2934711240705224
 40
0.836552425408885
 40
0.836552425408885
 40
0.836552425408885
 10
98.16587195022194
 20
127.1318680996893
 30
0.0
 41
1.041636008661464
 10
97.4066825716671
 20
124.8542999640245
 30
0.0
 41
1.059342642551986
 10
97.40668257166705
 20
122.8818680996885
 30
0.0
 41
1.0
  0
SPLINE
  5
238
330
6C
100
AcDbEntity
  8
Visible (ISO)
100
AcDbSpline
210
0.0
220
0.0
230
1.0
 70
    12
 71
     2
 72
     6
 73
     3
 74
     0
 42
0.0000000001
 43
0.0000000001
 40
0.836552425408885
 40
0.836552425408885
 40
0.836552425408885
 40
1.379633726747248
 40
1.379633726747248
 40
1.379633726747248
 10
97.40668257166705
 20
122.8818680996885
 30
0.0
 41
1.0
 10
97.4066825716671
 20
120.9094362353527
 30
0.0
 41
1.059342642551986
 10
98.16587195022194
 20
118.6318680996878
 30
0.0
 41
1.041636008661464
  0
LINE
  5
239
330
6C
100
AcDbEntity
  8
Visible (ISO)
100
AcDbLine
 10
97.40668257166705
 20
122.8818680996886
 30
0.0
 11
97.40668257166705
 21
118.6318680996863
 31
0.0
  0
SPLINE
  5
23A
330
6C
100
AcDbEntity
  8
Visible (ISO)
100
AcDbSpline
210
0.0
220
0.0
230
1.0
 70
    28
 71
     2
 72
     6
 73
     3
 74
     0
 42
0.0000000001
 43
0.0000000001
 40
0.2934711240705217
 40
0.2934711240705217
 40
0.2934711240705217
 40
0.836552425408885
 40
0.836552425408885
 40
0.836552425408885
 10
98.16587195022194
 20
118.6318680996878
 30
0.0
 41
1.041636008661465
 10
97.4066825716671
 20
118.631868099687
 30
0.0
 41
1.05934264255199
 10
97.40668257166705
 20
118.6318680996863
 30
0.0
 41
1.0
  0
LINE
  5
23B
330
6C
100
AcDbEntity
  8
Visible (ISO)
100
AcDbLine
 10
127.156682571667
 20
162.1318680996863
 30
0.0
 11
116.656682571667
 21
162.1318680996863
 31
0.0
  0
LINE
  5
23C
330
6C
100
AcDbEntity
  8
Visible (ISO)
100
AcDbLine
 10
115.4507204574869
 20
160.0430804459233
 30
0.0
 11
128.3626446858471
 21
160.0430804459233
 31
0.0
  0
LINE
  5
23D
330
6C
100
AcDbEntity
  8
Visible (ISO)
100
AcDbLine
 10
127.156682571667
 20
162.1318680996863
 30
0.0
 11
128.3626446858471
 21
160.0430804459233
 31
0.0
  0
LINE
  5
23E
330
6C
100
AcDbEntity
  8
Visible (ISO)
100
AcDbLine
 10
116.656682571667
 20
162.1318680996863
 30
0.0
 11
115.4507204574869
 21
160.0430804459233
 31
0.0
  0
LINE
  5
23F
330
6C
100
AcDbEntity
  8
Visible (ISO)
100
AcDbLine
 10
126.156682571667
 20
142.1318680996885
 30
0.0
 11
130.406682571667
 21
142.1318680996864
 31
0.0
  0
LINE
  5
240
330
6C
100
AcDbEntity
  8
Visible (ISO)
100
AcDbLine
 10
117.6566825716671
 20
142.1318680996886
 30
0.0
 11
126.156682571667
 21
142.1318680996885
 31
0.0
  0
LINE
  5
241
330
6C
100
AcDbEntity
  8
Visible (ISO)
100
AcDbLine
 10
113.406682571667
 20
142.1318680996864
 30
0.0
 11
117.6566825716671
 21
142.1318680996885
 31
0.0
  0
SPLINE
  5
242
330
6C
100
AcDbEntity
  8
Visible (ISO)
100
AcDbSpline
210
0.0
220
0.0
230
1.0
 70
    12
 71
     2
 72
     6
 73
     3
 74
     0
 42
0.0000000001
 43
0.0000000001
 40
0.2934711240705219
 40
0.2934711240705219
 40
0.2934711240705219
 40
0.8365524254088857
 40
0.8365524254088857
 40
0.8365524254088857
 10
113.406682571667
 20
142.8910574782427
 30
0.0
 41
1.041636008661464
 10
115.6842507073315
 20
142.1318680996883
 30
0.0
 41
1.05934264255199
 10
117.6566825716671
 20
142.1318680996885
 30
0.0
 41
1.0
  0
SPLINE
  5
243
330
6C
100
AcDbEntity
  8
Visible (ISO)
100
AcDbSpline
210
0.0
220
0.0
230
1.0
 70
    28
 71
     2
 72
     6
 73
     3
 74
     0
 42
0.0000000001
 43
0.0000000001
 40
0.8365524254088853
 40
0.8365524254088853
 40
0.8365524254088853
 40
1.379633726747248
 40
1.379633726747248
 40
1.379633726747248
 10
113.406682571667
 20
142.1318680996864
 30
0.0
 41
1.0
 10
113.406682571667
 20
142.1318680996871
 30
0.0
 41
1.059342642551986
 10
113.406682571667
 20
142.8910574782427
 30
0.0
 41
1.041636008661464
  0
SPLINE
  5
244
330
6C
100
AcDbEntity
  8
Visible (ISO)
100
AcDbSpline
210
0.0
220
0.0
230
1.0
 70
    12
 71
     2
 72
     6
 73
     3
 74
     0
 42
0.0000000001
 43
0.0000000001
 40
0.2934711240705223
 40
0.2934711240705223
 40
0.2934711240705223
 40
0.836552425408885
 40
0.836552425408885
 40
0.836552425408885
 10
121.906682571667
 20
142.8910574782442
 30
0.0
 41
1.041636008661464
 10
124.1842507073315
 20
142.131868099689
 30
0.0
 41
1.059342642551986
 10
126.156682571667
 20
142.1318680996886
 30
0.0
 41
1.0
  0
SPLINE
  5
245
330
6C
100
AcDbEntity
  8
Visible (ISO)
100
AcDbSpline
210
0.0
220
0.0
230
1.0
 70
    12
 71
     2
 72
     6
 73
     3
 74
     0
 42
0.0000000001
 43
0.0000000001
 40
0.8365524254088857
 40
0.8365524254088857
 40
0.8365524254088857
 40
1.379633726747248
 40
1.379633726747248
 40
1.379633726747248
 10
117.6566825716671
 20
142.1318680996885
 30
0.0
 41
1.0
 10
119.6291144360026
 20
142.1318680996889
 30
0.0
 41
1.059342642551986
 10
121.906682571667
 20
142.8910574782442
 30
0.0
 41
1.041636008661461
  0
SPLINE
  5
246
330
6C
100
AcDbEntity
  8
Visible (ISO)
100
AcDbSpline
210
0.0
220
0.0
230
1.0
 70
    12
 71
     2
 72
     6
 73
     3
 74
     0
 42
0.0000000001
 43
0.0000000001
 40
0.836552425408885
 40
0.836552425408885
 40
0.836552425408885
 40
1.379633726747248
 40
1.379633726747248
 40
1.379633726747248
 10
126.156682571667
 20
142.1318680996886
 30
0.0
 41
1.0
 10
128.1291144360025
 20
142.1318680996883
 30
0.0
 41
1.059342642551992
 10
130.406682571667
 20
142.8910574782427
 30
0.0
 41
1.041636008661466
  0
SPLINE
  5
247
330
6C
100
AcDbEntity
  8
Visible (ISO)
100
AcDbSpline
210
0.0
220
0.0
230
1.0
 70
    28
 71
     2
 72
     6
 73
     3
 74
     0
 42
0.0000000001
 43
0.0000000001
 40
0.2934711240705219
 40
0.2934711240705219
 40
0.2934711240705219
 40
0.8365524254088846
 40
0.8365524254088846
 40
0.8365524254088846
 10
130.406682571667
 20
142.8910574782427
 30
0.0
 41
1.041636008661464
 10
130.406682571667
 20
142.1318680996871
 30
0.0
 41
1.059342642551986
 10
130.406682571667
 20
142.1318680996864
 30
0.0
 41
1.0
  0
LINE
  5
248
330
6C
100
AcDbEntity
  8
Visible (ISO)
100
AcDbLine
 10
130.406682571667
 20
142.8910574782427
 30
0.0
 11
130.406682571667
 21
151.372678721133
 31
0.0
  0
LINE
  5
249
330
6C
100
AcDbEntity
  8
Visible (ISO)
100
AcDbLine
 10
121.906682571667
 20
142.8910574782442
 30
0.0
 11
121.906682571667
 21
151.3726787211344
 31
0.0
  0
LINE
  5
24A
330
6C
100
AcDbEntity
  8
Visible (ISO)
100
AcDbLine
 10
113.406682571667
 20
142.8910574782427
 30
0.0
 11
113.406682571667
 21
151.372678721133
 31
0.0
  0
SPLINE
  5
24B
330
6C
100
AcDbEntity
  8
Visible (ISO)
100
AcDbSpline
210
0.0
220
0.0
230
1.0
 70
    12
 71
     2
 72
     6
 73
     3
 74
     0
 42
0.0000000001
 43
0.0000000001
 40
0.2934711240705225
 40
0.2934711240705225
 40
0.2934711240705225
 40
0.836552425408885
 40
0.836552425408885
 40
0.836552425408885
 10
130.406682571667
 20
151.372678721133
 30
0.0
 41
1.041636008661464
 10
128.1291144360025
 20
152.1318680996881
 30
0.0
 41
1.059342642551987
 10
126.156682571667
 20
152.1318680996885
 30
0.0
 41
1.0
  0
SPLINE
  5
24C
330
6C
100
AcDbEntity
  8
Visible (ISO)
100
AcDbSpline
210
0.0
220
0.0
230
1.0
 70
    12
 71
     2
 72
     6
 73
     3
 74
     0
 42
0.0000000001
 43
0.0000000001
 40
0.836552425408885
 40
0.836552425408885
 40
0.836552425408885
 40
1.379633726747248
 40
1.379633726747248
 40
1.379633726747248
 10
126.156682571667
 20
152.1318680996885
 30
0.0
 41
1.0
 10
124.1842507073315
 20
152.1318680996888
 30
0.0
 41
1.059342642551994
 10
121.906682571667
 20
151.3726787211344
 30
0.0
 41
1.041636008661469
  0
SPLINE
  5
24D
330
6C
100
AcDbEntity
  8
Visible (ISO)
100
AcDbSpline
210
0.0
220
0.0
230
1.0
 70
    28
 71
     2
 72
     6
 73
     3
 74
     0
 42
0.0000000001
 43
0.0000000001
 40
0.836552425408885
 40
0.836552425408885
 40
0.836552425408885
 40
1.379633726747245
 40
1.379633726747245
 40
1.379633726747245
 10
130.406682571667
 20
152.1318680996864
 30
0.0
 41
1.0
 10
130.406682571667
 20
152.131868099687
 30
0.0
 41
1.059342642551986
 10
130.406682571667
 20
151.372678721133
 30
0.0
 41
1.041636008661464
  0
LINE
  5
24E
330
6C
100
AcDbEntity
  8
Visible (ISO)
100
AcDbLine
 10
130.406682571667
 20
152.1318680996864
 30
0.0
 11
126.156682571667
 21
152.1318680996885
 31
0.0
  0
LINE
  5
24F
330
6C
100
AcDbEntity
  8
Visible (ISO)
100
AcDbLine
 10
126.156682571667
 20
152.1318680996885
 30
0.0
 11
117.6566825716671
 21
152.1318680996885
 31
0.0
  0
SPLINE
  5
250
330
6C
100
AcDbEntity
  8
Visible (ISO)
100
AcDbSpline
210
0.0
220
0.0
230
1.0
 70
    12
 71
     2
 72
     6
 73
     3
 74
     0
 42
0.0000000001
 43
0.0000000001
 40
0.2934711240705223
 40
0.2934711240705223
 40
0.2934711240705223
 40
0.8365524254088853
 40
0.8365524254088853
 40
0.8365524254088853
 10
121.906682571667
 20
151.3726787211344
 30
0.0
 41
1.041636008661464
 10
119.6291144360026
 20
152.1318680996888
 30
0.0
 41
1.059342642551986
 10
117.656682571667
 20
152.1318680996885
 30
0.0
 41
1.0
  0
SPLINE
  5
251
330
6C
100
AcDbEntity
  8
Visible (ISO)
100
AcDbSpline
210
0.0
220
0.0
230
1.0
 70
    12
 71
     2
 72
     6
 73
     3
 74
     0
 42
0.0000000001
 43
0.0000000001
 40
0.8365524254088853
 40
0.8365524254088853
 40
0.8365524254088853
 40
1.379633726747248
 40
1.379633726747248
 40
1.379633726747248
 10
117.656682571667
 20
152.1318680996885
 30
0.0
 41
1.0
 10
115.6842507073315
 20
152.1318680996881
 30
0.0
 41
1.059342642551992
 10
113.406682571667
 20
151.372678721133
 30
0.0
 41
1.041636008661466
  0
LINE
  5
252
330
6C
100
AcDbEntity
  8
Visible (ISO)
100
AcDbLine
 10
117.6566825716671
 20
152.1318680996885
 30
0.0
 11
113.406682571667
 21
152.1318680996864
 31
0.0
  0
SPLINE
  5
253
330
6C
100
AcDbEntity
  8
Visible (ISO)
100
AcDbSpline
210
0.0
220
0.0
230
1.0
 70
    28
 71
     2
 72
     6
 73
     3
 74
     0
 42
0.0000000001
 43
0.0000000001
 40
0.2934711240705226
 40
0.2934711240705226
 40
0.2934711240705226
 40
0.8365524254088857
 40
0.8365524254088857
 40
0.8365524254088857
 10
113.406682571667
 20
151.372678721133
 30
0.0
 41
1.041636008661464
 10
113.406682571667
 20
152.131868099687
 30
0.0
 41
1.059342642551987
 10
113.406682571667
 20
152.1318680996864
 30
0.0
 41
1.0
  0
LINE
  5
254
330
6C
100
AcDbEntity
  8
Visible (ISO)
100
AcDbLine
 10
128.3626446858471
 20
160.0430804459233
 30
0.0
 11
128.609870071667
 21
152.1318680996864
 31
0.0
  0
LINE
  5
255
330
6C
100
AcDbEntity
  8
Visible (ISO)
100
AcDbLine
 10
115.4507204574869
 20
160.0430804459233
 30
0.0
 11
115.203495071667
 21
152.1318680996864
 31
0.0
  0
LINE
  5
256
330
6C
100
AcDbEntity
  8
Visible Narrow (ISO)
100
AcDbLine
 10
127.7534522049104
 20
152.1318680996864
 30
0.0
 11
127.4572192286422
 21
161.6113233402685
 31
0.0
  0
LINE
  5
257
330
6C
100
AcDbEntity
  8
Visible Narrow (ISO)
100
AcDbLine
 10
116.3561459146919
 20
161.6113233402685
 30
0.0
 11
116.0599129384237
 21
152.1318680996864
 31
0.0
  0
CIRCLE
  5
258
330
6C
100
AcDbEntity
  8
Visible (ISO)
100
AcDbCircle
 10
201.314094762105
 20
44.50660583148681
 30
0.0
 40
3.0
  0
CIRCLE
  5
259
330
6C
100
AcDbEntity
  8
Visible (ISO)
100
AcDbCircle
 10
201.3140947621081
 20
44.50660583148681
 30
0.0
 40
5.663702418655371
  0
CIRCLE
  5
25A
330
6C
100
AcDbEntity
  8
Visible (ISO)
100
AcDbCircle
 10
201.3140947621087
 20
44.50660583148681
 30
0.0
 40
6.75
  0
CIRCLE
  5
25B
330
6C
100
AcDbEntity
  8
Visible (ISO)
100
AcDbCircle
 10
201.3140947621055
 20
44.50660583148681
 30
0.0
 40
5.378749999999997
  0
CIRCLE
  5
25C
330
6C
100
AcDbEntity
  8
Visible (ISO)
100
AcDbCircle
 10
201.3140947621085
 20
44.50660583148681
 30
0.0
 40
8.25
  0
CIRCLE
  5
25D
330
6C
100
AcDbEntity
  8
Visible (ISO)
100
AcDbCircle
 10
201.3140947621087
 20
44.50660583148681
 30
0.0
 40
7.75
  0
SPLINE
  5
25E
330
6C
100
AcDbEntity
  8
Visible (ISO)
100
AcDbSpline
210
0.0
220
0.0
230
1.0
 70
    28
 71
     2
 72
     6
 73
     3
 74
     0
 42
0.0000000001
 43
0.0000000001
 40
0.4256073096284686
 40
0.4256073096284686
 40
0.4256073096284686
 40
0.8365524254088846
 40
0.8365524254088846
 40
0.8365524254088846
 10
192.8140947621047
 20
40.85797595165522
 30
0.0
 41
1.045691116018826
 10
192.8140947621048
 20
42.7593746214266
 30
0.0
 41
1.044904085362813
 10
192.8140947621048
 20
44.50660583148681
 30
0.0
 41
1.0
  0
ARC
  5
25F
330
6C
100
AcDbEntity
  8
Visible (ISO)
100
AcDbCircle
 10
201.3140947621047
 20
44.50660583148676
 30
0.0
 40
9.24999999999992
100
AcDbArc
 50
203.2314565050076
 51
216.7685434949925
  0
ARC
  5
260
330
6C
100
AcDbEntity
  8
Visible (ISO)
100
AcDbCircle
 10
201.3140947621049
 20
44.50660583148681
 30
0.0
 40
8.499999999999987
100
AcDbArc
 50
180.0
 51
240.0
  0
ARC
  5
261
330
6C
100
AcDbEntity
  8
Visible (ISO)
100
AcDbCircle
 10
201.3140947621046
 20
44.50660583148686
 30
0.0
 40
9.249999999999916
100
AcDbArc
 50
143.2314565050075
 51
156.7685434949924
  0
SPLINE
  5
262
330
6C
100
AcDbEntity
  8
Visible (ISO)
100
AcDbSpline
210
0.0
220
0.0
230
1.0
 70
    28
 71
     2
 72
     6
 73
     3
 74
     0
 42
0.0000000001
 43
0.0000000001
 40
0.8365524254088846
 40
0.8365524254088846
 40
0.8365524254088846
 40
1.2474975411893
 40
1.2474975411893
 40
1.2474975411893
 10
192.8140947621048
 20
44.50660583148681
 30
0.0
 41
1.0
 10
192.8140947621048
 20
46.25383704154704
 30
0.0
 41
1.044904085362809
 10
192.8140947621047
 20
48.15523571131843
 30
0.0
 41
1.045691116018822
  0
ARC
  5
263
330
6C
100
AcDbEntity
  8
Visible (ISO)
100
AcDbCircle
 10
201.3140947621049
 20
44.50660583148681
 30
0.0
 40
8.499999999999996
100
AcDbArc
 50
120.0
 51
180.0
  0
ARC
  5
264
330
6C
100
AcDbEntity
  8
Visible (ISO)
100
AcDbCircle
 10
201.3140947621049
 20
44.50660583148681
 30
0.0
 40
8.499999999999996
100
AcDbArc
 50
60.0
 51
120.0
  0
SPLINE
  5
265
330
6C
100
AcDbEntity
  8
Visible (ISO)
100
AcDbSpline
210
0.0
220
0.0
230
1.0
 70
    28
 71
     2
 72
     6
 73
     3
 74
     0
 42
0.0000000001
 43
0.0000000001
 40
0.4256073096284699
 40
0.4256073096284699
 40
0.4256073096284699
 40
0.8365524254088839
 40
0.8365524254088839
 40
0.8365524254088839
 10
209.8140947621048
 20
48.15523571131842
 30
0.0
 41
1.045691116018829
 10
209.8140947621049
 20
46.25383704154704
 30
0.0
 41
1.044904085362813
 10
209.8140947621049
 20
44.50660583148681
 30
0.0
 41
1.0
  0
ARC
  5
266
330
6C
100
AcDbEntity
  8
Visible (ISO)
100
AcDbCircle
 10
201.3140947621047
 20
44.50660583148681
 30
0.0
 40
9.250000000000015
100
AcDbArc
 50
23.23145650500752
 51
36.76854349499254
  0
ARC
  5
267
330
6C
100
AcDbEntity
  8
Visible (ISO)
100
AcDbCircle
 10
201.3140947621049
 20
44.50660583148681
 30
0.0
 40
8.499999999999987
100
AcDbArc
 50
0.0
 51
60.0
  0
SPLINE
  5
268
330
6C
100
AcDbEntity
  8
Visible (ISO)
100
AcDbSpline
210
0.0
220
0.0
230
1.0
 70
    28
 71
     2
 72
     6
 73
     3
 74
     0
 42
0.0000000001
 43
0.0000000001
 40
0.8365524254088839
 40
0.8365524254088839
 40
0.8365524254088839
 40
1.247497541189297
 40
1.247497541189297
 40
1.247497541189297
 10
209.8140947621049
 20
44.50660583148681
 30
0.0
 41
1.0
 10
209.8140947621049
 20
42.7593746214266
 30
0.0
 41
1.044904085362817
 10
209.8140947621048
 20
40.85797595165522
 30
0.0
 41
1.04569111601883
  0
ARC
  5
269
330
6C
100
AcDbEntity
  8
Visible (ISO)
100
AcDbCircle
 10
201.3140947621049
 20
44.50660583148681
 30
0.0
 40
8.499999999999996
100
AcDbArc
 50
300.0
 51
0.0
  0
ARC
  5
26A
330
6C
100
AcDbEntity
  8
Visible (ISO)
100
AcDbCircle
 10
201.3140947621046
 20
44.5066058314869
 30
0.0
 40
9.250000000000159
100
AcDbArc
 50
323.2314565050077
 51
336.7685434949923
  0
ARC
  5
26B
330
6C
100
AcDbEntity
  8
Visible (ISO)
100
AcDbCircle
 10
201.3140947621049
 20
44.50660583148681
 30
0.0
 40
8.499999999999996
100
AcDbArc
 50
240.0
 51
299.9999999999998
  0
SPLINE
  5
26C
330
6C
100
AcDbEntity
  8
Visible (ISO)
100
AcDbSpline
210
0.0
220
0.0
230
1.0
 70
    28
 71
     2
 72
     6
 73
     3
 74
     0
 42
0.0000000001
 43
0.0000000001
 40
0.8365524254088846
 40
0.8365524254088846
 40
0.8365524254088846
 40
1.2474975411893
 40
1.2474975411893
 40
1.2474975411893
 10
197.0640947621048
 20
37.14538989931912
 30
0.0
 41
1.0
 10
195.5509481479076
 20
38.01900550434922
 30
0.0
 41
1.044904085362819
 10
193.9042885971636
 20
38.96970483923491
 30
0.0
 41
1.045691116018833
  0
SPLINE
  5
26D
330
6C
100
AcDbEntity
  8
Visible (ISO)
100
AcDbSpline
210
0.0
220
0.0
230
1.0
 70
    28
 71
     2
 72
     6
 73
     3
 74
     0
 42
0.0000000001
 43
0.0000000001
 40
0.4256073096284686
 40
0.4256073096284686
 40
0.4256073096284686
 40
0.8365524254088844
 40
0.8365524254088844
 40
0.8365524254088844
 10
193.9042885971636
 20
50.04350682373875
 30
0.0
 41
1.045691116018839
 10
195.5509481479076
 20
50.99420615862443
 30
0.0
 41
1.044904085362823
 10
197.0640947621048
 20
51.86782176365454
 30
0.0
 41
1.0
  0
SPLINE
  5
26E
330
6C
100
AcDbEntity
  8
Visible (ISO)
100
AcDbSpline
210
0.0
220
0.0
230
1.0
 70
    28
 71
     2
 72
     6
 73
     3
 74
     0
 42
0.0000000001
 43
0.0000000001
 40
0.4256073096284702
 40
0.4256073096284702
 40
0.4256073096284702
 40
0.8365524254088839
 40
0.8365524254088839
 40
0.8365524254088839
 10
202.4042885971636
 20
53.69213670357035
 30
0.0
 41
1.04569111601883
 10
204.0509481479077
 20
52.74143736868467
 30
0.0
 41
1.044904085362817
 10
205.5640947621049
 20
51.86782176365458
 30
0.0
 41
1.0
  0
ARC
  5
26F
330
6C
100
AcDbEntity
  8
Visible (ISO)
100
AcDbCircle
 10
201.3140947621047
 20
44.50660583148681
 30
0.0
 40
9.250000000000023
100
AcDbArc
 50
83.23145650500768
 51
96.76854349499231
  0
SPLINE
  5
270
330
6C
100
AcDbEntity
  8
Visible (ISO)
100
AcDbSpline
210
0.0
220
0.0
230
1.0
 70
    28
 71
     2
 72
     6
 73
     3
 74
     0
 42
0.0000000001
 43
0.0000000001
 40
0.8365524254088844
 40
0.8365524254088844
 40
0.8365524254088844
 40
1.2474975411893
 40
1.2474975411893
 40
1.2474975411893
 10
197.0640947621048
 20
51.86782176365454
 30
0.0
 41
1.0
 10
198.5772413763021
 20
52.74143736868467
 30
0.0
 41
1.044904085362819
 10
200.2239009270458
 20
53.69213670357036
 30
0.0
 41
1.045691116018834
  0
SPLINE
  5
271
330
6C
100
AcDbEntity
  8
Visible (ISO)
100
AcDbSpline
210
0.0
220
0.0
230
1.0
 70
    28
 71
     2
 72
     6
 73
     3
 74
     0
 42
0.0000000001
 43
0.0000000001
 40
0.8365524254088839
 40
0.8365524254088839
 40
0.8365524254088839
 40
1.247497541189297
 40
1.247497541189297
 40
1.247497541189297
 10
205.5640947621049
 20
51.86782176365458
 30
0.0
 41
1.0
 10
207.077241376302
 20
50.99420615862445
 30
0.0
 41
1.044904085362814
 10
208.7239009270458
 20
50.04350682373877
 30
0.0
 41
1.04569111601883
  0
SPLINE
  5
272
330
6C
100
AcDbEntity
  8
Visible (ISO)
100
AcDbSpline
210
0.0
220
0.0
230
1.0
 70
    28
 71
     2
 72
     6
 73
     3
 74
     0
 42
0.0000000001
 43
0.0000000001
 40
0.4256073096284691
 40
0.4256073096284691
 40
0.4256073096284691
 40
0.8365524254088837
 40
0.8365524254088837
 40
0.8365524254088837
 10
208.7239009270458
 20
38.96970483923491
 30
0.0
 41
1.045691116018833
 10
207.077241376302
 20
38.01900550434922
 30
0.0
 41
1.044904085362819
 10
205.5640947621049
 20
37.1453898993191
 30
0.0
 41
1.0
  0
SPLINE
  5
273
330
6C
100
AcDbEntity
  8
Visible (ISO)
100
AcDbSpline
210
0.0
220
0.0
230
1.0
 70
    28
 71
     2
 72
     6
 73
     3
 74
     0
 42
0.0000000001
 43
0.0000000001
 40
0.8365524254088837
 40
0.8365524254088837
 40
0.8365524254088837
 40
1.247497541189299
 40
1.247497541189299
 40
1.247497541189299
 10
205.5640947621049
 20
37.1453898993191
 30
0.0
 41
1.0
 10
204.0509481479077
 20
36.271774294289
 30
0.0
 41
1.044904085362823
 10
202.4042885971636
 20
35.3210749594033
 30
0.0
 41
1.045691116018837
  0
SPLINE
  5
274
330
6C
100
AcDbEntity
  8
Visible (ISO)
100
AcDbSpline
210
0.0
220
0.0
230
1.0
 70
    28
 71
     2
 72
     6
 73
     3
 74
     0
 42
0.0000000001
 43
0.0000000001
 40
0.4256073096284692
 40
0.4256073096284692
 40
0.4256073096284692
 40
0.8365524254088846
 40
0.8365524254088846
 40
0.8365524254088846
 10
200.2239009270458
 20
35.3210749594033
 30
0.0
 41
1.045691116018834
 10
198.5772413763021
 20
36.271774294289
 30
0.0
 41
1.044904085362819
 10
197.0640947621048
 20
37.14538989931912
 30
0.0
 41
1.0
  0
ARC
  5
275
330
6C
100
AcDbEntity
  8
Visible (ISO)
100
AcDbCircle
 10
201.3140947621047
 20
44.50660583148681
 30
0.0
 40
9.25
100
AcDbArc
 50
263.2314565050076
 51
276.7685434949923
  0
LINE
  5
276
330
6C
100
AcDbEntity
  8
Visible (ISO)
100
AcDbLine
 10
215.8140947621014
 20
36.00660583148683
 30
0.0
 11
215.8140947621014
 21
53.00660583148681
 31
0.0
  0
SPLINE
  5
277
330
6C
100
AcDbEntity
  8
Visible (ISO)
100
AcDbSpline
210
0.0
220
0.0
230
1.0
 70
     8
 71
     3
 72
    10
 73
     6
 74
     0
 42
0.0000000001
 43
0.0000000001
 40
0.4684177548466585
 40
0.4684177548466585
 40
0.4684177548466585
 40
0.4684177548466585
 40
0.6993240282055356
 40
0.6993240282055356
 40
0.9303035210404576
 40
0.9303035210404576
 40
0.9303035210607802
 40
0.9303035210607802
 10
205.4865057388663
 20
51.91261780566011
 30
0.0
 10
205.9920845803276
 20
52.19745199529061
 30
0.0
 10
206.4428084384849
 20
52.48729701847857
 30
0.0
 10
207.0544840242504
 20
52.89348620177684
 30
0.0
 10
207.2140947621017
 20
53.00660583148681
 30
0.0
 10
207.2140947621015
 20
53.00660583148681
 30
0.0
  0
LINE
  5
278
330
6C
100
AcDbEntity
  8
Visible (ISO)
100
AcDbLine
 10
207.2140947621015
 20
53.00660583148681
 30
0.0
 11
215.8140947621014
 21
53.00660583148681
 31
0.0
  0
LINE
  5
279
330
6C
100
AcDbEntity
  8
Visible (ISO)
100
AcDbLine
 10
203.591662897766
 20
36.00660583148683
 30
0.0
 11
215.8140947621014
 21
36.00660583148683
 31
0.0
  0
LINE
  5
27A
330
6C
100
AcDbEntity
  8
Visible (ISO)
100
AcDbLine
 10
216.3140947621015
 20
36.50660583148682
 30
0.0
 11
215.8140947621014
 21
36.00660583148683
 31
0.0
  0
LINE
  5
27B
330
6C
100
AcDbEntity
  8
Visible (ISO)
100
AcDbLine
 10
216.3140947621015
 20
52.50660583148683
 30
0.0
 11
215.8140947621014
 21
53.00660583148681
 31
0.0
  0
LINE
  5
27C
330
6C
100
AcDbEntity
  8
Visible (ISO)
100
AcDbLine
 10
195.4140947621015
 20
50.91519381949169
 30
0.0
 11
195.4140947621015
 21
55.00660583148686
 31
0.0
  0
LINE
  5
27D
330
6C
100
AcDbEntity
  8
Visible (ISO)
100
AcDbLine
 10
207.2140947621015
 20
53.00660583148681
 30
0.0
 11
207.2140947621015
 21
55.00660583148686
 31
0.0
  0
CIRCLE
  5
27E
330
6C
100
AcDbEntity
  8
Visible Narrow (ISO)
100
AcDbCircle
 10
201.3140947621085
 20
44.50660583148681
 30
0.0
 40
6.569127875860302
  0
ARC
  5
27F
330
6C
100
AcDbEntity
  8
Visible (ISO)
100
AcDbCircle
 10
187.3140947621022
 20
71.02556135486451
 30
0.0
 40
5.999999999999982
100
AcDbArc
 50
180.0
 51
275.5801667844743
  0
LINE
  5
280
330
6C
100
AcDbEntity
  8
Visible (ISO)
100
AcDbLine
 10
181.3140947621025
 20
71.02556135486448
 30
0.0
 11
181.3140947621025
 21
73.00660583148682
 31
0.0
  0
ARC
  5
281
330
6C
100
AcDbEntity
  8
Visible (ISO)
100
AcDbCircle
 10
186.9251411978365
 20
75.00660583148683
 30
0.0
 40
9.999999999999976
100
AcDbArc
 50
275.5801667844742
 51
336.4218215217976
  0
LINE
  5
282
330
6C
100
AcDbEntity
  8
Visible (ISO)
100
AcDbLine
 10
179.1386579005658
 20
73.00660583148682
 30
0.0
 11
161.3140947621025
 21
73.00660583148682
 31
0.0
  0
LINE
  5
283
330
6C
100
AcDbEntity
  8
Visible (ISO)
100
AcDbLine
 10
181.3140947621025
 20
73.00660583148682
 30
0.0
 11
179.1386579005658
 21
73.00660583148682
 31
0.0
  0
ARC
  5
284
330
6C
100
AcDbEntity
  8
Visible (ISO)
100
AcDbCircle
 10
166.3140947621025
 20
66.00660583148682
 30
0.0
 40
4.999999999999983
100
AcDbArc
 50
180.0
 51
270.0
  0
LINE
  5
285
330
6C
100
AcDbEntity
  8
Visible (ISO)
100
AcDbLine
 10
166.3140947621025
 20
61.00660583148685
 30
0.0
 11
174.3140947621025
 21
61.00660583148685
 31
0.0
  0
ARC
  5
286
330
6C
100
AcDbEntity
  8
Visible (ISO)
100
AcDbCircle
 10
174.4219506532028
 20
16.00660583148325
 30
0.0
 40
45.00012925418731
100
AcDbArc
 50
83.98346803219537
 51
90.13732612271885
  0
SPLINE
  5
287
330
6C
100
AcDbEntity
  8
Visible (ISO)
100
AcDbSpline
210
0.0
220
0.0
230
1.0
 70
     8
 71
     3
 72
    14
 73
    10
 74
     0
 42
0.0000000001
 43
0.0000000001
 40
1.926793397172414
 40
1.926793397172414
 40
1.926793397172414
 40
1.926793397172414
 40
1.976560793808679
 40
1.976560793808679
 40
2.130659566433751
 40
2.130659566433751
 40
2.28132205146695
 40
2.28132205146695
 40
2.334003023765768
 40
2.334003023765768
 40
2.334003023765768
 40
2.334003023765768
 10
191.9888083726652
 20
57.866959582994
 30
0.0
 10
192.1549539218816
 20
57.82186781226528
 30
0.0
 10
192.3190899408917
 20
57.76574521419293
 30
0.0
 10
192.9735727185312
 20
57.49319214637965
 30
0.0
 10
193.4251539863911
 20
57.18254211706813
 30
0.0
 10
194.1310000486876
 20
56.47040646482452
 30
0.0
 10
194.4355902706885
 20
56.0240586146095
 30
0.0
 10
194.7089679537981
 20
55.36221418812541
 30
0.0
 10
194.767899866967
 20
55.18551789102874
 30
0.0
 10
194.8140947621031
 20
55.00660583148686
 30
0.0
  0
LINE
  5
288
330
6C
100
AcDbEntity
  8
Visible (ISO)
100
AcDbLine
 10
186.2085752716666
 20
59.43571027766065
 30
0.0
 11
191.9888083726652
 21
57.866959582994
 31
0.0
  0
SPLINE
  5
289
330
6C
100
AcDbEntity
  8
Visible (ISO)
100
AcDbSpline
210
0.0
220
0.0
230
1.0
 70
     8
 71
     3
 72
    10
 73
     6
 74
     0
 42
0.0000000001
 43
0.0000000001
 40
4.585290746366443
 40
4.585290746366443
 40
4.585290746366443
 40
4.585290746366443
 40
4.831732503296846
 40
4.831732503296846
 40
5.274628023622251
 40
5.274628023622251
 40
5.274628023622251
 40
5.274628023622251
 10
179.1386579005658
 20
60.75886058625778
 30
0.0
 10
180.0081125009999
 20
60.66722357628828
 30
0.0
 10
180.8717993321493
 20
60.55051239984532
 30
0.0
 10
183.2597462147562
 20
60.15773930862053
 30
0.0
 10
184.7618582495365
 20
59.82834813391953
 30
0.0
 10
186.2085752716667
 20
59.43571027766065
 30
0.0
  0
LINE
  5
28A
330
6C
100
AcDbEntity
  8
Visible Narrow (ISO)
100
AcDbLine
 10
179.1386579005658
 20
64.00134940947747
 30
0.0
 11
179.1386579005658
 21
60.75886058625778
 31
0.0
  0
LINE
  5
28B
330
6C
100
AcDbEntity
  8
Visible (ISO)
100
AcDbLine
 10
161.3140947621025
 20
66.00660583148682
 30
0.0
 11
161.3140947621025
 21
73.00660583148682
 31
0.0
  0
SPLINE
  5
28C
330
6C
100
AcDbEntity
  8
Visible (ISO)
100
AcDbSpline
210
0.0
220
0.0
230
1.0
 70
     8
 71
     3
 72
    10
 73
     6
 74
     0
 42
0.0000000001
 43
0.0000000001
 40
1.75851045369192
 40
1.75851045369192
 40
1.75851045369192
 40
1.75851045369192
 40
1.769985036102441
 40
1.769985036102441
 40
1.77528265148158
 40
1.77528265148158
 40
1.77528265148158
 40
1.77528265148158
 10
199.1581495116763
 20
55.0066058314869
 30
0.0
 10
199.1945388123763
 20
55.0066058314869
 30
0.0
 10
199.2308280580046
 20
55.01289459808946
 30
0.0
 10
199.2823139400673
 20
55.03016184990912
 30
0.0
 10
199.2983521586081
 20
55.03678557980407
 30
0.0
 10
199.3140947621034
 20
55.04442275528685
 30
0.0
  0
LINE
  5
28D
330
6C
100
AcDbEntity
  8
Visible (ISO)
100
AcDbLine
 10
199.3072954041863
 20
55.00660583148686
 30
0.0
 11
199.1581495116782
 21
55.00660583148686
 31
0.0
  0
SPLINE
  5
28E
330
6C
100
AcDbEntity
  8
Visible (ISO)
100
AcDbSpline
210
0.0
220
0.0
230
1.0
 70
     8
 71
     3
 72
     8
 73
     4
 74
     0
 42
0.0000000001
 43
0.0000000001
 40
-0.0038487373741095
 40
-0.0038487373741095
 40
-0.0038487373741095
 40
-0.0038487373741095
 40
0.0
 40
0.0
 40
0.0
 40
0.0
 10
199.3140947621034
 20
55.04442275528681
 30
0.0
 10
199.3118287484728
 20
55.03181703508559
 30
0.0
 10
199.3095622958302
 20
55.01921139291828
 30
0.0
 10
199.3072954041863
 20
55.00660583148686
 30
0.0
  0
SPLINE
  5
28F
330
6C
100
AcDbEntity
  8
Visible (ISO)
100
AcDbSpline
210
0.0
220
0.0
230
1.0
 70
     8
 71
     3
 72
    22
 73
    18
 74
     0
 42
0.0000000001
 43
0.0000000001
 40
0.9432407987623507
 40
0.9432407987623507
 40
0.9432407987623507
 40
0.9432407987623507
 40
1.171120556264495
 40
1.171120556264495
 40
1.366307315641912
 40
1.366307315641912
 40
1.561494075019328
 40
1.561494075019328
 40
1.637053099534583
 40
1.637053099534583
 40
1.712612124049838
 40
1.712612124049838
 40
1.735561288870879
 40
1.735561288870879
 40
1.7470358712814
 40
1.7470358712814
 40
1.75851045369192
 40
1.75851045369192
 40
1.75851045369192
 40
1.75851045369192
 10
196.8395478780227
 20
63.00660583148681
 30
0.0
 10
196.9622320154016
 20
62.19018194149754
 30
0.0
 10
197.0920643056457
 20
61.38057214904693
 30
0.0
 10
197.353827969691
 20
59.9030462065189
 30
0.0
 10
197.4825028574925
 20
59.2316352496145
 30
0.0
 10
197.7693789253633
 20
57.91894692297706
 30
0.0
 10
197.9250224648557
 20
57.2770581467702
 30
0.0
 10
198.1963939758713
 20
56.42033621504793
 30
0.0
 10
198.2862457920253
 20
56.16027320367305
 30
0.0
 10
198.4986820427251
 20
55.66131732572963
 30
0.0
 10
198.6170741441707
 20
55.42047049235907
 30
0.0
 10
198.8250175841378
 20
55.17503843369862
 30
0.0
 10
198.8832411637729
 20
55.11730214655972
 30
0.0
 10
198.9807033197586
 20
55.0538494454603
 30
0.0
 10
199.0149227645823
 20
55.03652113845044
 30
0.0
 10
199.0854497819573
 20
55.01289459808964
 30
0.0
 10
199.1217602109762
 20
55.0066058314869
 30
0.0
 10
199.1581495116763
 20
55.0066058314869
 30
0.0
  0
SPLINE
  5
290
330
6C
100
AcDbEntity
  8
Visible (ISO)
100
AcDbSpline
210
0.0
220
0.0
230
1.0
 70
     8
 71
     3
 72
    10
 73
     6
 74
     0
 42
0.0000000001
 43
0.0000000001
 40
1.5278493950117
 40
1.5278493950117
 40
1.5278493950117
 40
1.5278493950117
 40
1.623235420363269
 40
1.623235420363269
 40
1.651542757804969
 40
1.651542757804969
 40
1.651542757804969
 40
1.651542757804969
 10
197.5997586338058
 20
64.00134940947747
 30
0.0
 10
197.3767790406335
 20
63.76214254498762
 30
0.0
 10
197.174369153484
 20
63.49749263979077
 30
0.0
 10
196.9427615742152
 20
63.16285941687308
 30
0.0
 10
196.8907333147086
 20
63.08521109103184
 30
0.0
 10
196.8395478780227
 20
63.00660583148681
 30
0.0
  0
LINE
  5
291
330
6C
100
AcDbEntity
  8
Visible (ISO)
100
AcDbLine
 10
179.1386579005658
 20
64.00134940947747
 30
0.0
 11
197.5997586338059
 21
64.00134940947747
 31
0.0
  0
LINE
  5
292
330
6C
100
AcDbEntity
  8
Visible (ISO)
100
AcDbLine
 10
199.1581495116763
 20
55.00660583148686
 30
0.0
 11
194.8140947621032
 21
55.00660583148686
 31
0.0
  0
LINE
  5
293
330
6C
100
AcDbEntity
  8
Visible (ISO)
100
AcDbLine
 10
179.1386579005658
 20
64.00134940947747
 30
0.0
 11
179.1386579005658
 21
73.00660583148682
 31
0.0
  0
SPLINE
  5
294
330
6C
100
AcDbEntity
  8
Visible (ISO)
100
AcDbSpline
210
0.0
220
0.0
230
1.0
 70
    12
 71
     2
 72
     6
 73
     3
 74
     0
 42
0.0000000001
 43
0.0000000001
 40
0.0
 40
0.0
 40
0.0
 40
0.735020748025817
 40
0.735020748025817
 40
0.735020748025817
 10
196.0902925877478
 20
71.00660583148682
 30
0.0
 41
1.0
 10
195.342329630766
 20
67.99136949162771
 30
0.0
 41
1.010647833931205
 10
194.3621539237847
 20
64.00134940947747
 30
0.0
 41
1.002310889209607
  0
LINE
  5
295
330
6C
100
AcDbEntity
  8
Visible (ISO)
100
AcDbLine
 10
194.3140947621014
 20
55.00660583148686
 30
0.0
 11
194.8140947621022
 21
55.00660583148686
 31
0.0
  0
LINE
  5
296
330
6C
100
AcDbEntity
  8
Visible (ISO)
100
AcDbLine
 10
194.3140947621014
 20
55.00660583148686
 30
0.0
 11
194.2433760613038
 21
56.26382717900177
 31
0.0
  0
LINE
  5
297
330
6C
100
AcDbEntity
  8
Visible (ISO)
100
AcDbLine
 10
199.3140947621034
 20
55.00660583148686
 30
0.0
 11
199.3072954041863
 21
55.00660583148686
 31
0.0
  0
SPLINE
  5
298
330
6C
100
AcDbEntity
  8
Visible (ISO)
100
AcDbSpline
210
0.0
220
0.0
230
1.0
 70
    28
 71
     2
 72
     6
 73
     3
 74
     0
 42
0.0000000001
 43
0.0000000001
 40
0.7974519034631254
 40
0.7974519034631254
 40
0.7974519034631254
 40
0.8013696042749975
 40
0.8013696042749975
 40
0.8013696042749975
 10
199.3140947621034
 20
55.04442275528685
 30
0.0
 41
1.000005114022332
 10
199.3140947621034
 20
55.02551116555963
 30
0.0
 41
1.000002569573184
 10
199.3140947621034
 20
55.00660583148686
 30
0.0
 41
1.0
  0
LINE
  5
299
330
6C
100
AcDbEntity
  8
Visible (ISO)
100
AcDbLine
 10
199.3140947621034
 20
55.00660583148686
 30
0.0
 11
208.3140947621015
 21
55.00660583148686
 31
0.0
  0
LINE
  5
29A
330
6C
100
AcDbEntity
  8
Visible (ISO)
100
AcDbLine
 10
196.0902925877478
 20
71.00660583148682
 30
0.0
 11
206.6055973842311
 21
71.00660583148682
 31
0.0
  0
LINE
  5
29B
330
6C
100
AcDbEntity
  8
Visible (ISO)
100
AcDbLine
 10
196.8395478780227
 20
63.00660583148681
 30
0.0
 11
208.7640947621014
 21
63.00660583148681
 31
0.0
  0
LINE
  5
29C
330
6C
100
AcDbEntity
  8
Visible (ISO)
100
AcDbLine
 10
206.8140947621013
 20
71.00660583148682
 30
0.0
 11
208.7640947621014
 21
63.00660583148681
 31
0.0
  0
LINE
  5
29D
330
6C
100
AcDbEntity
  8
Visible (ISO)
100
AcDbLine
 10
208.3140947621015
 20
55.00660583148686
 30
0.0
 11
208.7640947621014
 21
63.00660583148681
 31
0.0
  0
LINE
  5
29E
330
6C
100
AcDbEntity
  8
Visible (ISO)
100
AcDbLine
 10
196.0225921399727
 20
71.00660583148682
 30
0.0
 11
196.0902925877478
 21
71.00660583148682
 31
0.0
  0
LINE
  5
29F
330
6C
100
AcDbEntity
  8
Visible (ISO)
100
AcDbLine
 10
195.8140947621014
 20
71.00660583148682
 30
0.0
 11
195.559460399108
 21
69.96195203459045
 31
0.0
  0
LINE
  5
2A0
330
6C
100
AcDbEntity
  8
Visible (ISO)
100
AcDbLine
 10
197.8140947621021
 20
71.81660583148683
 30
0.0
 11
198.8140947621025
 21
71.81660583148683
 31
0.0
  0
LINE
  5
2A1
330
6C
100
AcDbEntity
  8
Visible (ISO)
100
AcDbLine
 10
198.8140947621025
 20
71.81660583148683
 30
0.0
 11
199.8140947621021
 21
71.81660583148683
 31
0.0
  0
LINE
  5
2A2
330
6C
100
AcDbEntity
  8
Visible (ISO)
100
AcDbLine
 10
199.814094762101
 20
71.81660583148683
 30
0.0
 11
200.8140947621009
 21
71.81660583148683
 31
0.0
  0
LINE
  5
2A3
330
6C
100
AcDbEntity
  8
Visible (ISO)
100
AcDbLine
 10
200.8140947621009
 20
71.81660583148683
 30
0.0
 11
203.8140947621009
 21
71.81660583148683
 31
0.0
  0
LINE
  5
2A4
330
6C
100
AcDbEntity
  8
Visible (ISO)
100
AcDbLine
 10
203.814094762101
 20
71.81660583148683
 30
0.0
 11
204.8140947621007
 21
71.81660583148683
 31
0.0
  0
LINE
  5
2A5
330
6C
100
AcDbEntity
  8
Visible (ISO)
100
AcDbLine
 10
199.8140947621021
 20
71.80660583148682
 30
0.0
 11
199.8140947621021
 21
71.81660583148683
 31
0.0
  0
LINE
  5
2A6
330
6C
100
AcDbEntity
  8
Visible (ISO)
100
AcDbLine
 10
198.8140947621025
 20
71.80660583148682
 30
0.0
 11
198.8140947621025
 21
71.81660583148683
 31
0.0
  0
LINE
  5
2A7
330
6C
100
AcDbEntity
  8
Visible (ISO)
100
AcDbLine
 10
197.8140947621021
 20
71.80660583148682
 30
0.0
 11
197.8140947621021
 21
71.81660583148683
 31
0.0
  0
LINE
  5
2A8
330
6C
100
AcDbEntity
  8
Visible (ISO)
100
AcDbLine
 10
204.8140947621007
 20
71.80660583148682
 30
0.0
 11
204.8140947621007
 21
71.81660583148683
 31
0.0
  0
LINE
  5
2A9
330
6C
100
AcDbEntity
  8
Visible (ISO)
100
AcDbLine
 10
203.814094762101
 20
71.80660583148682
 30
0.0
 11
203.814094762101
 21
71.81660583148683
 31
0.0
  0
LINE
  5
2AA
330
6C
100
AcDbEntity
  8
Visible Narrow (ISO)
100
AcDbLine
 10
200.8140947621009
 20
71.80660583148682
 30
0.0
 11
200.8140947621009
 21
71.81660583148683
 31
0.0
  0
LINE
  5
2AB
330
6C
100
AcDbEntity
  8
Visible (ISO)
100
AcDbLine
 10
196.4151152765353
 20
71.80660583148682
 30
0.0
 11
206.2130742476681
 21
71.80660583148682
 31
0.0
  0
SPLINE
  5
2AC
330
6C
100
AcDbEntity
  8
Visible (ISO)
100
AcDbSpline
210
0.0
220
0.0
230
1.0
 70
     8
 71
     3
 72
    18
 73
    14
 74
     0
 42
0.0000000001
 43
0.0000000001
 40
-0.0894071042414384
 40
-0.0894071042414384
 40
-0.0894071042414384
 40
-0.0894071042414384
 40
-0.0890024393096829
 40
-0.0890024393096829
 40
-0.071331341192769
 40
-0.071331341192769
 40
-0.054286520760514
 40
-0.054286520760514
 40
-0.033079826196916
 40
-0.033079826196916
 40
-0.0157603010710298
 40
-0.0157603010710298
 40
0.0
 40
0.0
 40
0.0
 40
0.0
 10
196.4151152765353
 20
71.80660583148682
 30
0.0
 10
196.414256038214
 20
71.80660583148682
 30
0.0
 10
196.4133969343097
 20
71.80660250917971
 30
0.0
 10
196.3750286454973
 20
71.80630560944599
 30
0.0
 10
196.337709338947
 20
71.79967546657635
 30
0.0
 10
196.2668737966947
 20
71.77367090372003
 30
0.0
 10
196.2331382301687
 20
71.75470475905973
 30
0.0
 10
196.1623956589053
 20
71.69754387369592
 30
0.0
 10
196.1265948516502
 20
71.6557620837757
 30
0.0
 10
196.073177135961
 20
71.56155584513569
 30
0.0
 10
196.0537623896583
 20
71.51302709533844
 30
0.0
 10
196.028838828021
 20
71.41067668066192
 30
0.0
 10
196.0225921399727
 20
71.35914016839024
 30
0.0
 10
196.0225921399727
 20
71.30660583148682
 30
0.0
  0
LINE
  5
2AD
330
6C
100
AcDbEntity
  8
Visible Narrow (ISO)
100
AcDbLine
 10
206.6055973842311
 20
71.30660583148682
 30
0.0
 11
196.0225921399727
 21
71.30660583148682
 31
0.0
  0
SPLINE
  5
2AE
330
6C
100
AcDbEntity
  8
Visible (ISO)
100
AcDbSpline
210
0.0
220
0.0
230
1.0
 70
     8
 71
     3
 72
    18
 73
    14
 74
     0
 42
0.0000000001
 43
0.0000000001
 40
-0.0896419378859127
 40
-0.0896419378859127
 40
-0.0896419378859127
 40
-0.0896419378859127
 40
-0.0737683962096255
 40
-0.0737683962096255
 40
-0.0563244271724696
 40
-0.0563244271724696
 40
-0.0349653586842182
 40
-0.0349653586842182
 40
-0.0177980681434567
 40
-0.0177980681434567
 40
0.0
 40
0.0
 40
0.0004075725222773
 40
0.0004075725222773
 40
0.0004075725222773
 40
0.0004075725222773
 10
206.6055973842311
 20
71.30660583148682
 30
0.0
 10
206.6055973842311
 20
71.35914016839027
 30
0.0
 10
206.5993506961828
 20
71.41067668066193
 30
0.0
 10
206.5744271345455
 20
71.51302709533844
 30
0.0
 10
206.5550123882427
 20
71.56155584513569
 30
0.0
 10
206.5015946725535
 20
71.6557620837757
 30
0.0
 10
206.4657938652985
 20
71.69754387369592
 30
0.0
 10
206.3950512940348
 20
71.75470475905973
 30
0.0
 10
206.3613157275089
 20
71.77367090372003
 30
0.0
 10
206.2904801852567
 20
71.7996754665763
 30
0.0
 10
206.2531608787069
 20
71.80630560944599
 30
0.0
 10
206.2147925898936
 20
71.80660250917971
 30
0.0
 10
206.2139334859895
 20
71.80660583148682
 30
0.0
 10
206.2130742476681
 20
71.80660583148682
 30
0.0
  0
LINE
  5
2AF
330
6C
100
AcDbEntity
  8
Visible Narrow (ISO)
100
AcDbLine
 10
195.9057678489059
 20
71.30660583148682
 30
0.0
 11
195.9057678489058
 21
71.80660583148682
 31
0.0
  0
LINE
  5
2B0
330
6C
100
AcDbEntity
  8
Visible Narrow (ISO)
100
AcDbLine
 10
195.905767848906
 20
71.30660583148682
 30
0.0
 11
196.0225921399727
 21
71.30660583148682
 31
0.0
  0
LINE
  5
2B1
330
6C
100
AcDbEntity
  8
Visible (ISO)
100
AcDbLine
 10
196.4151152765353
 20
71.80660583148682
 30
0.0
 11
195.9057678489058
 21
71.80660583148682
 31
0.0
  0
LINE
  5
2B2
330
6C
100
AcDbEntity
  8
Visible Narrow (ISO)
100
AcDbLine
 10
206.7224216752977
 20
71.80660583148682
 30
0.0
 11
206.7224216752979
 21
71.30660583148682
 31
0.0
  0
LINE
  5
2B3
330
6C
100
AcDbEntity
  8
Visible (ISO)
100
AcDbLine
 10
206.7224216752977
 20
71.80660583148682
 30
0.0
 11
206.2130742476681
 21
71.80660583148682
 31
0.0
  0
LINE
  5
2B4
330
6C
100
AcDbEntity
  8
Visible Narrow (ISO)
100
AcDbLine
 10
206.6055973842311
 20
71.30660583148682
 30
0.0
 11
206.7224216752979
 21
71.30660583148682
 31
0.0
  0
ELLIPSE
  5
2B5
330
6C
100
AcDbEntity
  8
Visible Narrow (ISO)
100
AcDbEllipse
 10
206.7224216752977
 20
71.30660583148682
 30
0.0
 11
-0.0000000000000002
 21
0.5
 31
0.0
210
0.0
220
0.0
230
1.0
 40
0.9833321660356869
 41
4.712388980384688
 42
6.283185307179584
  0
LINE
  5
2B6
330
6C
100
AcDbEntity
  8
Visible Narrow (ISO)
100
AcDbLine
 10
207.3140947621014
 20
71.30660583148682
 30
0.0
 11
207.2140877583155
 21
71.30660583148682
 31
0.0
  0
LINE
  5
2B7
330
6C
100
AcDbEntity
  8
Visible (ISO)
100
AcDbLine
 10
206.7224216752977
 20
71.80660583148682
 30
0.0
 11
206.8140947621013
 21
71.80660583148682
 31
0.0
  0
LINE
  5
2B8
330
6C
100
AcDbEntity
  8
Visible Narrow (ISO)
100
AcDbLine
 10
207.2140877583155
 20
71.30660583148682
 30
0.0
 11
206.7224216752979
 21
71.30660583148682
 31
0.0
  0
LINE
  5
2B9
330
6C
100
AcDbEntity
  8
Visible Narrow (ISO)
100
AcDbLine
 10
195.414101765888
 20
71.30660583148682
 30
0.0
 11
195.3140947621013
 21
71.30660583148682
 31
0.0
  0
ELLIPSE
  5
2BA
330
6C
100
AcDbEntity
  8
Visible Narrow (ISO)
100
AcDbEllipse
 10
195.9057678489058
 20
71.30660583148682
 30
0.0
 11
-0.0000000000000002
 21
0.5
 31
0.0
210
0.0
220
0.0
230
1.0
 40
0.9833321660355787
 41
0.0
 42
1.570796326794896
  0
LINE
  5
2BB
330
6C
100
AcDbEntity
  8
Visible (ISO)
100
AcDbLine
 10
195.8140947621014
 20
71.80660583148682
 30
0.0
 11
195.9057678489058
 21
71.80660583148682
 31
0.0
  0
LINE
  5
2BC
330
6C
100
AcDbEntity
  8
Visible Narrow (ISO)
100
AcDbLine
 10
195.9057678489059
 20
71.30660583148682
 30
0.0
 11
195.414101765888
 21
71.30660583148682
 31
0.0
  0
ARC
  5
2BD
330
6C
100
AcDbEntity
  8
Visible (ISO)
100
AcDbCircle
 10
206.8140947621013
 20
71.30660583148682
 30
0.0
 40
0.5
100
AcDbArc
 50
0.0
 51
90.0
  0
ARC
  5
2BE
330
6C
100
AcDbEntity
  8
Visible (ISO)
100
AcDbCircle
 10
195.8140947621014
 20
71.30660583148682
 30
0.0
 40
0.5
100
AcDbArc
 50
90.0
 51
180.0
  0
LINE
  5
2BF
330
6C
100
AcDbEntity
  8
Visible Narrow (ISO)
100
AcDbLine
 10
206.7224216752979
 20
71.30660583148682
 30
0.0
 11
206.7224216752979
 21
71.00660583148682
 31
0.0
  0
LINE
  5
2C0
330
6C
100
AcDbEntity
  8
Visible (ISO)
100
AcDbLine
 10
207.2140877583155
 20
71.00660583148682
 30
0.0
 11
206.7224216752979
 21
71.00660583148682
 31
0.0
  0
LINE
  5
2C1
330
6C
100
AcDbEntity
  8
Visible Narrow (ISO)
100
AcDbLine
 10
207.2140877583155
 20
71.30660583148682
 30
0.0
 11
207.2140877583155
 21
71.00660583148682
 31
0.0
  0
LINE
  5
2C2
330
6C
100
AcDbEntity
  8
Visible (ISO)
100
AcDbLine
 10
206.6055973842311
 20
71.30660583148682
 30
0.0
 11
206.6055973842311
 21
71.00660583148682
 31
0.0
  0
LINE
  5
2C3
330
6C
100
AcDbEntity
  8
Visible (ISO)
100
AcDbLine
 10
206.6055973842311
 20
71.00660583148682
 30
0.0
 11
206.7224216752979
 21
71.00660583148682
 31
0.0
  0
LINE
  5
2C4
330
6C
100
AcDbEntity
  8
Visible (ISO)
100
AcDbLine
 10
196.0225921399727
 20
71.30660583148682
 30
0.0
 11
196.0225921399727
 21
71.00660583148682
 31
0.0
  0
LINE
  5
2C5
330
6C
100
AcDbEntity
  8
Visible (ISO)
100
AcDbLine
 10
206.6055973842311
 20
71.00660583148682
 30
0.0
 11
196.0225921399727
 21
71.00660583148682
 31
0.0
  0
LINE
  5
2C6
330
6C
100
AcDbEntity
  8
Visible Narrow (ISO)
100
AcDbLine
 10
195.905767848906
 20
71.30660583148682
 30
0.0
 11
195.905767848906
 21
71.00660583148682
 31
0.0
  0
LINE
  5
2C7
330
6C
100
AcDbEntity
  8
Visible (ISO)
100
AcDbLine
 10
195.905767848906
 20
71.00660583148682
 30
0.0
 11
196.0225921399727
 21
71.00660583148682
 31
0.0
  0
LINE
  5
2C8
330
6C
100
AcDbEntity
  8
Visible Narrow (ISO)
100
AcDbLine
 10
195.414101765888
 20
71.30660583148682
 30
0.0
 11
195.414101765888
 21
71.00660583148682
 31
0.0
  0
LINE
  5
2C9
330
6C
100
AcDbEntity
  8
Visible (ISO)
100
AcDbLine
 10
195.9057678489059
 20
71.00660583148682
 30
0.0
 11
195.414101765888
 21
71.00660583148682
 31
0.0
  0
LINE
  5
2CA
330
6C
100
AcDbEntity
  8
Visible (ISO)
100
AcDbLine
 10
195.414101765888
 20
71.00660583148682
 30
0.0
 11
195.3140947621014
 21
71.00660583148682
 31
0.0
  0
LINE
  5
2CB
330
6C
100
AcDbEntity
  8
Visible (ISO)
100
AcDbLine
 10
207.3140947621014
 20
71.00660583148682
 30
0.0
 11
207.2140877583155
 21
71.00660583148682
 31
0.0
  0
LINE
  5
2CC
330
6C
100
AcDbEntity
  8
Visible (ISO)
100
AcDbLine
 10
195.3140947621014
 20
71.30660583148682
 30
0.0
 11
195.3140947621014
 21
71.00660583148682
 31
0.0
  0
LINE
  5
2CD
330
6C
100
AcDbEntity
  8
Visible (ISO)
100
AcDbLine
 10
207.3140947621014
 20
71.30660583148682
 30
0.0
 11
207.3140947621014
 21
71.00660583148682
 31
0.0
  0
SPLINE
  5
2CE
330
6C
100
AcDbEntity
  8
Visible (ISO)
100
AcDbSpline
210
0.0
220
0.0
230
1.0
 70
    28
 71
     2
 72
     6
 73
     3
 74
     0
 42
0.0000000001
 43
0.0000000001
 40
0.2934711240705181
 40
0.2934711240705181
 40
0.2934711240705181
 40
0.4256073096284865
 40
0.4256073096284865
 40
0.4256073096284865
 10
192.8140947620977
 20
39.599128543375
 30
0.0
 41
1.041636008661481
 10
192.8140947620977
 20
40.24720405183048
 30
0.0
 41
1.045944179566279
 10
192.8140947620977
 20
40.85797595165518
 30
0.0
 41
1.045691116018838
  0
SPLINE
  5
2CF
330
6C
100
AcDbEntity
  8
Visible (ISO)
100
AcDbSpline
210
0.0
220
0.0
230
1.0
 70
    28
 71
     2
 72
     6
 73
     3
 74
     0
 42
0.0000000001
 43
0.0000000001
 40
1.247497541189279
 40
1.247497541189279
 40
1.247497541189279
 40
1.379633726747249
 40
1.379633726747249
 40
1.379633726747249
 10
193.9042885971566
 20
38.96970483923489
 30
0.0
 41
1.045691116018826
 10
193.3753446159906
 20
39.27509078914726
 30
0.0
 41
1.045944179566267
 10
192.8140947620977
 20
39.599128543375
 30
0.0
 41
1.041636008661469
  0
SPLINE
  5
2D0
330
6C
100
AcDbEntity
  8
Visible (ISO)
100
AcDbSpline
210
0.0
220
0.0
230
1.0
 70
    28
 71
     2
 72
     6
 73
     3
 74
     0
 42
0.0000000001
 43
0.0000000001
 40
0.2934711240705192
 40
0.2934711240705192
 40
0.2934711240705192
 40
0.4256073096284866
 40
0.4256073096284866
 40
0.4256073096284866
 10
192.8140947620977
 20
49.41408311959865
 30
0.0
 41
1.041636008661477
 10
193.3753446159906
 20
49.7381208738264
 30
0.0
 41
1.045944179566274
 10
193.9042885971566
 20
50.04350682373875
 30
0.0
 41
1.045691116018834
  0
SPLINE
  5
2D1
330
6C
100
AcDbEntity
  8
Visible (ISO)
100
AcDbSpline
210
0.0
220
0.0
230
1.0
 70
    28
 71
     2
 72
     6
 73
     3
 74
     0
 42
0.0000000001
 43
0.0000000001
 40
1.247497541189279
 40
1.247497541189279
 40
1.247497541189279
 40
1.379633726747249
 40
1.379633726747249
 40
1.379633726747249
 10
192.8140947620977
 20
48.15523571131843
 30
0.0
 41
1.045691116018834
 10
192.8140947620977
 20
48.76600761114315
 30
0.0
 41
1.045944179566274
 10
192.8140947620977
 20
49.41408311959865
 30
0.0
 41
1.041636008661477
  0
SPLINE
  5
2D2
330
6C
100
AcDbEntity
  8
Visible (ISO)
100
AcDbSpline
210
0.0
220
0.0
230
1.0
 70
    28
 71
     2
 72
     6
 73
     3
 74
     0
 42
0.0000000001
 43
0.0000000001
 40
1.247497541189279
 40
1.247497541189279
 40
1.247497541189279
 40
1.37963372674725
 40
1.37963372674725
 40
1.37963372674725
 10
202.4042885971567
 20
35.32107495940329
 30
0.0
 41
1.045691116018834
 10
201.8753446159908
 20
35.01568900949093
 30
0.0
 41
1.045944179566274
 10
201.3140947620978
 20
34.69165125526318
 30
0.0
 41
1.041636008661477
  0
SPLINE
  5
2D3
330
6C
100
AcDbEntity
  8
Visible (ISO)
100
AcDbSpline
210
0.0
220
0.0
230
1.0
 70
    28
 71
     2
 72
     6
 73
     3
 74
     0
 42
0.0000000001
 43
0.0000000001
 40
0.2934711240705199
 40
0.2934711240705199
 40
0.2934711240705199
 40
0.4256073096284887
 40
0.4256073096284887
 40
0.4256073096284887
 10
201.3140947620978
 20
34.69165125526318
 30
0.0
 41
1.041636008661475
 10
200.7528449082049
 20
35.01568900949093
 30
0.0
 41
1.045944179566271
 10
200.223900927039
 20
35.32107495940329
 30
0.0
 41
1.045691116018832
  0
LINE
  5
2D4
330
6C
100
AcDbEntity
  8
Visible (ISO)
100
AcDbLine
 10
236.3140947621014
 20
39.25660583148682
 30
0.0
 11
236.3140947621014
 21
49.75660583148679
 31
0.0
  0
LINE
  5
2D5
330
6C
100
AcDbEntity
  8
Visible (ISO)
100
AcDbLine
 10
234.2253071083383
 20
50.96256794566691
 30
0.0
 11
234.2253071083383
 21
38.05064371730673
 31
0.0
  0
LINE
  5
2D6
330
6C
100
AcDbEntity
  8
Visible (ISO)
100
AcDbLine
 10
236.3140947621014
 20
39.25660583148682
 30
0.0
 11
234.2253071083383
 21
38.05064371730673
 31
0.0
  0
LINE
  5
2D7
330
6C
100
AcDbEntity
  8
Visible (ISO)
100
AcDbLine
 10
236.3140947621014
 20
49.75660583148679
 30
0.0
 11
234.2253071083383
 21
50.96256794566691
 31
0.0
  0
LINE
  5
2D8
330
6C
100
AcDbEntity
  8
Visible (ISO)
100
AcDbLine
 10
216.3140947621027
 20
37.14538989931912
 30
0.0
 11
216.3140947621015
 21
36.00660583148685
 31
0.0
  0
LINE
  5
2D9
330
6C
100
AcDbEntity
  8
Visible (ISO)
100
AcDbLine
 10
216.314094762104
 20
44.50660583148681
 30
0.0
 11
216.3140947621027
 21
37.14538989931912
 31
0.0
  0
LINE
  5
2DA
330
6C
100
AcDbEntity
  8
Visible (ISO)
100
AcDbLine
 10
216.3140947621027
 20
51.86782176365454
 30
0.0
 11
216.314094762104
 21
44.50660583148681
 31
0.0
  0
LINE
  5
2DB
330
6C
100
AcDbEntity
  8
Visible (ISO)
100
AcDbLine
 10
216.3140947621015
 20
53.00660583148681
 30
0.0
 11
216.3140947621027
 21
51.86782176365454
 31
0.0
  0
SPLINE
  5
2DC
330
6C
100
AcDbEntity
  8
Visible (ISO)
100
AcDbSpline
210
0.0
220
0.0
230
1.0
 70
    12
 71
     2
 72
     6
 73
     3
 74
     0
 42
0.0000000001
 43
0.0000000001
 40
0.2934711240705223
 40
0.2934711240705223
 40
0.2934711240705223
 40
0.836552425408885
 40
0.836552425408885
 40
0.836552425408885
 10
217.0732841406563
 20
54.32156040771046
 30
0.0
 41
1.041636008661464
 10
216.3140947621021
 20
53.00660583148687
 30
0.0
 41
1.059342642551986
 10
216.3140947621027
 20
51.86782176365454
 30
0.0
 41
1.0
  0
SPLINE
  5
2DD
330
6C
100
AcDbEntity
  8
Visible (ISO)
100
AcDbSpline
210
0.0
220
0.0
230
1.0
 70
    12
 71
     2
 72
     6
 73
     3
 74
     0
 42
0.0000000001
 43
0.0000000001
 40
0.836552425408885
 40
0.836552425408885
 40
0.836552425408885
 40
1.379633726747248
 40
1.379633726747248
 40
1.379633726747248
 10
216.3140947621027
 20
51.86782176365454
 30
0.0
 41
1.0
 10
216.3140947621033
 20
50.72903769582222
 30
0.0
 41
1.059342642551992
 10
217.0732841406587
 20
49.41408311959865
 30
0.0
 41
1.041636008661466
  0
SPLINE
  5
2DE
330
6C
100
AcDbEntity
  8
Visible (ISO)
100
AcDbSpline
210
0.0
220
0.0
230
1.0
 70
    12
 71
     2
 72
     6
 73
     3
 74
     0
 42
0.0000000001
 43
0.0000000001
 40
0.2934711240705219
 40
0.2934711240705219
 40
0.2934711240705219
 40
0.8365524254088846
 40
0.8365524254088846
 40
0.8365524254088846
 10
217.0732841406588
 20
49.41408311959865
 30
0.0
 41
1.041636008661464
 10
216.3140947621041
 20
46.78417396715146
 30
0.0
 41
1.059342642551986
 10
216.314094762104
 20
44.50660583148681
 30
0.0
 41
1.0
  0
SPLINE
  5
2DF
330
6C
100
AcDbEntity
  8
Visible (ISO)
100
AcDbSpline
210
0.0
220
0.0
230
1.0
 70
    12
 71
     2
 72
     6
 73
     3
 74
     0
 42
0.0000000001
 43
0.0000000001
 40
0.8365524254088846
 40
0.8365524254088846
 40
0.8365524254088846
 40
1.379633726747245
 40
1.379633726747245
 40
1.379633726747245
 10
216.314094762104
 20
44.50660583148681
 30
0.0
 41
1.0
 10
216.314094762104
 20
42.22903769582216
 30
0.0
 41
1.059342642551986
 10
217.0732841406588
 20
39.599128543375
 30
0.0
 41
1.041636008661464
  0
SPLINE
  5
2E0
330
6C
100
AcDbEntity
  8
Visible (ISO)
100
AcDbSpline
210
0.0
220
0.0
230
1.0
 70
    12
 71
     2
 72
     6
 73
     3
 74
     0
 42
0.0000000001
 43
0.0000000001
 40
0.2934711240705226
 40
0.2934711240705226
 40
0.2934711240705226
 40
0.836552425408885
 40
0.836552425408885
 40
0.836552425408885
 10
217.0732841406588
 20
39.599128543375
 30
0.0
 41
1.041636008661464
 10
216.3140947621034
 20
38.28417396715143
 30
0.0
 41
1.059342642551986
 10
216.3140947621027
 20
37.1453898993191
 30
0.0
 41
1.0
  0
SPLINE
  5
2E1
330
6C
100
AcDbEntity
  8
Visible (ISO)
100
AcDbSpline
210
0.0
220
0.0
230
1.0
 70
    12
 71
     2
 72
     6
 73
     3
 74
     0
 42
0.0000000001
 43
0.0000000001
 40
0.836552425408885
 40
0.836552425408885
 40
0.836552425408885
 40
1.379633726747245
 40
1.379633726747245
 40
1.379633726747245
 10
216.3140947621027
 20
37.1453898993191
 30
0.0
 41
1.0
 10
216.3140947621021
 20
36.00660583148678
 30
0.0
 41
1.059342642551986
 10
217.0732841406563
 20
34.69165125526321
 30
0.0
 41
1.041636008661464
  0
LINE
  5
2E2
330
6C
100
AcDbEntity
  8
Visible (ISO)
100
AcDbLine
 10
216.3140947621015
 20
53.00660583148681
 30
0.0
 11
217.0732841406563
 21
54.32156040771046
 31
0.0
  0
LINE
  5
2E3
330
6C
100
AcDbEntity
  8
Visible (ISO)
100
AcDbLine
 10
216.3140947621015
 20
36.00660583148685
 30
0.0
 11
217.0732841406563
 21
34.69165125526321
 31
0.0
  0
LINE
  5
2E4
330
6C
100
AcDbEntity
  8
Visible (ISO)
100
AcDbLine
 10
217.0732841406588
 20
49.41408311959865
 30
0.0
 11
225.5549053835491
 21
49.41408311959865
 31
0.0
  0
LINE
  5
2E5
330
6C
100
AcDbEntity
  8
Visible (ISO)
100
AcDbLine
 10
217.0732841406563
 20
54.32156040771046
 30
0.0
 11
225.5549053835466
 21
54.32156040771046
 31
0.0
  0
LINE
  5
2E6
330
6C
100
AcDbEntity
  8
Visible (ISO)
100
AcDbLine
 10
217.0732841406588
 20
39.599128543375
 30
0.0
 11
225.5549053835491
 21
39.599128543375
 31
0.0
  0
LINE
  5
2E7
330
6C
100
AcDbEntity
  8
Visible (ISO)
100
AcDbLine
 10
217.0732841406563
 20
34.69165125526321
 30
0.0
 11
225.5549053835466
 21
34.69165125526321
 31
0.0
  0
SPLINE
  5
2E8
330
6C
100
AcDbEntity
  8
Visible (ISO)
100
AcDbSpline
210
0.0
220
0.0
230
1.0
 70
    12
 71
     2
 72
     6
 73
     3
 74
     0
 42
0.0000000001
 43
0.0000000001
 40
0.2934711240705225
 40
0.2934711240705225
 40
0.2934711240705225
 40
0.836552425408885
 40
0.836552425408885
 40
0.836552425408885
 10
225.5549053835491
 20
49.41408311959865
 30
0.0
 41
1.041636008661464
 10
226.3140947621032
 20
50.72903769582222
 30
0.0
 41
1.059342642551987
 10
226.3140947621027
 20
51.86782176365454
 30
0.0
 41
1.0
  0
SPLINE
  5
2E9
330
6C
100
AcDbEntity
  8
Visible (ISO)
100
AcDbSpline
210
0.0
220
0.0
230
1.0
 70
    12
 71
     2
 72
     6
 73
     3
 74
     0
 42
0.0000000001
 43
0.0000000001
 40
0.836552425408885
 40
0.836552425408885
 40
0.836552425408885
 40
1.379633726747248
 40
1.379633726747248
 40
1.379633726747248
 10
226.3140947621027
 20
51.86782176365454
 30
0.0
 41
1.0
 10
226.3140947621021
 20
53.00660583148688
 30
0.0
 41
1.059342642551994
 10
225.5549053835466
 20
54.32156040771046
 30
0.0
 41
1.041636008661469
  0
SPLINE
  5
2EA
330
6C
100
AcDbEntity
  8
Visible (ISO)
100
AcDbSpline
210
0.0
220
0.0
230
1.0
 70
    12
 71
     2
 72
     6
 73
     3
 74
     0
 42
0.0000000001
 43
0.0000000001
 40
0.2934711240705217
 40
0.2934711240705217
 40
0.2934711240705217
 40
0.836552425408885
 40
0.836552425408885
 40
0.836552425408885
 10
225.5549053835491
 20
39.599128543375
 30
0.0
 41
1.041636008661465
 10
226.3140947621039
 20
42.22903769582216
 30
0.0
 41
1.05934264255199
 10
226.314094762104
 20
44.50660583148681
 30
0.0
 41
1.0
  0
SPLINE
  5
2EB
330
6C
100
AcDbEntity
  8
Visible (ISO)
100
AcDbSpline
210
0.0
220
0.0
230
1.0
 70
    12
 71
     2
 72
     6
 73
     3
 74
     0
 42
0.0000000001
 43
0.0000000001
 40
0.836552425408885
 40
0.836552425408885
 40
0.836552425408885
 40
1.379633726747245
 40
1.379633726747245
 40
1.379633726747245
 10
226.314094762104
 20
44.50660583148681
 30
0.0
 41
1.0
 10
226.3140947621039
 20
46.78417396715146
 30
0.0
 41
1.059342642551986
 10
225.5549053835491
 20
49.41408311959865
 30
0.0
 41
1.041636008661464
  0
SPLINE
  5
2EC
330
6C
100
AcDbEntity
  8
Visible (ISO)
100
AcDbSpline
210
0.0
220
0.0
230
1.0
 70
    12
 71
     2
 72
     6
 73
     3
 74
     0
 42
0.0000000001
 43
0.0000000001
 40
0.2934711240705217
 40
0.2934711240705217
 40
0.2934711240705217
 40
0.8365524254088853
 40
0.8365524254088853
 40
0.8365524254088853
 10
225.5549053835466
 20
34.69165125526321
 30
0.0
 41
1.041636008661466
 10
226.3140947621021
 20
36.00660583148678
 30
0.0
 41
1.059342642551992
 10
226.3140947621027
 20
37.1453898993191
 30
0.0
 41
1.0
  0
SPLINE
  5
2ED
330
6C
100
AcDbEntity
  8
Visible (ISO)
100
AcDbSpline
210
0.0
220
0.0
230
1.0
 70
    12
 71
     2
 72
     6
 73
     3
 74
     0
 42
0.0000000001
 43
0.0000000001
 40
0.8365524254088853
 40
0.8365524254088853
 40
0.8365524254088853
 40
1.379633726747248
 40
1.379633726747248
 40
1.379633726747248
 10
226.3140947621027
 20
37.1453898993191
 30
0.0
 41
1.0
 10
226.3140947621032
 20
38.28417396715143
 30
0.0
 41
1.059342642551984
 10
225.5549053835491
 20
39.599128543375
 30
0.0
 41
1.041636008661461
  0
LINE
  5
2EE
330
6C
100
AcDbEntity
  8
Visible (ISO)
100
AcDbLine
 10
226.3140947621014
 20
36.00660583148683
 30
0.0
 11
226.3140947621027
 21
37.1453898993191
 31
0.0
  0
LINE
  5
2EF
330
6C
100
AcDbEntity
  8
Visible (ISO)
100
AcDbLine
 10
226.3140947621027
 20
37.14538989931912
 30
0.0
 11
226.314094762104
 21
44.50660583148681
 31
0.0
  0
LINE
  5
2F0
330
6C
100
AcDbEntity
  8
Visible (ISO)
100
AcDbLine
 10
226.314094762104
 20
44.50660583148681
 30
0.0
 11
226.3140947621027
 21
51.86782176365454
 31
0.0
  0
LINE
  5
2F1
330
6C
100
AcDbEntity
  8
Visible (ISO)
100
AcDbLine
 10
226.3140947621027
 20
51.86782176365454
 30
0.0
 11
226.3140947621014
 21
53.00660583148681
 31
0.0
  0
LINE
  5
2F2
330
6C
100
AcDbEntity
  8
Visible (ISO)
100
AcDbLine
 10
226.3140947621014
 20
36.00660583148683
 30
0.0
 11
225.5549053835466
 21
34.69165125526321
 31
0.0
  0
LINE
  5
2F3
330
6C
100
AcDbEntity
  8
Visible (ISO)
100
AcDbLine
 10
226.3140947621014
 20
53.00660583148681
 30
0.0
 11
225.5549053835466
 21
54.32156040771046
 31
0.0
  0
LINE
  5
2F4
330
6C
100
AcDbEntity
  8
Visible (ISO)
100
AcDbLine
 10
234.2253071083383
 20
38.05064371730673
 30
0.0
 11
226.3140947621014
 21
37.80341833148682
 31
0.0
  0
LINE
  5
2F5
330
6C
100
AcDbEntity
  8
Visible (ISO)
100
AcDbLine
 10
234.2253071083383
 20
50.96256794566691
 30
0.0
 11
226.3140947621014
 21
51.20979333148682
 31
0.0
  0
LINE
  5
2F6
330
6C
100
AcDbEntity
  8
Visible Narrow (ISO)
100
AcDbLine
 10
226.3140947621014
 20
38.65983619824347
 30
0.0
 11
235.7935500026836
 21
38.95606917451166
 31
0.0
  0
LINE
  5
2F7
330
6C
100
AcDbEntity
  8
Visible Narrow (ISO)
100
AcDbLine
 10
235.7935500026836
 20
50.05714248846199
 30
0.0
 11
226.3140947621014
 21
50.35337546473018
 31
0.0
  0
LINE
  5
2F8
330
6C
100
AcDbEntity
  8
Overlay (ISO)
 48
7.659456729888916
100
AcDbLine
 10
145.906682571667
 20
130.6318680996886
 30
0.0
 11
145.906682571667
 21
135.3818680996864
 31
0.0
  0
LINE
  5
2F9
330
6C
100
AcDbEntity
  8
Overlay (ISO)
 48
7.659456729888916
100
AcDbLine
 10
145.906682571667
 20
118.8818680996864
 30
0.0
 11
145.906682571667
 21
123.6318680996886
 31
0.0
  0
LINE
  5
2FA
330
6C
100
AcDbEntity
  8
Overlay (ISO)
 48
7.001832962036132
100
AcDbLine
 10
146.406682571667
 20
123.6318680996884
 30
0.0
 11
146.406682571667
 21
119.3818680996863
 31
0.0
  0
LINE
  5
2FB
330
6C
100
AcDbEntity
  8
Overlay (ISO)
 48
7.001832962036132
100
AcDbLine
 10
146.406682571667
 20
134.8818680996864
 30
0.0
 11
146.406682571667
 21
130.6318680996885
 31
0.0
  0
LINE
  5
2FC
330
6C
100
AcDbEntity
  8
Overlay (ISO)
 48
0.4562745988368988
100
AcDbLine
 10
146.406682571667
 20
119.3818680996864
 30
0.0
 11
145.906682571667
 21
118.8818680996864
 31
0.0
  0
LINE
  5
2FD
330
6C
100
AcDbEntity
  8
Overlay (ISO)
 48
0.4562745988368988
100
AcDbLine
 10
146.406682571667
 20
134.8818680996864
 30
0.0
 11
145.906682571667
 21
135.3818680996864
 31
0.0
  0
SPLINE
  5
2FE
330
6C
100
AcDbEntity
  8
Overlay (ISO)
 48
2.277396440505981
100
AcDbSpline
210
0.0
220
0.0
230
1.0
 70
    12
 71
     2
 72
     6
 73
     3
 74
     0
 42
0.0000000001
 43
0.0000000001
 40
0.4256073096284686
 40
0.4256073096284686
 40
0.4256073096284686
 40
0.8192657815317236
 40
0.8192657815317236
 40
0.8192657815317236
 10
132.9736698697747
 20
119.7220619347469
 30
0.0
 41
1.045691116018839
 10
133.3884544999229
 20
121.2994038227574
 30
0.0
 41
1.04493719226238
 10
133.4058842940443
 20
122.7490889007602
 30
0.0
 41
1.003699766927024
  0
SPLINE
  5
2FF
330
6C
100
AcDbEntity
  8
Overlay (ISO)
 48
2.277396440505981
100
AcDbSpline
210
0.0
220
0.0
230
1.0
 70
    12
 71
     2
 72
     6
 73
     3
 74
     0
 42
0.0000000001
 43
0.0000000001
 40
0.8538390692860449
 40
0.8538390692860449
 40
0.8538390692860449
 40
1.247497541189297
 40
1.247497541189297
 40
1.247497541189297
 10
133.4058842940443
 20
131.5146472986169
 30
0.0
 41
1.003699766927024
 10
133.3884544999229
 20
132.9643323766191
 30
0.0
 41
1.044937192262372
 10
132.9736698697747
 20
134.5416742646292
 30
0.0
 41
1.04569111601883
  0
LINE
  5
300
330
6C
100
AcDbEntity
  8
Overlay (ISO)
 48
2.990718841552734
100
AcDbLine
 10
128.3396952735592
 20
119.7220619347469
 30
0.0
 11
132.9736698697747
 21
119.7220619347469
 31
0.0
  0
LINE
  5
301
330
6C
100
AcDbEntity
  8
Overlay (ISO)
 48
0.611578106880188
100
AcDbLine
 10
128.3396952735592
 20
119.194614166494
 30
0.0
 11
128.3396952735592
 21
119.7220619347469
 31
0.0
  0
ELLIPSE
  5
302
330
6C
100
AcDbEntity
  8
Overlay (ISO)
 48
0.6166242957115175
100
AcDbEllipse
 10
125.5972814949085
 20
127.1318680996864
 30
0.0
 11
0.0
 21
-9.25
 31
0.0
210
0.0
220
0.0
230
1.0
 40
0.577350269189626
 41
0.4471887452263418
 42
0.5392744123179991
  0
SPLINE
  5
303
330
6C
100
AcDbEntity
  8
Overlay (ISO)
 48
1.42379868030548
100
AcDbSpline
210
0.0
220
0.0
230
1.0
 70
    12
 71
     2
 72
     6
 73
     3
 74
     0
 42
0.0000000001
 43
0.0000000001
 40
0.9570977237668156
 40
0.9570977237668156
 40
0.9570977237668156
 40
1.197529924693542
 40
1.197529924693542
 40
1.197529924693542
 10
127.9798709900325
 20
121.6058118786386
 30
0.0
 41
1.027716443952529
 10
128.0833809674676
 20
120.6967732960389
 30
0.0
 41
1.042467050658394
 10
128.3396952735592
 20
119.7220619347469
 30
0.0
 41
1.041774167103256
  0
LINE
  5
304
330
6C
100
AcDbEntity
  8
Overlay (ISO)
 48
2.980243921279905
100
AcDbLine
 10
132.9736698697747
 20
134.5416742646292
 30
0.0
 11
128.3559249614365
 21
134.5416742646292
 31
0.0
  0
SPLINE
  5
305
330
6C
100
AcDbEntity
  8
Overlay (ISO)
 48
1.371741294860839
100
AcDbSpline
210
0.0
220
0.0
230
1.0
 70
    12
 71
     2
 72
     6
 73
     3
 74
     0
 42
0.0000000001
 43
0.0000000001
 40
0.3932061578396785
 40
0.3932061578396785
 40
0.3932061578396785
 40
0.6252259523257126
 40
0.6252259523257126
 40
0.6252259523257126
 10
128.3219410732899
 20
134.4735362006454
 30
0.0
 41
1.041803747226504
 10
128.0798087666858
 20
133.5355913542757
 30
0.0
 41
1.041950946333024
 10
127.9798709900325
 20
132.657924320738
 30
0.0
 41
1.027716443952529
  0
LINE
  5
306
330
6C
100
AcDbEntity
  8
Overlay (ISO)
 48
2.030720949172973
100
AcDbLine
 10
127.906682571667
 20
119.6318680996875
 30
0.0
 11
127.906682571667
 21
121.5870524957207
 31
0.0
  0
LINE
  5
307
330
6C
100
AcDbEntity
  8
Overlay (ISO)
 48
0.4004427790641786
100
AcDbLine
 10
127.906682571667
 20
132.6766837036559
 30
0.0
 11
127.906682571667
 21
133.1318680996882
 31
0.0
  0
SPLINE
  5
308
330
6C
100
AcDbEntity
  8
Overlay (ISO)
 48
0.6260591745376587
100
AcDbSpline
210
0.0
220
0.0
230
1.0
 70
    12
 71
     2
 72
     6
 73
     3
 74
     0
 42
0.0000000001
 43
0.0000000001
 40
-1.486263498190694
 40
-1.486263498190694
 40
-1.486263498190694
 40
-1.36702465746637
 40
-1.36702465746637
 40
-1.36702465746637
 10
127.9066825717057
 20
119.6318680996473
 30
0.0
 41
1.0
 10
128.1170564683822
 20
119.4132411330707
 30
0.0
 41
1.0
 10
128.3396952735592
 20
119.194614166494
 30
0.0
 41
1.0
  0
LINE
  5
309
330
6C
100
AcDbEntity
  8
Overlay (ISO)
 48
1.410424947738645
100
AcDbLine
 10
132.9736698697747
 20
119.7220619347469
 30
0.0
 11
132.9736698697747
 21
118.6318680996875
 31
0.0
  0
SPLINE
  5
30A
330
6C
100
AcDbEntity
  8
Overlay (ISO)
 48
2.376354217529294
100
AcDbSpline
210
0.0
220
0.0
230
1.0
 70
    28
 71
     2
 72
     6
 73
     3
 74
     0
 42
0.0000000001
 43
0.0000000001
 40
0.8365524254088846
 40
0.8365524254088846
 40
0.8365524254088846
 40
1.2474975411893
 40
1.2474975411893
 40
1.2474975411893
 10
133.406682571667
 20
118.6318680996864
 30
0.0
 41
1.0
 10
133.406682571667
 20
118.6318680996869
 30
0.0
 41
1.044904085362809
 10
132.9736698697747
 20
118.6318680996875
 30
0.0
 41
1.045691116018822
  0
LINE
  5
30B
330
6C
100
AcDbEntity
  8
Overlay (ISO)
 48
7.169835090637207
100
AcDbLine
 10
133.406682571667
 20
118.6318680996864
 30
0.0
 11
133.406682571667
 21
122.749221817815
 31
0.0
  0
SPLINE
  5
30C
330
6C
100
AcDbEntity
  8
Overlay (ISO)
 48
2.376354217529294
100
AcDbSpline
210
0.0
220
0.0
230
1.0
 70
    28
 71
     2
 72
     6
 73
     3
 74
     0
 42
0.0000000001
 43
0.0000000001
 40
0.4256073096284699
 40
0.4256073096284699
 40
0.4256073096284699
 40
0.8365524254088839
 40
0.8365524254088839
 40
0.8365524254088839
 10
132.9736698697747
 20
135.6318680996875
 30
0.0
 41
1.045691116018829
 10
133.406682571667
 20
135.6318680996869
 30
0.0
 41
1.044904085362813
 10
133.406682571667
 20
135.6318680996864
 30
0.0
 41
1.0
  0
LINE
  5
30D
330
6C
100
AcDbEntity
  8
Overlay (ISO)
 48
1.410424947738645
100
AcDbLine
 10
132.9736698697747
 20
135.6318680996875
 30
0.0
 11
132.9736698697747
 21
134.5416742646292
 31
0.0
  0
LINE
  5
30E
330
6C
100
AcDbEntity
  8
Overlay (ISO)
 48
7.169835090637207
100
AcDbLine
 10
133.406682571667
 20
131.5145143815621
 30
0.0
 11
133.406682571667
 21
135.6318680996864
 31
0.0
  0
LINE
  5
30F
330
6C
100
AcDbEntity
  8
Overlay (ISO)
 48
9.071301460266113
100
AcDbLine
 10
132.9736698697747
 20
118.6318680996875
 30
0.0
 11
110.8396952735592
 21
118.6318680996875
 31
0.0
  0
LINE
  5
310
330
6C
100
AcDbEntity
  8
Overlay (ISO)
 48
2.990718841552734
100
AcDbLine
 10
110.8396952735592
 20
119.7220619347469
 30
0.0
 11
115.4736698697748
 21
119.7220619347469
 31
0.0
  0
LINE
  5
311
330
6C
100
AcDbEntity
  8
Overlay (ISO)
 48
1.410424947738645
100
AcDbLine
 10
110.8396952735592
 20
118.6318680996875
 30
0.0
 11
110.8396952735592
 21
119.7220619347469
 31
0.0
  0
LINE
  5
312
330
6C
100
AcDbEntity
  8
Overlay (ISO)
 48
1.410424947738645
100
AcDbLine
 10
110.8396952735592
 20
134.5416742646292
 30
0.0
 11
110.8396952735592
 21
135.6318680996875
 31
0.0
  0
LINE
  5
313
330
6C
100
AcDbEntity
  8
Overlay (ISO)
 48
1.410424947738645
100
AcDbLine
 10
110.8396952735592
 20
126.0416742646303
 30
0.0
 11
110.8396952735592
 21
128.222061934748
 31
0.0
  0
LINE
  5
314
330
6C
100
AcDbEntity
  8
Overlay (ISO)
 48
2.980243921279905
100
AcDbLine
 10
115.4574401818975
 20
134.5416742646292
 30
0.0
 11
110.8396952735592
 21
134.5416742646292
 31
0.0
  0
LINE
  5
315
330
6C
100
AcDbEntity
  8
Overlay (ISO)
 48
2.1877863407135
100
AcDbLine
 10
110.8396952735592
 20
135.6318680996875
 30
0.0
 11
114.229606305275
 21
135.6318680996875
 31
0.0
  0
LINE
  5
316
330
6C
100
AcDbEntity
  8
Overlay (ISO)
 48
2.386104822158813
100
AcDbLine
 10
114.5368808509964
 20
126.0416742646303
 30
0.0
 11
110.8396952735592
 21
126.0416742646303
 31
0.0
  0
LINE
  5
317
330
6C
100
AcDbEntity
  8
Overlay (ISO)
 48
2.386104822158813
100
AcDbLine
 10
110.8396952735592
 20
128.222061934748
 30
0.0
 11
114.5368808509964
 21
128.222061934748
 31
0.0
  0
LINE
  5
318
330
6C
100
AcDbEntity
  8
Overlay (ISO)
 48
2.1877863407135
100
AcDbLine
 10
129.5837588380591
 20
135.6318680996875
 30
0.0
 11
132.9736698697747
 21
135.6318680996875
 31
0.0
  0
SPLINE
  5
319
330
6C
100
AcDbEntity
  8
Overlay (ISO)
 48
2.376354217529294
100
AcDbSpline
210
0.0
220
0.0
230
1.0
 70
    28
 71
     2
 72
     6
 73
     3
 74
     0
 42
0.0000000001
 43
0.0000000001
 40
0.4226777092670462
 40
0.4226777092670462
 40
0.4226777092670462
 40
0.8332926396892185
 40
0.8332926396892185
 40
0.8332926396892185
 10
110.8396952735592
 20
118.6318680996875
 30
0.0
 41
1.045413293158438
 10
110.406682571667
 20
118.6318680996869
 30
0.0
 41
1.044765269262242
 10
110.406682571667
 20
118.6318680996864
 30
0.0
 41
1.0
  0
SPLINE
  5
31A
330
6C
100
AcDbEntity
  8
Overlay (ISO)
 48
2.376354217529294
100
AcDbSpline
210
0.0
220
0.0
230
1.0
 70
    28
 71
     2
 72
     6
 73
     3
 74
     0
 42
0.0000000001
 43
0.0000000001
 40
0.8332926396892174
 40
0.8332926396892174
 40
0.8332926396892174
 40
1.243907570111385
 40
1.243907570111385
 40
1.243907570111385
 10
110.406682571667
 20
135.6318680996864
 30
0.0
 41
1.0
 10
110.406682571667
 20
135.6318680996869
 30
0.0
 41
1.044765269262236
 10
110.8396952735592
 20
135.6318680996875
 30
0.0
 41
1.045413293158431
  0
LINE
  5
31B
330
6C
100
AcDbEntity
  8
Overlay (ISO)
 48
7.296048641204831
100
AcDbLine
 10
110.406682571667
 20
135.6318680996864
 30
0.0
 11
110.406682571667
 21
131.3818680996885
 31
0.0
  0
SPLINE
  5
31C
330
6C
100
AcDbEntity
  8
Overlay (ISO)
 48
2.376354217529294
100
AcDbSpline
210
0.0
220
0.0
230
1.0
 70
    12
 71
     2
 72
     6
 73
     3
 74
     0
 42
0.0000000001
 43
0.0000000001
 40
0.4226777092670477
 40
0.4226777092670477
 40
0.4226777092670477
 40
0.8332926396892176
 40
0.8332926396892176
 40
0.8332926396892176
 10
110.8396952735592
 20
134.5416742646292
 30
0.0
 41
1.045413293158433
 10
110.406682571667
 20
132.8950147138854
 30
0.0
 41
1.044765269262237
 10
110.406682571667
 20
131.3818680996885
 30
0.0
 41
1.0
  0
SPLINE
  5
31D
330
6C
100
AcDbEntity
  8
Overlay (ISO)
 48
2.376354217529294
100
AcDbSpline
210
0.0
220
0.0
230
1.0
 70
    12
 71
     2
 72
     6
 73
     3
 74
     0
 42
0.0000000001
 43
0.0000000001
 40
0.8332926396892176
 40
0.8332926396892176
 40
0.8332926396892176
 40
1.243907570111385
 40
1.243907570111385
 40
1.243907570111385
 10
110.406682571667
 20
131.3818680996885
 30
0.0
 41
1.0
 10
110.406682571667
 20
129.8687214854917
 30
0.0
 41
1.044765269262236
 10
110.8396952735592
 20
128.222061934748
 30
0.0
 41
1.045413293158431
  0
LINE
  5
31E
330
6C
100
AcDbEntity
  8
Overlay (ISO)
 48
7.296048641204831
100
AcDbLine
 10
110.406682571667
 20
131.3818680996885
 30
0.0
 11
110.406682571667
 21
122.8818680996886
 31
0.0
  0
SPLINE
  5
31F
330
6C
100
AcDbEntity
  8
Overlay (ISO)
 48
2.376354217529294
100
AcDbSpline
210
0.0
220
0.0
230
1.0
 70
    12
 71
     2
 72
     6
 73
     3
 74
     0
 42
0.0000000001
 43
0.0000000001
 40
0.4226777092670467
 40
0.4226777092670467
 40
0.4226777092670467
 40
0.8332926396892183
 40
0.8332926396892183
 40
0.8332926396892183
 10
110.8396952735592
 20
126.0416742646303
 30
0.0
 41
1.045413293158434
 10
110.406682571667
 20
124.395014713886
 30
0.0
 41
1.044765269262239
 10
110.406682571667
 20
122.8818680996886
 30
0.0
 41
1.0
  0
SPLINE
  5
320
330
6C
100
AcDbEntity
  8
Overlay (ISO)
 48
2.376354217529294
100
AcDbSpline
210
0.0
220
0.0
230
1.0
 70
    12
 71
     2
 72
     6
 73
     3
 74
     0
 42
0.0000000001
 43
0.0000000001
 40
0.8332926396892183
 40
0.8332926396892183
 40
0.8332926396892183
 40
1.243907570111389
 40
1.243907570111389
 40
1.243907570111389
 10
110.406682571667
 20
122.8818680996886
 30
0.0
 41
1.0
 10
110.406682571667
 20
121.368721485491
 30
0.0
 41
1.044765269262239
 10
110.8396952735592
 20
119.7220619347469
 30
0.0
 41
1.045413293158434
  0
LINE
  5
321
330
6C
100
AcDbEntity
  8
Overlay (ISO)
 48
7.296048641204831
100
AcDbLine
 10
110.406682571667
 20
122.8818680996885
 30
0.0
 11
110.406682571667
 21
118.6318680996864
 31
0.0
  0
LINE
  5
322
330
6C
100
AcDbEntity
  8
Overlay (ISO)
 48
9.836065292358398
100
AcDbLine
 10
115.906682571667
 20
118.7914544408814
 30
0.0
 11
127.906682571667
 21
118.7914544408814
 31
0.0
  0
LINE
  5
323
330
6C
100
AcDbEntity
  8
Overlay (ISO)
 48
9.836065292358398
100
AcDbLine
 10
115.906682571667
 20
119.6318680996875
 30
0.0
 11
127.906682571667
 21
119.6318680996875
 31
0.0
  0
LINE
  5
324
330
6C
100
AcDbEntity
  8
Overlay (ISO)
 48
0.5423123240470888
100
AcDbLine
 10
127.906682571667
 20
118.7914544408814
 30
0.0
 11
127.906682571667
 21
119.6318680996875
 31
0.0
  0
LINE
  5
325
330
6C
100
AcDbEntity
  8
Overlay (ISO)
 48
0.5423123240470888
100
AcDbLine
 10
115.906682571667
 20
118.7914544408814
 30
0.0
 11
115.906682571667
 21
119.6318680996875
 31
0.0
  0
ELLIPSE
  5
326
330
6C
100
AcDbEntity
  8
Overlay (ISO)
 48
0.6166242957115175
100
AcDbEllipse
 10
118.2160836484255
 20
127.1318680996864
 30
0.0
 11
0.0
 21
9.25
 31
0.0
210
0.0
220
0.0
230
1.0
 40
0.577350269189626
 41
2.602318241271794
 42
2.694403908363451
  0
LINE
  5
327
330
6C
100
AcDbEntity
  8
Overlay (ISO)
 48
0.611578106880188
100
AcDbLine
 10
115.4736698697748
 20
119.7220619347469
 30
0.0
 11
115.4736698697748
 21
119.194614166494
 31
0.0
  0
SPLINE
  5
328
330
6C
100
AcDbEntity
  8
Overlay (ISO)
 48
2.201697826385498
100
AcDbSpline
210
0.0
220
0.0
230
1.0
 70
    12
 71
     2
 72
     6
 73
     3
 74
     0
 42
0.0000000001
 43
0.0000000001
 40
0.8123858579521044
 40
0.8123858579521044
 40
0.8123858579521044
 40
1.189117518252846
 40
1.189117518252846
 40
1.189117518252846
 10
115.905457395633
 20
131.5463665294691
 30
0.0
 41
1.004365595477415
 10
115.8845408266267
 20
132.9507248045559
 30
0.0
 41
1.042042755126312
 10
115.4914240700441
 20
134.4735362006454
 30
0.0
 41
1.041803747226504
  0
SPLINE
  5
329
330
6C
100
AcDbEntity
  8
Overlay (ISO)
 48
2.253755569458005
100
AcDbSpline
210
0.0
220
0.0
230
1.0
 70
    12
 71
     2
 72
     6
 73
     3
 74
     0
 42
0.0000000001
 43
0.0000000001
 40
0.3847937513989829
 40
0.3847937513989829
 40
0.3847937513989829
 40
0.7699378181404203
 40
0.7699378181404203
 40
0.7699378181404203
 10
115.4736698697748
 20
119.7220619347469
 30
0.0
 41
1.041774167103256
 10
115.8840910111821
 20
121.2828103593832
 30
0.0
 41
1.042884084947768
 10
115.905457395633
 20
122.7173696699079
 30
0.0
 41
1.004365595477415
  0
LINE
  5
32A
330
6C
100
AcDbEntity
  8
Overlay (ISO)
 48
1.301975727081297
100
AcDbLine
 10
115.906682571667
 20
131.5480315930389
 30
0.0
 11
115.906682571667
 21
133.1318680996882
 31
0.0
  0
LINE
  5
32B
330
6C
100
AcDbEntity
  8
Overlay (ISO)
 48
2.932254076004028
100
AcDbLine
 10
115.906682571667
 20
119.6318680996876
 30
0.0
 11
115.906682571667
 21
122.7157046063382
 31
0.0
  0
SPLINE
  5
32C
330
6C
100
AcDbEntity
  8
Overlay (ISO)
 48
0.6260591745376587
100
AcDbSpline
210
0.0
220
0.0
230
1.0
 70
    12
 71
     2
 72
     6
 73
     3
 74
     0
 42
0.0000000001
 43
0.0000000001
 40
-1.486263498190694
 40
-1.486263498190694
 40
-1.486263498190694
 40
-1.36702465746637
 40
-1.36702465746637
 40
-1.36702465746637
 10
115.9066825716283
 20
119.6318680996473
 30
0.0
 41
1.0
 10
115.6963086749518
 20
119.4132411330707
 30
0.0
 41
1.0
 10
115.4736698697748
 20
119.194614166494
 30
0.0
 41
1.0
  0
ELLIPSE
  5
32D
330
6C
100
AcDbEntity
  8
Overlay (ISO)
 48
0.0552148260176182
100
AcDbEllipse
 10
121.906682571667
 20
144.1318680996864
 30
0.0
 11
0.0
 21
14.72243186433292
 31
0.0
210
0.0
220
0.0
230
1.0
 40
0.5773502691897253
 41
3.996844707048501
 42
4.002960670239064
  0
LINE
  5
32E
330
6C
100
AcDbEntity
  8
Overlay (ISO)
 48
8.755258560180664
100
AcDbLine
 10
130.406682571667
 20
141.6318680996864
 30
0.0
 11
113.406682571667
 21
141.6318680996864
 31
0.0
  0
SPLINE
  5
32F
330
6C
100
AcDbEntity
  8
Overlay (ISO)
 48
1.620177268981931
100
AcDbSpline
210
0.0
220
0.0
230
1.0
 70
     8
 71
     3
 72
     8
 73
     4
 74
     0
 42
0.0000000001
 43
0.0000000001
 40
0.8292463199719302
 40
0.8292463199719302
 40
0.8292463199719302
 40
0.8292463199719302
 40
1.069319888959278
 40
1.069319888959278
 40
1.069319888959278
 40
1.069319888959278
 10
115.4574401818975
 20
134.5416742646292
 30
0.0
 10
114.991419961817
 20
134.9472823589477
 30
0.0
 10
114.5655106789376
 20
135.3284842438151
 30
0.0
 10
114.229606305275
 20
135.6318680996875
 30
0.0
  0
ELLIPSE
  5
330
330
6C
100
AcDbEntity
  8
Overlay (ISO)
 48
0.0552148260176182
100
AcDbEllipse
 10
121.906682571667
 20
144.1318680996864
 30
0.0
 11
0.0
 21
14.72243186433292
 31
0.0
210
0.0
220
0.0
230
1.0
 40
0.5773502691897253
 41
2.280224636940519
 42
2.286340600131083
  0
SPLINE
  5
331
330
6C
100
AcDbEntity
  8
Overlay (ISO)
 48
0.9509410858154295
100
AcDbSpline
210
0.0
220
0.0
230
1.0
 70
     8
 71
     3
 72
    10
 73
     6
 74
     0
 42
0.0000000001
 43
0.0000000001
 40
2.358463870327546
 40
2.358463870327546
 40
2.358463870327546
 40
2.358463870327546
 40
2.381073897766034
 40
2.381073897766034
 40
2.502243251613869
 40
2.502243251613869
 40
2.502243251613869
 40
2.502243251613869
 10
115.4914240700441
 20
134.4735362006454
 30
0.0
 10
115.5139250019237
 20
134.404934782839
 30
0.0
 10
115.5361292748443
 20
134.3366895657813
 30
0.0
 10
115.6752651989946
 20
133.9055169123372
 30
0.0
 10
115.7928393394585
 20
133.5250528701308
 30
0.0
 10
115.906682571667
 20
133.1318680996882
 30
0.0
  0
LINE
  5
332
330
6C
100
AcDbEntity
  8
Overlay (ISO)
 48
0.7892017364501954
100
AcDbLine
 10
115.906682571667
 20
133.1318680996882
 30
0.0
 11
116.6387370518272
 21
132.3998136195282
 31
0.0
  0
LINE
  5
333
330
6C
100
AcDbEntity
  8
Overlay (ISO)
 48
0.3958848714828491
100
AcDbLine
 10
127.5454247875803
 20
132.7706103156015
 30
0.0
 11
127.906682571667
 21
133.1318680996882
 31
0.0
  0
SPLINE
  5
334
330
6C
100
AcDbEntity
  8
Overlay (ISO)
 48
0.9509410858154295
100
AcDbSpline
210
0.0
220
0.0
230
1.0
 70
     8
 71
     3
 72
    10
 73
     6
 74
     0
 42
0.0000000001
 43
0.0000000001
 40
3.664699947043588
 40
3.664699947043588
 40
3.664699947043588
 40
3.664699947043588
 40
3.785869300891423
 40
3.785869300891423
 40
3.808479328329911
 40
3.808479328329911
 40
3.808479328329911
 40
3.808479328329911
 10
127.906682571667
 20
133.1318680996882
 30
0.0
 10
128.0205258038755
 20
133.5250528701308
 30
0.0
 10
128.1380999443394
 20
133.9055169123372
 30
0.0
 10
128.2772358684897
 20
134.3366895657813
 30
0.0
 10
128.2994401414103
 20
134.404934782839
 30
0.0
 10
128.3219410732899
 20
134.4735362006454
 30
0.0
  0
SPLINE
  5
335
330
6C
100
AcDbEntity
  8
Overlay (ISO)
 48
1.620176911354064
100
AcDbSpline
210
0.0
220
0.0
230
1.0
 70
     8
 71
     3
 72
     8
 73
     4
 74
     0
 42
0.0000000001
 43
0.0000000001
 40
4.714232720745108
 40
4.714232720745108
 40
4.714232720745108
 40
4.714232720745108
 40
4.954306289732459
 40
4.954306289732459
 40
4.954306289732459
 40
4.954306289732459
 10
129.5837588380591
 20
135.6318680996875
 30
0.0
 10
129.2479126638166
 20
135.3285367239894
 30
0.0
 10
128.822011425372
 20
134.9473405790043
 30
0.0
 10
128.3559249614365
 20
134.5416742646292
 30
0.0
  0
LINE
  5
336
330
6C
100
AcDbEntity
  8
Overlay (ISO)
 48
3.872366666793823
100
AcDbLine
 10
113.406682571667
 20
135.6318680996864
 30
0.0
 11
113.406682571667
 21
141.6318680996864
 31
0.0
  0
LINE
  5
337
330
6C
100
AcDbEntity
  8
Overlay (ISO)
 48
3.872366666793823
100
AcDbLine
 10
130.406682571667
 20
135.6318680996864
 30
0.0
 11
130.406682571667
 21
141.6318680996864
 31
0.0
  0
LINE
  5
338
330
6C
100
AcDbEntity
  8
Overlay (ISO)
 48
10.2459020614624
100
AcDbLine
 10
145.906682571667
 20
118.8818680996864
 30
0.0
 11
133.406682571667
 21
118.8818680996864
 31
0.0
  0
LINE
  5
339
330
6C
100
AcDbEntity
  8
Overlay (ISO)
 48
10.2459020614624
100
AcDbLine
 10
145.906682571667
 20
135.3818680996864
 30
0.0
 11
133.406682571667
 21
135.3818680996864
 31
0.0
  0
LINE
  5
33A
330
6C
100
AcDbEntity
  8
Overlay (ISO)
 48
0.4562745988368988
100
AcDbLine
 10
129.9066825716669
 20
142.1318680996864
 30
0.0
 11
130.406682571667
 21
141.6318680996864
 31
0.0
  0
LINE
  5
33B
330
6C
100
AcDbEntity
  8
Overlay (ISO)
 48
0.4562745988368988
100
AcDbLine
 10
113.906682571667
 20
142.1318680996864
 30
0.0
 11
113.406682571667
 21
141.6318680996864
 31
0.0
  0
ARC
  5
35E
330
6C
100
AcDbEntity
  8
Overlay (ISO)
 48
7.781566619873044
100
AcDbCircle
 10
121.906682571667
 20
127.1318680996944
 30
0.0
 40
5.499999999999999
100
AcDbArc
 50
15.82662013187198
 51
164.1733798681272
  0
ARC
  5
371
330
6C
100
AcDbEntity
  8
Overlay (ISO)
 48
7.781566619873044
100
AcDbCircle
 10
121.906682571667
 20
127.1318680996944
 30
0.0
 40
5.499999999999997
100
AcDbArc
 50
195.8266201318719
 51
344.1733798681273
  0
SPLINE
  5
37C
330
6C
100
AcDbEntity
  8
Overlay (ISO)
 48
3.21578788757324
100
AcDbSpline
210
0.0
220
0.0
230
1.0
 70
    12
 71
     2
 72
     6
 73
     3
 74
     0
 42
0.0000000001
 43
0.0000000001
 40
0.2934711240705192
 40
0.2934711240705192
 40
0.2934711240705192
 40
0.836552425408885
 40
0.836552425408885
 40
0.836552425408885
 10
109.6474931931122
 20
118.6318680996878
 30
0.0
 41
1.041636008661477
 10
110.406682571667
 20
120.9094362353526
 30
0.0
 41
1.059342642552006
 10
110.406682571667
 20
122.8818680996885
 30
0.0
 41
1.0
  0
SPLINE
  5
37D
330
6C
100
AcDbEntity
  8
Overlay (ISO)
 48
3.21578788757324
100
AcDbSpline
210
0.0
220
0.0
230
1.0
 70
    28
 71
     2
 72
     6
 73
     3
 74
     0
 42
0.0000000001
 43
0.0000000001
 40
0.8365524254088843
 40
0.8365524254088843
 40
0.8365524254088843
 40
1.379633726747249
 40
1.379633726747249
 40
1.379633726747249
 10
110.406682571667
 20
118.6318680996863
 30
0.0
 41
1.0
 10
110.406682571667
 20
118.631868099687
 30
0.0
 41
1.059342642552006
 10
109.6474931931122
 20
118.6318680996878
 30
0.0
 41
1.041636008661477
  0
LINE
  5
37E
330
6C
100
AcDbEntity
  8
Overlay (ISO)
 48
7.296048641204831
100
AcDbLine
 10
110.406682571667
 20
118.6318680996863
 30
0.0
 11
110.406682571667
 21
122.8818680996885
 31
0.0
  0
SPLINE
  5
37F
330
6C
100
AcDbEntity
  8
Overlay (ISO)
 48
3.21578788757324
100
AcDbSpline
210
0.0
220
0.0
230
1.0
 70
    12
 71
     2
 72
     6
 73
     3
 74
     0
 42
0.0000000001
 43
0.0000000001
 40
0.836552425408885
 40
0.836552425408885
 40
0.836552425408885
 40
1.37963372674725
 40
1.37963372674725
 40
1.37963372674725
 10
110.406682571667
 20
122.8818680996885
 30
0.0
 41
1.0
 10
110.406682571667
 20
124.8542999640245
 30
0.0
 41
1.059342642552004
 10
109.6474931931122
 20
127.1318680996893
 30
0.0
 41
1.041636008661477
  0
LINE
  5
380
330
6C
100
AcDbEntity
  8
Overlay (ISO)
 48
7.296048641204831
100
AcDbLine
 10
110.406682571667
 20
122.8818680996885
 30
0.0
 11
110.406682571667
 21
131.3818680996885
 31
0.0
  0
SPLINE
  5
381
330
6C
100
AcDbEntity
  8
Overlay (ISO)
 48
3.21578788757324
100
AcDbSpline
210
0.0
220
0.0
230
1.0
 70
    12
 71
     2
 72
     6
 73
     3
 74
     0
 42
0.0000000001
 43
0.0000000001
 40
0.2934711240705186
 40
0.2934711240705186
 40
0.2934711240705186
 40
0.8365524254088846
 40
0.8365524254088846
 40
0.8365524254088846
 10
109.6474931931122
 20
127.1318680996893
 30
0.0
 41
1.041636008661481
 10
110.406682571667
 20
129.4094362353533
 30
0.0
 41
1.059342642552012
 10
110.406682571667
 20
131.3818680996885
 30
0.0
 41
1.0
  0
SPLINE
  5
382
330
6C
100
AcDbEntity
  8
Overlay (ISO)
 48
3.21578788757324
100
AcDbSpline
210
0.0
220
0.0
230
1.0
 70
    12
 71
     2
 72
     6
 73
     3
 74
     0
 42
0.0000000001
 43
0.0000000001
 40
0.8365524254088846
 40
0.8365524254088846
 40
0.8365524254088846
 40
1.37963372674725
 40
1.37963372674725
 40
1.37963372674725
 10
110.406682571667
 20
131.3818680996885
 30
0.0
 41
1.0
 10
110.406682571667
 20
133.3542999640238
 30
0.0
 41
1.059342642552004
 10
109.6474931931122
 20
135.6318680996879
 30
0.0
 41
1.041636008661475
  0
LINE
  5
383
330
6C
100
AcDbEntity
  8
Overlay (ISO)
 48
7.296048641204831
100
AcDbLine
 10
110.406682571667
 20
131.3818680996885
 30
0.0
 11
110.406682571667
 21
135.6318680996864
 31
0.0
  0
SPLINE
  5
384
330
6C
100
AcDbEntity
  8
Overlay (ISO)
 48
3.21578788757324
100
AcDbSpline
210
0.0
220
0.0
230
1.0
 70
    28
 71
     2
 72
     6
 73
     3
 74
     0
 42
0.0000000001
 43
0.0000000001
 40
0.2934711240705211
 40
0.2934711240705211
 40
0.2934711240705211
 40
0.8365524254088846
 40
0.8365524254088846
 40
0.8365524254088846
 10
109.6474931931122
 20
135.6318680996879
 30
0.0
 41
1.041636008661469
 10
110.406682571667
 20
135.6318680996871
 30
0.0
 41
1.059342642551992
 10
110.406682571667
 20
135.6318680996864
 30
0.0
 41
1.0
  0
LINE
  5
385
330
6C
100
AcDbEntity
  8
Overlay (ISO)
 48
9.411165237426756
100
AcDbLine
 10
98.16587195022188
 20
135.6318680996879
 30
0.0
 11
109.6474931931122
 21
135.6318680996879
 31
0.0
  0
LINE
  5
386
330
6C
100
AcDbEntity
  8
Overlay (ISO)
 48
9.411165237426756
100
AcDbLine
 10
98.16587195022194
 20
127.1318680996893
 30
0.0
 11
109.6474931931122
 21
127.1318680996893
 31
0.0
  0
LINE
  5
387
330
6C
100
AcDbEntity
  8
Overlay (ISO)
 48
9.411165237426756
100
AcDbLine
 10
98.16587195022194
 20
118.6318680996878
 30
0.0
 11
109.6474931931122
 21
118.6318680996878
 31
0.0
  0
SPLINE
  5
388
330
6C
100
AcDbEntity
  8
Overlay (ISO)
 48
3.21578788757324
100
AcDbSpline
210
0.0
220
0.0
230
1.0
 70
    12
 71
     2
 72
     6
 73
     3
 74
     0
 42
0.0000000001
 43
0.0000000001
 40
0.2934711240705226
 40
0.2934711240705226
 40
0.2934711240705226
 40
0.8365524254088853
 40
0.8365524254088853
 40
0.8365524254088853
 10
98.16587195022188
 20
135.6318680996879
 30
0.0
 41
1.041636008661464
 10
97.4066825716671
 20
133.3542999640238
 30
0.0
 41
1.059342642551986
 10
97.40668257166705
 20
131.3818680996885
 30
0.0
 41
1.0
  0
SPLINE
  5
389
330
6C
100
AcDbEntity
  8
Overlay (ISO)
 48
3.21578788757324
100
AcDbSpline
210
0.0
220
0.0
230
1.0
 70
    12
 71
     2
 72
     6
 73
     3
 74
     0
 42
0.0000000001
 43
0.0000000001
 40
0.8365524254088853
 40
0.8365524254088853
 40
0.8365524254088853
 40
1.379633726747248
 40
1.379633726747248
 40
1.379633726747248
 10
97.40668257166705
 20
131.3818680996885
 30
0.0
 41
1.0
 10
97.4066825716671
 20
129.4094362353534
 30
0.0
 41
1.059342642551984
 10
98.16587195022194
 20
127.1318680996893
 30
0.0
 41
1.041636008661461
  0
SPLINE
  5
38A
330
6C
100
AcDbEntity
  8
Overlay (ISO)
 48
3.21578788757324
100
AcDbSpline
210
0.0
220
0.0
230
1.0
 70
    28
 71
     2
 72
     6
 73
     3
 74
     0
 42
0.0000000001
 43
0.0000000001
 40
0.8365524254088857
 40
0.8365524254088857
 40
0.8365524254088857
 40
1.379633726747248
 40
1.379633726747248
 40
1.379633726747248
 10
97.40668257166705
 20
135.6318680996864
 30
0.0
 41
1.0
 10
97.4066825716671
 20
135.6318680996871
 30
0.0
 41
1.059342642551986
 10
98.16587195022188
 20
135.6318680996879
 30
0.0
 41
1.041636008661464
  0
LINE
  5
38B
330
6C
100
AcDbEntity
  8
Overlay (ISO)
 48
7.296048641204831
100
AcDbLine
 10
97.40668257166705
 20
135.6318680996864
 30
0.0
 11
97.40668257166705
 21
131.3818680996885
 31
0.0
  0
LINE
  5
38C
330
6C
100
AcDbEntity
  8
Overlay (ISO)
 48
7.296048641204831
100
AcDbLine
 10
97.40668257166705
 20
131.3818680996885
 30
0.0
 11
97.40668257166705
 21
122.8818680996885
 31
0.0
  0
SPLINE
  5
38D
330
6C
100
AcDbEntity
  8
Overlay (ISO)
 48
3.21578788757324
100
AcDbSpline
210
0.0
220
0.0
230
1.0
 70
    12
 71
     2
 72
     6
 73
     3
 74
     0
 42
0.0000000001
 43
0.0000000001
 40
0.2934711240705224
 40
0.2934711240705224
 40
0.2934711240705224
 40
0.836552425408885
 40
0.836552425408885
 40
0.836552425408885
 10
98.16587195022194
 20
127.1318680996893
 30
0.0
 41
1.041636008661464
 10
97.4066825716671
 20
124.8542999640245
 30
0.0
 41
1.059342642551986
 10
97.40668257166705
 20
122.8818680996885
 30
0.0
 41
1.0
  0
SPLINE
  5
38E
330
6C
100
AcDbEntity
  8
Overlay (ISO)
 48
3.21578788757324
100
AcDbSpline
210
0.0
220
0.0
230
1.0
 70
    12
 71
     2
 72
     6
 73
     3
 74
     0
 42
0.0000000001
 43
0.0000000001
 40
0.836552425408885
 40
0.836552425408885
 40
0.836552425408885
 40
1.379633726747248
 40
1.379633726747248
 40
1.379633726747248
 10
97.40668257166705
 20
122.8818680996885
 30
0.0
 41
1.0
 10
97.4066825716671
 20
120.9094362353527
 30
0.0
 41
1.059342642551986
 10
98.16587195022194
 20
118.6318680996878
 30
0.0
 41
1.041636008661464
  0
LINE
  5
38F
330
6C
100
AcDbEntity
  8
Overlay (ISO)
 48
7.296048641204831
100
AcDbLine
 10
97.40668257166705
 20
122.8818680996886
 30
0.0
 11
97.40668257166705
 21
118.6318680996863
 31
0.0
  0
SPLINE
  5
390
330
6C
100
AcDbEntity
  8
Overlay (ISO)
 48
3.21578788757324
100
AcDbSpline
210
0.0
220
0.0
230
1.0
 70
    28
 71
     2
 72
     6
 73
     3
 74
     0
 42
0.0000000001
 43
0.0000000001
 40
0.2934711240705217
 40
0.2934711240705217
 40
0.2934711240705217
 40
0.836552425408885
 40
0.836552425408885
 40
0.836552425408885
 10
98.16587195022194
 20
118.6318680996878
 30
0.0
 41
1.041636008661465
 10
97.4066825716671
 20
118.631868099687
 30
0.0
 41
1.05934264255199
 10
97.40668257166705
 20
118.6318680996863
 30
0.0
 41
1.0
  0
LINE
  5
391
330
6C
100
AcDbEntity
  8
Overlay (ISO)
 48
9.012765884399414
100
AcDbLine
 10
127.156682571667
 20
162.1318680996863
 30
0.0
 11
116.656682571667
 21
162.1318680996863
 31
0.0
  0
LINE
  5
392
330
6C
100
AcDbEntity
  8
Overlay (ISO)
 48
8.312295913696289
100
AcDbLine
 10
115.4507204574869
 20
160.0430804459233
 30
0.0
 11
128.3626446858471
 21
160.0430804459233
 31
0.0
  0
LINE
  5
393
330
6C
100
AcDbEntity
  8
Overlay (ISO)
 48
1.556582689285278
100
AcDbLine
 10
127.156682571667
 20
162.1318680996863
 30
0.0
 11
128.3626446858471
 21
160.0430804459233
 31
0.0
  0
LINE
  5
394
330
6C
100
AcDbEntity
  8
Overlay (ISO)
 48
1.556582689285278
100
AcDbLine
 10
116.656682571667
 20
162.1318680996863
 30
0.0
 11
115.4507204574869
 21
160.0430804459233
 31
0.0
  0
LINE
  5
395
330
6C
100
AcDbEntity
  8
Overlay (ISO)
 48
7.296048641204831
100
AcDbLine
 10
126.156682571667
 20
142.1318680996885
 30
0.0
 11
130.406682571667
 21
142.1318680996864
 31
0.0
  0
LINE
  5
396
330
6C
100
AcDbEntity
  8
Overlay (ISO)
 48
7.296048641204831
100
AcDbLine
 10
117.6566825716671
 20
142.1318680996886
 30
0.0
 11
126.156682571667
 21
142.1318680996885
 31
0.0
  0
LINE
  5
397
330
6C
100
AcDbEntity
  8
Overlay (ISO)
 48
7.296048641204831
100
AcDbLine
 10
113.406682571667
 20
142.1318680996864
 30
0.0
 11
117.6566825716671
 21
142.1318680996885
 31
0.0
  0
SPLINE
  5
398
330
6C
100
AcDbEntity
  8
Overlay (ISO)
 48
3.21578788757324
100
AcDbSpline
210
0.0
220
0.0
230
1.0
 70
    12
 71
     2
 72
     6
 73
     3
 74
     0
 42
0.0000000001
 43
0.0000000001
 40
0.2934711240705219
 40
0.2934711240705219
 40
0.2934711240705219
 40
0.8365524254088857
 40
0.8365524254088857
 40
0.8365524254088857
 10
113.406682571667
 20
142.8910574782427
 30
0.0
 41
1.041636008661464
 10
115.6842507073315
 20
142.1318680996883
 30
0.0
 41
1.05934264255199
 10
117.6566825716671
 20
142.1318680996885
 30
0.0
 41
1.0
  0
SPLINE
  5
399
330
6C
100
AcDbEntity
  8
Overlay (ISO)
 48
3.21578788757324
100
AcDbSpline
210
0.0
220
0.0
230
1.0
 70
    28
 71
     2
 72
     6
 73
     3
 74
     0
 42
0.0000000001
 43
0.0000000001
 40
0.8365524254088853
 40
0.8365524254088853
 40
0.8365524254088853
 40
1.379633726747248
 40
1.379633726747248
 40
1.379633726747248
 10
113.406682571667
 20
142.1318680996864
 30
0.0
 41
1.0
 10
113.406682571667
 20
142.1318680996871
 30
0.0
 41
1.059342642551986
 10
113.406682571667
 20
142.8910574782427
 30
0.0
 41
1.041636008661464
  0
SPLINE
  5
39A
330
6C
100
AcDbEntity
  8
Overlay (ISO)
 48
3.21578788757324
100
AcDbSpline
210
0.0
220
0.0
230
1.0
 70
    12
 71
     2
 72
     6
 73
     3
 74
     0
 42
0.0000000001
 43
0.0000000001
 40
0.2934711240705223
 40
0.2934711240705223
 40
0.2934711240705223
 40
0.836552425408885
 40
0.836552425408885
 40
0.836552425408885
 10
121.906682571667
 20
142.8910574782442
 30
0.0
 41
1.041636008661464
 10
124.1842507073315
 20
142.131868099689
 30
0.0
 41
1.059342642551986
 10
126.156682571667
 20
142.1318680996886
 30
0.0
 41
1.0
  0
SPLINE
  5
39B
330
6C
100
AcDbEntity
  8
Overlay (ISO)
 48
3.21578788757324
100
AcDbSpline
210
0.0
220
0.0
230
1.0
 70
    12
 71
     2
 72
     6
 73
     3
 74
     0
 42
0.0000000001
 43
0.0000000001
 40
0.8365524254088857
 40
0.8365524254088857
 40
0.8365524254088857
 40
1.379633726747248
 40
1.379633726747248
 40
1.379633726747248
 10
117.6566825716671
 20
142.1318680996885
 30
0.0
 41
1.0
 10
119.6291144360026
 20
142.1318680996889
 30
0.0
 41
1.059342642551986
 10
121.906682571667
 20
142.8910574782442
 30
0.0
 41
1.041636008661461
  0
SPLINE
  5
39C
330
6C
100
AcDbEntity
  8
Overlay (ISO)
 48
3.21578788757324
100
AcDbSpline
210
0.0
220
0.0
230
1.0
 70
    12
 71
     2
 72
     6
 73
     3
 74
     0
 42
0.0000000001
 43
0.0000000001
 40
0.836552425408885
 40
0.836552425408885
 40
0.836552425408885
 40
1.379633726747248
 40
1.379633726747248
 40
1.379633726747248
 10
126.156682571667
 20
142.1318680996886
 30
0.0
 41
1.0
 10
128.1291144360025
 20
142.1318680996883
 30
0.0
 41
1.059342642551992
 10
130.406682571667
 20
142.8910574782427
 30
0.0
 41
1.041636008661466
  0
SPLINE
  5
39D
330
6C
100
AcDbEntity
  8
Overlay (ISO)
 48
3.21578788757324
100
AcDbSpline
210
0.0
220
0.0
230
1.0
 70
    28
 71
     2
 72
     6
 73
     3
 74
     0
 42
0.0000000001
 43
0.0000000001
 40
0.2934711240705219
 40
0.2934711240705219
 40
0.2934711240705219
 40
0.8365524254088846
 40
0.8365524254088846
 40
0.8365524254088846
 10
130.406682571667
 20
142.8910574782427
 30
0.0
 41
1.041636008661464
 10
130.406682571667
 20
142.1318680996871
 30
0.0
 41
1.059342642551986
 10
130.406682571667
 20
142.1318680996864
 30
0.0
 41
1.0
  0
LINE
  5
39E
330
6C
100
AcDbEntity
  8
Overlay (ISO)
 48
6.9521484375
100
AcDbLine
 10
130.406682571667
 20
142.8910574782427
 30
0.0
 11
130.406682571667
 21
151.372678721133
 31
0.0
  0
LINE
  5
39F
330
6C
100
AcDbEntity
  8
Overlay (ISO)
 48
6.9521484375
100
AcDbLine
 10
121.906682571667
 20
142.8910574782442
 30
0.0
 11
121.906682571667
 21
151.3726787211344
 31
0.0
  0
LINE
  5
3A0
330
6C
100
AcDbEntity
  8
Overlay (ISO)
 48
6.9521484375
100
AcDbLine
 10
113.406682571667
 20
142.8910574782427
 30
0.0
 11
113.406682571667
 21
151.372678721133
 31
0.0
  0
SPLINE
  5
3A1
330
6C
100
AcDbEntity
  8
Overlay (ISO)
 48
3.21578788757324
100
AcDbSpline
210
0.0
220
0.0
230
1.0
 70
    12
 71
     2
 72
     6
 73
     3
 74
     0
 42
0.0000000001
 43
0.0000000001
 40
0.2934711240705225
 40
0.2934711240705225
 40
0.2934711240705225
 40
0.836552425408885
 40
0.836552425408885
 40
0.836552425408885
 10
130.406682571667
 20
151.372678721133
 30
0.0
 41
1.041636008661464
 10
128.1291144360025
 20
152.1318680996881
 30
0.0
 41
1.059342642551987
 10
126.156682571667
 20
152.1318680996885
 30
0.0
 41
1.0
  0
SPLINE
  5
3A2
330
6C
100
AcDbEntity
  8
Overlay (ISO)
 48
3.21578788757324
100
AcDbSpline
210
0.0
220
0.0
230
1.0
 70
    12
 71
     2
 72
     6
 73
     3
 74
     0
 42
0.0000000001
 43
0.0000000001
 40
0.836552425408885
 40
0.836552425408885
 40
0.836552425408885
 40
1.379633726747248
 40
1.379633726747248
 40
1.379633726747248
 10
126.156682571667
 20
152.1318680996885
 30
0.0
 41
1.0
 10
124.1842507073315
 20
152.1318680996888
 30
0.0
 41
1.059342642551994
 10
121.906682571667
 20
151.3726787211344
 30
0.0
 41
1.041636008661469
  0
SPLINE
  5
3A3
330
6C
100
AcDbEntity
  8
Overlay (ISO)
 48
3.21578788757324
100
AcDbSpline
210
0.0
220
0.0
230
1.0
 70
    28
 71
     2
 72
     6
 73
     3
 74
     0
 42
0.0000000001
 43
0.0000000001
 40
0.836552425408885
 40
0.836552425408885
 40
0.836552425408885
 40
1.379633726747245
 40
1.379633726747245
 40
1.379633726747245
 10
130.406682571667
 20
152.1318680996864
 30
0.0
 41
1.0
 10
130.406682571667
 20
152.131868099687
 30
0.0
 41
1.059342642551986
 10
130.406682571667
 20
151.372678721133
 30
0.0
 41
1.041636008661464
  0
LINE
  5
3A4
330
6C
100
AcDbEntity
  8
Overlay (ISO)
 48
7.296048641204831
100
AcDbLine
 10
130.406682571667
 20
152.1318680996864
 30
0.0
 11
126.156682571667
 21
152.1318680996885
 31
0.0
  0
LINE
  5
3A5
330
6C
100
AcDbEntity
  8
Overlay (ISO)
 48
7.296048641204831
100
AcDbLine
 10
126.156682571667
 20
152.1318680996885
 30
0.0
 11
117.6566825716671
 21
152.1318680996885
 31
0.0
  0
SPLINE
  5
3A6
330
6C
100
AcDbEntity
  8
Overlay (ISO)
 48
3.21578788757324
100
AcDbSpline
210
0.0
220
0.0
230
1.0
 70
    12
 71
     2
 72
     6
 73
     3
 74
     0
 42
0.0000000001
 43
0.0000000001
 40
0.2934711240705223
 40
0.2934711240705223
 40
0.2934711240705223
 40
0.8365524254088853
 40
0.8365524254088853
 40
0.8365524254088853
 10
121.906682571667
 20
151.3726787211344
 30
0.0
 41
1.041636008661464
 10
119.6291144360026
 20
152.1318680996888
 30
0.0
 41
1.059342642551986
 10
117.656682571667
 20
152.1318680996885
 30
0.0
 41
1.0
  0
SPLINE
  5
3A7
330
6C
100
AcDbEntity
  8
Overlay (ISO)
 48
3.21578788757324
100
AcDbSpline
210
0.0
220
0.0
230
1.0
 70
    12
 71
     2
 72
     6
 73
     3
 74
     0
 42
0.0000000001
 43
0.0000000001
 40
0.8365524254088853
 40
0.8365524254088853
 40
0.8365524254088853
 40
1.379633726747248
 40
1.379633726747248
 40
1.379633726747248
 10
117.656682571667
 20
152.1318680996885
 30
0.0
 41
1.0
 10
115.6842507073315
 20
152.1318680996881
 30
0.0
 41
1.059342642551992
 10
113.406682571667
 20
151.372678721133
 30
0.0
 41
1.041636008661466
  0
LINE
  5
3A8
330
6C
100
AcDbEntity
  8
Overlay (ISO)
 48
7.296048641204831
100
AcDbLine
 10
117.6566825716671
 20
152.1318680996885
 30
0.0
 11
113.406682571667
 21
152.1318680996864
 31
0.0
  0
SPLINE
  5
3A9
330
6C
100
AcDbEntity
  8
Overlay (ISO)
 48
3.21578788757324
100
AcDbSpline
210
0.0
220
0.0
230
1.0
 70
    28
 71
     2
 72
     6
 73
     3
 74
     0
 42
0.0000000001
 43
0.0000000001
 40
0.2934711240705226
 40
0.2934711240705226
 40
0.2934711240705226
 40
0.8365524254088857
 40
0.8365524254088857
 40
0.8365524254088857
 10
113.406682571667
 20
151.372678721133
 30
0.0
 41
1.041636008661464
 10
113.406682571667
 20
152.131868099687
 30
0.0
 41
1.059342642551987
 10
113.406682571667
 20
152.1318680996864
 30
0.0
 41
1.0
  0
LINE
  5
3AA
330
6C
100
AcDbEntity
  8
Overlay (ISO)
 48
5.108376979827879
100
AcDbLine
 10
128.3626446858471
 20
160.0430804459233
 30
0.0
 11
128.609870071667
 21
152.1318680996864
 31
0.0
  0
LINE
  5
3AB
330
6C
100
AcDbEntity
  8
Overlay (ISO)
 48
5.108376979827879
100
AcDbLine
 10
115.4507204574869
 20
160.0430804459233
 30
0.0
 11
115.203495071667
 21
152.1318680996864
 31
0.0
  0
LINE
  5
3AC
330
6C
100
AcDbEntity
  8
Visible Narrow (ISO)
 48
7.773838520050047
100
AcDbLine
 10
127.7534522049104
 20
152.1318680996864
 30
0.0
 11
127.4572192286422
 21
161.6113233402685
 31
0.0
  0
LINE
  5
3AD
330
6C
100
AcDbEntity
  8
Visible Narrow (ISO)
 48
7.773838520050047
100
AcDbLine
 10
116.3561459146919
 20
161.6113233402685
 30
0.0
 11
116.0599129384237
 21
152.1318680996864
 31
0.0
  0
MTEXT
  5
727
330
6C
100
AcDbEntity
  8
0
100
AcDbMText
 10
164.054262516139
 20
111.2394696760312
 30
0.0
 40
5.0
 41
75.51480901941215
 71
     1
 72
     5
  1
ｴｰｽﾎﾞｰﾙ 3W 1BT-3222
 73
     1
 44
1.0
1001
ACAD
1000
ACAD_MTEXT_COLUMN_INFO_BEGIN
1070
    75
1070
     2
1070
    79
1070
     0
1070
    76
1070
     1
1070
    78
1070
     0
1070
    48
1040
75.51480901941215
1070
    49
1040
1.0
1070
    50
1070
     1
1040
0.0
1000
ACAD_MTEXT_COLUMN_INFO_END
  0
ENDSEC
  0
SECTION
  2
OBJECTS
  0
DICTIONARY
  5
C
330
0
100
AcDbDictionary
281
     1
  3
ACAD_2007HEADERVARS_RT
350
815
  3
ACAD_COLOR
350
63
  3
ACAD_GROUP
350
D
  3
ACAD_LAYOUT
350
62
  3
ACAD_MATERIAL
350
10
  3
ACAD_MLEADERSTYLE
350
66
  3
ACAD_MLINESTYLE
350
5F
  3
ACAD_PLOTSETTINGS
350
61
  3
ACAD_PLOTSTYLENAME
350
E
  3
ACAD_SCALELIST
350
42
  3
ACAD_TABLESTYLE
350
64
  3
ACAD_VISUALSTYLE
350
29
  3
ACDB_RECOMPOSE_DATA
350
814
  3
AcDbVariableDictionary
350
617
  3
AcmDictionary
350
6A7
  3
AMG
350
65E
  3
AMGSNAPSETTINGS
350
717
  0
DICTIONARY
  5
815
102
{ACAD_REACTORS
330
C
102
}
330
C
100
AcDbDictionary
281
     1
  3
DIMARCSYM
350
816
  3
DIMLTEX1
350
818
  3
DIMLTEX2
350
819
  3
DIMLTYPE
350
817
  0
DICTIONARY
  5
63
102
{ACAD_REACTORS
330
C
102
}
330
C
100
AcDbDictionary
281
     1
  0
DICTIONARY
  5
D
102
{ACAD_REACTORS
330
C
102
}
330
C
100
AcDbDictionary
281
     1
  0
DICTIONARY
  5
62
102
{ACAD_REACTORS
330
C
102
}
330
C
100
AcDbDictionary
281
     1
  3
Layout1
350
6B
  3
Layout2
350
73
  3
Model
350
6F
  0
DICTIONARY
  5
10
102
{ACAD_REACTORS
330
C
102
}
330
C
100
AcDbDictionary
281
     1
  3
ByBlock
350
19
  3
ByLayer
350
11
  3
Global
350
21
  0
DICTIONARY
  5
66
102
{ACAD_REACTORS
330
C
102
}
330
C
100
AcDbDictionary
281
     1
  3
Standard
350
67
  0
DICTIONARY
  5
5F
102
{ACAD_REACTORS
330
C
102
}
330
C
100
AcDbDictionary
281
     1
  3
Standard
350
60
  0
DICTIONARY
  5
61
102
{ACAD_REACTORS
330
C
102
}
330
C
100
AcDbDictionary
281
     1
  0
ACDBDICTIONARYWDFLT
  5
E
102
{ACAD_REACTORS
330
C
102
}
330
C
100
AcDbDictionary
281
     1
  3
Normal
350
F
100
AcDbDictionaryWithDefault
340
F
  0
DICTIONARY
  5
42
102
{ACAD_REACTORS
330
C
102
}
330
C
100
AcDbDictionary
281
     1
  3
A0
350
43
  3
A1
350
44
  3
A2
350
45
  3
A3
350
46
  3
A4
350
47
  3
A5
350
48
  3
A6
350
49
  3
A7
350
4A
  3
A8
350
4B
  3
A9
350
4C
  3
B0
350
4D
  3
B1
350
4E
  3
B2
350
4F
  3
B3
350
50
  3
B4
350
51
  3
B5
350
52
  3
B6
350
53
  0
DICTIONARY
  5
64
102
{ACAD_REACTORS
330
C
102
}
330
C
100
AcDbDictionary
281
     1
  3
Standard
350
65
  0
DICTIONARY
  5
29
102
{ACAD_REACTORS
330
C
102
}
330
C
100
AcDbDictionary
281
     1
  3
2dWireframe
350
2F
  3
Basic
350
2E
  3
Brighten
350
35
  3
ColorChange
350
39
  3
Conceptual
350
32
  3
Dim
350
34
  3
EdgeColorOff
350
41
  3
Facepattern
350
38
  3
Flat
350
2A
  3
FlatWithEdges
350
2B
  3
Gouraud
350
2C
  3
GouraudWithEdges
350
2D
  3
Hidden
350
31
  3
JitterOff
350
3F
  3
Linepattern
350
37
  3
OverhangOff
350
40
  3
Realistic
350
33
  3
Shaded
350
3E
  3
Shaded with edges
350
3D
  3
Shades of Gray
350
3A
  3
Sketchy
350
3B
  3
Thicken
350
36
  3
Wireframe
350
30
  3
X-Ray
350
3C
  0
XRECORD
  5
814
102
{ACAD_REACTORS
330
C
102
}
330
C
100
AcDbXrecord
280
     1
 90
        1
330
65
330
727
  0
DICTIONARY
  5
617
102
{ACAD_REACTORS
330
C
102
}
330
C
100
AcDbDictionary
281
     1
  3
CANNOSCALE
350
61B
  3
CMLEADERSTYLE
350
619
  3
CTABLESTYLE
350
618
  3
LAYEREVAL
350
61D
  3
LAYERNOTIFY
350
61E
  3
LIGHTINGUNITS
350
61C
  3
MSLTSCALE
350
61A
  3
XCLIPFRAME
350
812
  0
DICTIONARY
  5
6A7
102
{ACAD_REACTORS
330
C
102
}
330
C
100
AcDbDictionary
281
     1
  3
AcmStdDictionary
350
6A8
  0
DICTIONARY
  5
65E
102
{ACAD_REACTORS
330
C
102
}
330
C
100
AcDbDictionary
281
     1
  0
DICTIONARY
  5
717
102
{ACAD_REACTORS
330
C
102
}
330
C
100
AcDbDictionary
281
     1
  0
XRECORD
  5
816
102
{ACAD_REACTORS
330
815
102
}
330
815
100
AcDbXrecord
280
     1
 70
     1
  0
XRECORD
  5
818
102
{ACAD_REACTORS
330
815
102
}
330
815
100
AcDbXrecord
280
     1
340
5B
  0
XRECORD
  5
819
102
{ACAD_REACTORS
330
815
102
}
330
815
100
AcDbXrecord
280
     1
340
5B
  0
XRECORD
  5
817
102
{ACAD_REACTORS
330
815
102
}
330
815
100
AcDbXrecord
280
     1
340
5B
  0
LAYOUT
  5
6B
102
{ACAD_REACTORS
330
62
102
}
330
62
100
AcDbPlotSettings
  1

  2

  4

  6

 40
0.0
 41
0.0
 42
0.0
 43
0.0
 44
0.0
 45
0.0
 46
0.0
 47
0.0
 48
0.0
 49
0.0
140
0.0
141
0.0
142
1.0
143
1.0
 70
   688
 72
     0
 73
     0
 74
     5
  7

 75
    16
147
1.0
 76
     0
 77
     2
 78
   300
148
0.0
149
0.0
100
AcDbLayout
  1
Layout1
 70
     1
 71
     1
 10
0.0
 20
0.0
 11
420.0
 21
297.0
 12
0.0
 22
0.0
 32
0.0
 14
0.0
 24
0.0
 34
0.0
 15
420.0
 25
297.0
 35
0.0
146
0.0
 13
0.0
 23
0.0
 33
0.0
 16
1.0
 26
0.0
 36
0.0
 17
0.0
 27
1.0
 37
0.0
 76
     0
330
68
  0
LAYOUT
  5
73
102
{ACAD_REACTORS
330
62
102
}
330
62
100
AcDbPlotSettings
  1

  2

  4

  6

 40
0.0
 41
0.0
 42
0.0
 43
0.0
 44
0.0
 45
0.0
 46
0.0
 47
0.0
 48
0.0
 49
0.0
140
0.0
141
0.0
142
1.0
143
1.0
 70
   688
 72
     0
 73
     0
 74
     5
  7

 75
    16
147
1.0
 76
     0
 77
     2
 78
   300
148
0.0
149
0.0
100
AcDbLayout
  1
Layout2
 70
     1
 71
     2
 10
0.0
 20
0.0
 11
12.0
 21
9.0
 12
0.0
 22
0.0
 32
0.0
 14
0.0
 24
0.0
 34
0.0
 15
0.0
 25
0.0
 35
0.0
146
0.0
 13
0.0
 23
0.0
 33
0.0
 16
1.0
 26
0.0
 36
0.0
 17
0.0
 27
1.0
 37
0.0
 76
     0
330
70
  0
LAYOUT
  5
6F
102
{ACAD_REACTORS
330
62
102
}
330
62
100
AcDbPlotSettings
  1

  2

  4

  6

 40
0.0
 41
0.0
 42
0.0
 43
0.0
 44
0.0
 45
0.0
 46
0.0
 47
0.0
 48
0.0
 49
0.0
140
0.0
141
0.0
142
1.0
143
1.0
 70
  1712
 72
     0
 73
     0
 74
     0
  7

 75
     0
147
1.0
 76
     0
 77
     2
 78
   300
148
0.0
149
0.0
100
AcDbLayout
  1
Model
 70
     1
 71
     0
 10
0.0
 20
0.0
 11
12.0
 21
9.0
 12
0.0
 22
0.0
 32
0.0
 14
0.0
 24
0.0
 34
0.0
 15
0.0
 25
0.0
 35
0.0
146
0.0
 13
0.0
 23
0.0
 33
0.0
 16
1.0
 26
0.0
 36
0.0
 17
0.0
 27
1.0
 37
0.0
 76
     0
330
6C
331
57
  0
MATERIAL
  5
19
102
{ACAD_XDICTIONARY
360
1A
102
}
102
{ACAD_REACTORS
330
10
102
}
330
10
100
AcDbMaterial
  1
ByBlock
 72
     0
 43
0.0208333333333333
 43
0.0
 43
0.0
 43
0.0
 43
0.0
 43
0.0208333333333333
 43
0.0
 43
0.0
 43
0.0
 43
0.0
 43
1.0
 43
0.0
 43
0.0
 43
0.0
 43
0.0
 43
1.0
 77
     0
 47
0.0208333333333333
 47
0.0
 47
0.0
 47
0.0
 47
0.0
 47
0.0208333333333333
 47
0.0
 47
0.0
 47
0.0
 47
0.0
 47
1.0
 47
0.0
 47
0.0
 47
0.0
 47
0.0
 47
1.0
171
     0
 49
0.0208333333333333
 49
0.0
 49
0.0
 49
0.0
 49
0.0
 49
0.0208333333333333
 49
0.0
 49
0.0
 49
0.0
 49
0.0
 49
1.0
 49
0.0
 49
0.0
 49
0.0
 49
0.0
 49
1.0
175
     0
142
0.0208333333333333
142
0.0
142
0.0
142
0.0
142
0.0
142
0.0208333333333333
142
0.0
142
0.0
142
0.0
142
0.0
142
1.0
142
0.0
142
0.0
142
0.0
142
0.0
142
1.0
179
     0
144
0.0208333333333333
144
0.0
144
0.0
144
0.0
144
0.0
144
0.0208333333333333
144
0.0
144
0.0
144
0.0
144
0.0
144
1.0
144
0.0
144
0.0
144
0.0
144
0.0
144
1.0
147
0.0208333333333333
147
0.0
147
0.0
147
0.0
147
0.0
147
0.0208333333333333
147
0.0
147
0.0
147
0.0
147
0.0
147
1.0
147
0.0
147
0.0
147
0.0
147
0.0
147
1.0
  0
MATERIAL
  5
11
102
{ACAD_XDICTIONARY
360
12
102
}
102
{ACAD_REACTORS
330
10
102
}
330
10
100
AcDbMaterial
  1
ByLayer
 72
     0
 43
0.0208333333333333
 43
0.0
 43
0.0
 43
0.0
 43
0.0
 43
0.0208333333333333
 43
0.0
 43
0.0
 43
0.0
 43
0.0
 43
1.0
 43
0.0
 43
0.0
 43
0.0
 43
0.0
 43
1.0
 77
     0
 47
0.0208333333333333
 47
0.0
 47
0.0
 47
0.0
 47
0.0
 47
0.0208333333333333
 47
0.0
 47
0.0
 47
0.0
 47
0.0
 47
1.0
 47
0.0
 47
0.0
 47
0.0
 47
0.0
 47
1.0
171
     0
 49
0.0208333333333333
 49
0.0
 49
0.0
 49
0.0
 49
0.0
 49
0.0208333333333333
 49
0.0
 49
0.0
 49
0.0
 49
0.0
 49
1.0
 49
0.0
 49
0.0
 49
0.0
 49
0.0
 49
1.0
175
     0
142
0.0208333333333333
142
0.0
142
0.0
142
0.0
142
0.0
142
0.0208333333333333
142
0.0
142
0.0
142
0.0
142
0.0
142
1.0
142
0.0
142
0.0
142
0.0
142
0.0
142
1.0
179
     0
144
0.0208333333333333
144
0.0
144
0.0
144
0.0
144
0.0
144
0.0208333333333333
144
0.0
144
0.0
144
0.0
144
0.0
144
1.0
144
0.0
144
0.0
144
0.0
144
0.0
144
1.0
147
0.0208333333333333
147
0.0
147
0.0
147
0.0
147
0.0
147
0.0208333333333333
147
0.0
147
0.0
147
0.0
147
0.0
147
1.0
147
0.0
147
0.0
147
0.0
147
0.0
147
1.0
  0
MATERIAL
  5
21
102
{ACAD_XDICTIONARY
360
22
102
}
102
{ACAD_REACTORS
330
10
102
}
330
10
100
AcDbMaterial
  1
Global
 72
     0
 43
0.0208333333333333
 43
0.0
 43
0.0
 43
0.0
 43
0.0
 43
0.0208333333333333
 43
0.0
 43
0.0
 43
0.0
 43
0.0
 43
1.0
 43
0.0
 43
0.0
 43
0.0
 43
0.0
 43
1.0
 77
     0
 47
0.0208333333333333
 47
0.0
 47
0.0
 47
0.0
 47
0.0
 47
0.0208333333333333
 47
0.0
 47
0.0
 47
0.0
 47
0.0
 47
1.0
 47
0.0
 47
0.0
 47
0.0
 47
0.0
 47
1.0
171
     0
 49
0.0208333333333333
 49
0.0
 49
0.0
 49
0.0
 49
0.0
 49
0.0208333333333333
 49
0.0
 49
0.0
 49
0.0
 49
0.0
 49
1.0
 49
0.0
 49
0.0
 49
0.0
 49
0.0
 49
1.0
175
     0
142
0.0208333333333333
142
0.0
142
0.0
142
0.0
142
0.0
142
0.0208333333333333
142
0.0
142
0.0
142
0.0
142
0.0
142
1.0
142
0.0
142
0.0
142
0.0
142
0.0
142
1.0
179
     0
144
0.0208333333333333
144
0.0
144
0.0
144
0.0
144
0.0
144
0.0208333333333333
144
0.0
144
0.0
144
0.0
144
0.0
144
1.0
144
0.0
144
0.0
144
0.0
144
0.0
144
1.0
147
0.0208333333333333
147
0.0
147
0.0
147
0.0
147
0.0
147
0.0208333333333333
147
0.0
147
0.0
147
0.0
147
0.0
147
1.0
147
0.0
147
0.0
147
0.0
147
0.0
147
1.0
  0
MLEADERSTYLE
  5
67
102
{ACAD_REACTORS
330
66
102
}
330
66
100
AcDbMLeaderStyle
170
     2
171
     1
172
     0
 90
        2
 40
0.0
 41
0.0
173
     1
 91
-1056964608
340
5B
 92
       -2
290
     1
 42
0.09
291
     1
 43
0.36
  3
Standard
 44
0.18
300

342
55
174
     1
178
     6
175
     1
176
     0
 93
-1056964608
 45
0.18
292
     0
297
     0
 46
0.18
 94
-1056964608
 47
1.0
 49
1.0
140
1.0
293
     1
141
0.0
294
     1
177
     0
142
1.0
295
     0
296
     0
143
0.125
1001
ACAD_MLEADERVER
1070
     2
  0
MLINESTYLE
  5
60
102
{ACAD_REACTORS
330
5F
102
}
330
5F
100
AcDbMlineStyle
  2
STANDARD
 70
     0
  3

 62
   256
 51
90.0
 52
90.0
 71
     2
 49
0.5
 62
   256
  6
BYLAYER
 49
-0.5
 62
   256
  6
BYLAYER
  0
ACDBPLACEHOLDER
  5
F
102
{ACAD_REACTORS
330
E
102
}
330
E
  0
SCALE
  5
43
102
{ACAD_REACTORS
330
42
102
}
330
42
100
AcDbScale
 70
     0
300
1:1
140
1.0
141
1.0
290
     1
  0
SCALE
  5
44
102
{ACAD_REACTORS
330
42
102
}
330
42
100
AcDbScale
 70
     0
300
1/128" = 1'-0"
140
0.0078125
141
12.0
290
     0
  0
SCALE
  5
45
102
{ACAD_REACTORS
330
42
102
}
330
42
100
AcDbScale
 70
     0
300
1/64" = 1'-0"
140
0.015625
141
12.0
290
     0
  0
SCALE
  5
46
102
{ACAD_REACTORS
330
42
102
}
330
42
100
AcDbScale
 70
     0
300
1/32" = 1'-0"
140
0.03125
141
12.0
290
     0
  0
SCALE
  5
47
102
{ACAD_REACTORS
330
42
102
}
330
42
100
AcDbScale
 70
     0
300
1/16" = 1'-0"
140
0.0625
141
12.0
290
     0
  0
SCALE
  5
48
102
{ACAD_REACTORS
330
42
102
}
330
42
100
AcDbScale
 70
     0
300
3/32" = 1'-0"
140
0.09375
141
12.0
290
     0
  0
SCALE
  5
49
102
{ACAD_REACTORS
330
42
102
}
330
42
100
AcDbScale
 70
     0
300
1/8" = 1'-0"
140
0.125
141
12.0
290
     0
  0
SCALE
  5
4A
102
{ACAD_REACTORS
330
42
102
}
330
42
100
AcDbScale
 70
     0
300
3/16" = 1'-0"
140
0.1875
141
12.0
290
     0
  0
SCALE
  5
4B
102
{ACAD_REACTORS
330
42
102
}
330
42
100
AcDbScale
 70
     0
300
1/4" = 1'-0"
140
0.25
141
12.0
290
     0
  0
SCALE
  5
4C
102
{ACAD_REACTORS
330
42
102
}
330
42
100
AcDbScale
 70
     0
300
3/8" = 1'-0"
140
0.375
141
12.0
290
     0
  0
SCALE
  5
4D
102
{ACAD_REACTORS
330
42
102
}
330
42
100
AcDbScale
 70
     0
300
1/2" = 1'-0"
140
0.5
141
12.0
290
     0
  0
SCALE
  5
4E
102
{ACAD_REACTORS
330
42
102
}
330
42
100
AcDbScale
 70
     0
300
3/4" = 1'-0"
140
0.75
141
12.0
290
     0
  0
SCALE
  5
4F
102
{ACAD_REACTORS
330
42
102
}
330
42
100
AcDbScale
 70
     0
300
1" = 1'-0"
140
1.0
141
12.0
290
     0
  0
SCALE
  5
50
102
{ACAD_REACTORS
330
42
102
}
330
42
100
AcDbScale
 70
     0
300
1-1/2" = 1'-0"
140
1.5
141
12.0
290
     0
  0
SCALE
  5
51
102
{ACAD_REACTORS
330
42
102
}
330
42
100
AcDbScale
 70
     0
300
3" = 1'-0"
140
3.0
141
12.0
290
     0
  0
SCALE
  5
52
102
{ACAD_REACTORS
330
42
102
}
330
42
100
AcDbScale
 70
     0
300
6" = 1'-0"
140
6.0
141
12.0
290
     0
  0
SCALE
  5
53
102
{ACAD_REACTORS
330
42
102
}
330
42
100
AcDbScale
 70
     0
300
1'-0" = 1'-0"
140
12.0
141
12.0
290
     0
  0
TABLESTYLE
  5
65
102
{ACAD_XDICTIONARY
360
620
102
}
102
{ACAD_REACTORS
330
64
102
}
330
64
100
AcDbTableStyle
  3
Standard
 70
     0
 71
     0
 40
0.06
 41
0.06
280
     0
281
     0
  7
Standard
140
0.18
170
     2
 62
     0
 63
     7
283
     0
274
    -2
284
     1
 64
     0
275
    -2
285
     1
 65
     0
276
    -2
286
     1
 66
     0
277
    -2
287
     1
 67
     0
278
    -2
288
     1
 68
     0
279
    -2
289
     1
 69
     0
  7
Standard
140
0.25
170
     5
 62
     0
 63
     7
283
     0
274
    -2
284
     1
 64
     0
275
    -2
285
     1
 65
     0
276
    -2
286
     1
 66
     0
277
    -2
287
     1
 67
     0
278
    -2
288
     1
 68
     0
279
    -2
289
     1
 69
     0
  7
Standard
140
0.18
170
     5
 62
     0
 63
     7
283
     0
274
    -2
284
     1
 64
     0
275
    -2
285
     1
 65
     0
276
    -2
286
     1
 66
     0
277
    -2
287
     1
 67
     0
278
    -2
288
     1
 68
     0
279
    -2
289
     1
 69
     0
  0
VISUALSTYLE
  5
2F
102
{ACAD_XDICTIONARY
360
824
102
}
102
{ACAD_REACTORS
330
29
102
}
330
29
100
AcDbVisualStyle
  2

 70
     4
 71
     0
 72
     2
 73
     0
 90
        0
 40
-0.6
 41
-30.0
 62
     5
 63
     7
421
 16777215
 74
     1
 91
        4
 64
     7
 65
   257
 75
     1
175
     1
 42
1.0
 92
        0
 66
   257
 43
1.0
 76
     1
 77
     6
 78
     2
 67
     7
 79
     5
170
     0
171
     0
290
     0
174
     0
 93
        1
 44
0.0
173
     0
291
     0
 45
0.0
1001
ACAD
1000
AcDbSavedByObjectVersion
1070
     0
  0
VISUALSTYLE
  5
2E
102
{ACAD_XDICTIONARY
360
822
102
}
102
{ACAD_REACTORS
330
29
102
}
330
29
100
AcDbVisualStyle
  2

 70
     7
 71
     1
 72
     0
 73
     1
 90
        0
 40
-0.6
 41
-30.0
 62
     5
 63
     7
421
 16777215
 74
     0
 91
        4
 64
     7
 65
   257
 75
     1
175
     1
 42
1.0
 92
        8
 66
     7
 43
1.0
 76
     1
 77
     6
 78
     2
 67
     7
 79
     5
170
     0
171
     0
290
     0
174
     0
 93
        1
 44
0.0
173
     0
291
     1
 45
0.0
1001
ACAD
1000
AcDbSavedByObjectVersion
1070
     0
  0
VISUALSTYLE
  5
35
102
{ACAD_XDICTIONARY
360
830
102
}
102
{ACAD_REACTORS
330
29
102
}
330
29
100
AcDbVisualStyle
  2

 70
    12
 71
     2
 72
     2
 73
     0
 90
        0
 40
-0.6
 41
-30.0
 62
     5
 63
     7
421
 16777215
 74
     1
 91
        4
 64
     7
 65
   257
 75
     1
175
     1
 42
1.0
 92
        8
 66
     7
 43
1.0
 76
     1
 77
     6
 78
     2
 67
     7
 79
     5
170
     0
171
     0
290
     0
174
     0
 93
        1
 44
50.0
173
     0
291
     1
 45
0.0
1001
ACAD
1000
AcDbSavedByObjectVersion
1070
     0
  0
VISUALSTYLE
  5
39
102
{ACAD_XDICTIONARY
360
838
102
}
102
{ACAD_REACTORS
330
29
102
}
330
29
100
AcDbVisualStyle
  2

 70
    16
 71
     2
 72
     2
 73
     3
 90
        0
 40
-0.6
 41
-30.0
 62
     5
 63
     8
421
  8421504
 74
     1
 91
        4
 64
     7
 65
   257
 75
     1
175
     1
 42
1.0
 92
        8
 66
     8
424
  8421504
 43
1.0
 76
     1
 77
     6
 78
     2
 67
     7
 79
     5
170
     0
171
     0
290
     0
174
     0
 93
        1
 44
0.0
173
     0
291
     1
 45
0.0
1001
ACAD
1000
AcDbSavedByObjectVersion
1070
     0
  0
VISUALSTYLE
  5
32
102
{ACAD_XDICTIONARY
360
82A
102
}
102
{ACAD_REACTORS
330
29
102
}
330
29
100
AcDbVisualStyle
  2

 70
     9
 71
     3
 72
     2
 73
     0
 90
        0
 40
-0.6
 41
-30.0
 62
     5
 63
     7
421
 16777215
 74
     2
 91
        2
 64
     7
 65
   257
 75
     1
175
     1
 42
179.0
 92
        8
 66
     7
 43
1.0
 76
     1
 77
     6
 78
     2
 67
     7
 79
     3
170
     0
171
     0
290
     0
174
     0
 93
        1
 44
0.0
173
     0
291
     0
 45
0.0
1001
ACAD
1000
AcDbSavedByObjectVersion
1070
     0
  0
VISUALSTYLE
  5
34
102
{ACAD_XDICTIONARY
360
82E
102
}
102
{ACAD_REACTORS
330
29
102
}
330
29
100
AcDbVisualStyle
  2

 70
    11
 71
     2
 72
     2
 73
     0
 90
        0
 40
-0.6
 41
-30.0
 62
     5
 63
     7
421
 16777215
 74
     1
 91
        4
 64
     7
 65
   257
 75
     1
175
     1
 42
1.0
 92
        8
 66
     7
 43
1.0
 76
     1
 77
     6
 78
     2
 67
     7
 79
     5
170
     0
171
     0
290
     0
174
     0
 93
        1
 44
-50.0
173
     0
291
     1
 45
0.0
1001
ACAD
1000
AcDbSavedByObjectVersion
1070
     0
  0
VISUALSTYLE
  5
41
102
{ACAD_XDICTIONARY
360
848
102
}
102
{ACAD_REACTORS
330
29
102
}
330
29
100
AcDbVisualStyle
  2

 70
    22
 71
     2
 72
     2
 73
     0
 90
        0
 40
-0.6
 41
-30.0
 62
     5
 63
     7
421
 16777215
 74
     1
 91
        4
 64
     7
 65
   257
 75
     1
175
     1
 42
1.0
 92
        8
 66
     7
 43
1.0
 76
     1
 77
     6
 78
     2
 67
     7
 79
     5
170
     0
171
     0
290
     0
174
     0
 93
        1
 44
0.0
173
     0
291
     1
 45
0.0
1001
ACAD
1000
AcDbSavedByObjectVersion
1070
     0
  0
VISUALSTYLE
  5
38
102
{ACAD_XDICTIONARY
360
836
102
}
102
{ACAD_REACTORS
330
29
102
}
330
29
100
AcDbVisualStyle
  2

 70
    15
 71
     2
 72
     2
 73
     0
 90
        0
 40
-0.6
 41
-30.0
 62
     5
 63
     7
421
 16777215
 74
     1
 91
        4
 64
     7
 65
   257
 75
     1
175
     1
 42
1.0
 92
        8
 66
     7
 43
1.0
 76
     1
 77
     6
 78
     2
 67
     7
 79
     5
170
     0
171
     0
290
     0
174
     0
 93
        1
 44
0.0
173
     0
291
     1
 45
0.0
1001
ACAD
1000
AcDbSavedByObjectVersion
1070
     0
  0
VISUALSTYLE
  5
2A
102
{ACAD_XDICTIONARY
360
81A
102
}
102
{ACAD_REACTORS
330
29
102
}
330
29
100
AcDbVisualStyle
  2

 70
     0
 71
     2
 72
     1
 73
     1
 90
        2
 40
-0.6
 41
30.0
 62
     5
 63
     7
421
 16777215
 74
     0
 91
        0
 64
     7
 65
   257
 75
     1
175
     1
 42
1.0
 92
        8
 66
     7
 43
1.0
 76
     1
 77
     6
 78
     2
 67
     7
 79
     5
170
     0
171
     0
290
     0
174
     0
 93
       13
 44
0.0
173
     0
291
     1
 45
0.0
1001
ACAD
1000
AcDbSavedByObjectVersion
1070
     0
  0
VISUALSTYLE
  5
2B
102
{ACAD_XDICTIONARY
360
81C
102
}
102
{ACAD_REACTORS
330
29
102
}
330
29
100
AcDbVisualStyle
  2

 70
     1
 71
     2
 72
     1
 73
     1
 90
        2
 40
-0.6
 41
30.0
 62
     5
 63
     7
421
 16777215
 74
     1
 91
        0
 64
     7
 65
   257
 75
     1
175
     1
 42
1.0
 92
        0
 66
   257
 43
1.0
 76
     1
 77
     6
 78
     2
 67
     7
 79
     5
170
     0
171
     0
290
     0
174
     0
 93
       13
 44
0.0
173
     0
291
     1
 45
0.0
1001
ACAD
1000
AcDbSavedByObjectVersion
1070
     0
  0
VISUALSTYLE
  5
2C
102
{ACAD_XDICTIONARY
360
81E
102
}
102
{ACAD_REACTORS
330
29
102
}
330
29
100
AcDbVisualStyle
  2

 70
     2
 71
     2
 72
     2
 73
     1
 90
        2
 40
-0.6
 41
30.0
 62
     5
 63
     7
421
 16777215
 74
     0
 91
        0
 64
     7
 65
   257
 75
     1
175
     1
 42
1.0
 92
        0
 66
     7
 43
1.0
 76
     1
 77
     6
 78
     2
 67
     7
 79
     5
170
     0
171
     0
290
     0
174
     0
 93
       13
 44
0.0
173
     0
291
     1
 45
0.0
1001
ACAD
1000
AcDbSavedByObjectVersion
1070
     0
  0
VISUALSTYLE
  5
2D
102
{ACAD_XDICTIONARY
360
820
102
}
102
{ACAD_REACTORS
330
29
102
}
330
29
100
AcDbVisualStyle
  2

 70
     3
 71
     2
 72
     2
 73
     1
 90
        2
 40
-0.6
 41
30.0
 62
     5
 63
     7
421
 16777215
 74
     1
 91
        0
 64
     7
 65
   257
 75
     1
175
     1
 42
1.0
 92
        0
 66
   257
 43
1.0
 76
     1
 77
     6
 78
     2
 67
     7
 79
     5
170
     0
171
     0
290
     0
174
     0
 93
       13
 44
0.0
173
     0
291
     1
 45
0.0
1001
ACAD
1000
AcDbSavedByObjectVersion
1070
     0
  0
VISUALSTYLE
  5
31
102
{ACAD_XDICTIONARY
360
828
102
}
102
{ACAD_REACTORS
330
29
102
}
330
29
100
AcDbVisualStyle
  2

 70
     6
 71
     1
 72
     2
 73
     2
 90
        0
 40
-0.6
 41
-30.0
 62
     5
 63
     7
421
 16777215
 74
     2
 91
        2
 64
     7
 65
   257
 75
     2
175
     1
 42
40.0
 92
        0
 66
   257
 43
1.0
 76
     1
 77
     6
 78
     2
 67
     7
 79
     3
170
     0
171
     0
290
     0
174
     0
 93
        1
 44
0.0
173
     0
291
     0
 45
0.0
1001
ACAD
1000
AcDbSavedByObjectVersion
1070
     0
  0
VISUALSTYLE
  5
3F
102
{ACAD_XDICTIONARY
360
844
102
}
102
{ACAD_REACTORS
330
29
102
}
330
29
100
AcDbVisualStyle
  2

 70
    20
 71
     2
 72
     2
 73
     0
 90
        0
 40
-0.6
 41
-30.0
 62
     5
 63
     7
421
 16777215
 74
     1
 91
        4
 64
     7
 65
   257
 75
     1
175
     1
 42
1.0
 92
       10
 66
     7
 43
1.0
 76
     1
 77
     6
 78
     2
 67
     7
 79
     5
170
     0
171
     0
290
     0
174
     0
 93
        1
 44
0.0
173
     0
291
     1
 45
0.0
1001
ACAD
1000
AcDbSavedByObjectVersion
1070
     0
  0
VISUALSTYLE
  5
37
102
{ACAD_XDICTIONARY
360
834
102
}
102
{ACAD_REACTORS
330
29
102
}
330
29
100
AcDbVisualStyle
  2

 70
    14
 71
     2
 72
     2
 73
     0
 90
        0
 40
-0.6
 41
-30.0
 62
     5
 63
     7
421
 16777215
 74
     1
 91
        4
 64
     7
 65
   257
 75
     7
175
     7
 42
1.0
 92
        8
 66
     7
 43
1.0
 76
     1
 77
     6
 78
     2
 67
     7
 79
     5
170
     0
171
     0
290
     0
174
     0
 93
        1
 44
0.0
173
     0
291
     1
 45
0.0
1001
ACAD
1000
AcDbSavedByObjectVersion
1070
     0
  0
VISUALSTYLE
  5
40
102
{ACAD_XDICTIONARY
360
846
102
}
102
{ACAD_REACTORS
330
29
102
}
330
29
100
AcDbVisualStyle
  2

 70
    21
 71
     2
 72
     2
 73
     0
 90
        0
 40
-0.6
 41
-30.0
 62
     5
 63
     7
421
 16777215
 74
     1
 91
        4
 64
     7
 65
   257
 75
     1
175
     1
 42
1.0
 92
        9
 66
     7
 43
1.0
 76
     1
 77
     6
 78
     2
 67
     7
 79
     5
170
     0
171
     0
290
     0
174
     0
 93
        1
 44
0.0
173
     0
291
     1
 45
0.0
1001
ACAD
1000
AcDbSavedByObjectVersion
1070
     0
  0
VISUALSTYLE
  5
33
102
{ACAD_XDICTIONARY
360
82C
102
}
102
{ACAD_REACTORS
330
29
102
}
330
29
100
AcDbVisualStyle
  2

 70
     8
 71
     2
 72
     3
 73
     0
 90
        2
 40
-0.6
 41
30.0
 62
     5
 63
     7
421
 16777215
 74
     0
 91
        0
 64
     7
 65
   257
 75
     1
175
     1
 42
1.0
 92
        8
 66
   257
 43
1.0
 76
     1
 77
     6
 78
     2
 67
     7
 79
     3
170
     0
171
     0
290
     0
174
     0
 93
       13
 44
0.0
173
     0
291
     0
 45
0.0
1001
ACAD
1000
AcDbSavedByObjectVersion
1070
     0
  0
VISUALSTYLE
  5
3E
102
{ACAD_XDICTIONARY
360
842
102
}
102
{ACAD_REACTORS
330
29
102
}
330
29
100
AcDbVisualStyle
  2

 70
    27
 71
     2
 72
     2
 73
     1
 90
        2
 40
-0.6
 41
30.0
 62
     5
 63
     7
421
 16777215
 74
     0
 91
        4
 64
     7
 65
   257
 75
     1
175
     1
 42
1.0
 92
        8
 66
   257
 43
1.0
 76
     1
 77
     6
 78
     2
 67
     8
425
  7895160
 79
     3
170
     0
171
     0
290
     0
174
     0
 93
        5
 44
0.0
173
     0
291
     0
 45
0.0
1001
ACAD
1000
AcDbSavedByObjectVersion
1070
     0
  0
VISUALSTYLE
  5
3D
102
{ACAD_XDICTIONARY
360
840
102
}
102
{ACAD_REACTORS
330
29
102
}
330
29
100
AcDbVisualStyle
  2

 70
    26
 71
     2
 72
     2
 73
     1
 90
        2
 40
-0.6
 41
30.0
 62
     5
 63
     7
421
 16777215
 74
     1
 91
       10
 64
     7
 65
   257
 75
     2
175
     1
 42
1.0
 92
        8
 66
   257
 43
1.0
 76
     1
 77
     6
 78
     2
 67
     7
 79
     3
170
     0
171
     0
290
     0
174
     0
 93
        5
 44
0.0
173
     0
291
     0
 45
0.0
1001
ACAD
1000
AcDbSavedByObjectVersion
1070
     0
  0
VISUALSTYLE
  5
3A
102
{ACAD_XDICTIONARY
360
83A
102
}
102
{ACAD_REACTORS
330
29
102
}
330
29
100
AcDbVisualStyle
  2

 70
    23
 71
     2
 72
     2
 73
     3
 90
        0
 40
-0.6
 41
-30.0
 62
     5
 63
     7
421
 16777215
 74
     2
 91
        2
 64
     7
 65
     7
 75
     1
175
     1
 42
40.0
 92
        8
 66
     7
 43
1.0
 76
     1
 77
     6
 78
     2
 67
     7
 79
     3
170
     0
171
     0
290
     0
174
     0
 93
        1
 44
0.0
173
     0
291
     0
 45
0.0
1001
ACAD
1000
AcDbSavedByObjectVersion
1070
     0
  0
VISUALSTYLE
  5
3B
102
{ACAD_XDICTIONARY
360
83C
102
}
102
{ACAD_REACTORS
330
29
102
}
330
29
100
AcDbVisualStyle
  2

 70
    24
 71
     1
 72
     2
 73
     2
 90
        0
 40
-0.6
 41
-30.0
 62
     5
 63
     7
421
 16777215
 74
     2
 91
        2
 64
     7
 65
     7
 75
     1
175
     1
 42
40.0
 92
       11
 66
     7
 43
1.0
 76
     1
 77
     6
 78
     2
 67
     7
 79
     6
170
     0
171
     0
290
     0
174
     0
 93
        1
 44
0.0
173
     0
291
     0
 45
0.0
1001
ACAD
1000
AcDbSavedByObjectVersion
1070
     0
  0
VISUALSTYLE
  5
36
102
{ACAD_XDICTIONARY
360
832
102
}
102
{ACAD_REACTORS
330
29
102
}
330
29
100
AcDbVisualStyle
  2

 70
    13
 71
     2
 72
     2
 73
     0
 90
        0
 40
-0.6
 41
-30.0
 62
     5
 63
     7
421
 16777215
 74
     1
 91
        4
 64
     7
 65
   257
 75
     1
175
     1
 42
1.0
 92
       12
 66
     7
 43
1.0
 76
     1
 77
     6
 78
     2
 67
     7
 79
     5
170
     0
171
     0
290
     0
174
     0
 93
        1
 44
0.0
173
     0
291
     1
 45
0.0
1001
ACAD
1000
AcDbSavedByObjectVersion
1070
     0
  0
VISUALSTYLE
  5
30
102
{ACAD_XDICTIONARY
360
826
102
}
102
{ACAD_REACTORS
330
29
102
}
330
29
100
AcDbVisualStyle
  2

 70
     5
 71
     0
 72
     2
 73
     0
 90
        0
 40
-0.6
 41
-30.0
 62
     5
 63
     7
421
 16777215
 74
     1
 91
        4
 64
     7
 65
   257
 75
     1
175
     1
 42
1.0
 92
        0
 66
   257
 43
1.0
 76
     1
 77
     6
 78
     2
 67
     7
 79
     3
170
     0
171
     0
290
     0
174
     0
 93
        1
 44
0.0
173
     0
291
     0
 45
0.0
1001
ACAD
1000
AcDbSavedByObjectVersion
1070
     0
  0
VISUALSTYLE
  5
3C
102
{ACAD_XDICTIONARY
360
83E
102
}
102
{ACAD_REACTORS
330
29
102
}
330
29
100
AcDbVisualStyle
  2

 70
    25
 71
     2
 72
     2
 73
     1
 90
        1
 40
0.5
 41
-30.0
 62
     5
 63
     7
421
 16777215
 74
     1
 91
        0
 64
     7
 65
   257
 75
     1
175
     1
 42
1.0
 92
        8
 66
     7
 43
1.0
 76
     1
 77
     6
 78
     2
 67
     7
 79
     3
170
     0
171
     0
290
     0
174
     0
 93
       13
 44
0.0
173
     0
291
     0
 45
0.0
1001
ACAD
1000
AcDbSavedByObjectVersion
1070
     0
  0
DICTIONARYVAR
  5
61B
102
{ACAD_REACTORS
330
617
102
}
330
617
100
DictionaryVariables
280
     0
  1
1:1
  0
DICTIONARYVAR
  5
619
102
{ACAD_REACTORS
330
617
102
}
330
617
100
DictionaryVariables
280
     0
  1
STANDARD
  0
DICTIONARYVAR
  5
618
102
{ACAD_REACTORS
330
617
102
}
330
617
100
DictionaryVariables
280
     0
  1
STANDARD
  0
DICTIONARYVAR
  5
61D
102
{ACAD_REACTORS
330
617
102
}
330
617
100
DictionaryVariables
280
     0
  1
0
  0
DICTIONARYVAR
  5
61E
102
{ACAD_REACTORS
330
617
102
}
330
617
100
DictionaryVariables
280
     0
  1
0
  0
DICTIONARYVAR
  5
61C
102
{ACAD_REACTORS
330
617
102
}
330
617
100
DictionaryVariables
280
     0
  1
2
  0
DICTIONARYVAR
  5
61A
102
{ACAD_REACTORS
330
617
102
}
330
617
100
DictionaryVariables
280
     0
  1
1
  0
DICTIONARYVAR
  5
812
102
{ACAD_REACTORS
330
617
102
}
330
617
100
DictionaryVariables
280
     0
  1
2
  0
DICTIONARY
  5
6A8
102
{ACAD_REACTORS
330
6A7
102
}
330
6A7
100
AcDbDictionary
281
     1
  0
DICTIONARY
  5
1A
330
19
100
AcDbDictionary
280
     1
281
     1
  3
ACAD_XREC_ROUNDTRIP
360
624
  3
BUMPTILE
360
1C
  3
DIFFUSETILE
360
1B
  3
OPACITYTILE
360
1F
  3
REFLECTIONTILE
360
1E
  3
REFRACTIONTILE
360
20
  3
SPECULARTILE
360
1D
  0
DICTIONARY
  5
12
330
11
100
AcDbDictionary
280
     1
281
     1
  3
ACAD_XREC_ROUNDTRIP
360
623
  3
BUMPTILE
360
14
  3
DIFFUSETILE
360
13
  3
OPACITYTILE
360
17
  3
REFLECTIONTILE
360
16
  3
REFRACTIONTILE
360
18
  3
SPECULARTILE
360
15
  0
DICTIONARY
  5
22
330
21
100
AcDbDictionary
280
     1
281
     1
  3
ACAD_XREC_ROUNDTRIP
360
625
  3
BUMPTILE
360
24
  3
DIFFUSETILE
360
23
  3
OPACITYTILE
360
27
  3
REFLECTIONTILE
360
26
  3
REFRACTIONTILE
360
28
  3
SPECULARTILE
360
25
  0
DICTIONARY
  5
620
330
65
100
AcDbDictionary
280
     1
281
     1
  3
ACAD_ROUNDTRIP_2008_TABLESTYLE_CELLSTYLEMAP
360
813
  3
ACAD_XREC_ROUNDTRIP
360
84A
  0
DICTIONARY
  5
824
330
2F
100
AcDbDictionary
280
     1
281
     1
  3
ACAD_XREC_ROUNDTRIP
360
825
  0
DICTIONARY
  5
822
330
2E
100
AcDbDictionary
280
     1
281
     1
  3
ACAD_XREC_ROUNDTRIP
360
823
  0
DICTIONARY
  5
830
330
35
100
AcDbDictionary
280
     1
281
     1
  3
ACAD_XREC_ROUNDTRIP
360
831
  0
DICTIONARY
  5
838
330
39
100
AcDbDictionary
280
     1
281
     1
  3
ACAD_XREC_ROUNDTRIP
360
839
  0
DICTIONARY
  5
82A
330
32
100
AcDbDictionary
280
     1
281
     1
  3
ACAD_XREC_ROUNDTRIP
360
82B
  0
DICTIONARY
  5
82E
330
34
100
AcDbDictionary
280
     1
281
     1
  3
ACAD_XREC_ROUNDTRIP
360
82F
  0
DICTIONARY
  5
848
330
41
100
AcDbDictionary
280
     1
281
     1
  3
ACAD_XREC_ROUNDTRIP
360
849
  0
DICTIONARY
  5
836
330
38
100
AcDbDictionary
280
     1
281
     1
  3
ACAD_XREC_ROUNDTRIP
360
837
  0
DICTIONARY
  5
81A
330
2A
100
AcDbDictionary
280
     1
281
     1
  3
ACAD_XREC_ROUNDTRIP
360
81B
  0
DICTIONARY
  5
81C
330
2B
100
AcDbDictionary
280
     1
281
     1
  3
ACAD_XREC_ROUNDTRIP
360
81D
  0
DICTIONARY
  5
81E
330
2C
100
AcDbDictionary
280
     1
281
     1
  3
ACAD_XREC_ROUNDTRIP
360
81F
  0
DICTIONARY
  5
820
330
2D
100
AcDbDictionary
280
     1
281
     1
  3
ACAD_XREC_ROUNDTRIP
360
821
  0
DICTIONARY
  5
828
330
31
100
AcDbDictionary
280
     1
281
     1
  3
ACAD_XREC_ROUNDTRIP
360
829
  0
DICTIONARY
  5
844
330
3F
100
AcDbDictionary
280
     1
281
     1
  3
ACAD_XREC_ROUNDTRIP
360
845
  0
DICTIONARY
  5
834
330
37
100
AcDbDictionary
280
     1
281
     1
  3
ACAD_XREC_ROUNDTRIP
360
835
  0
DICTIONARY
  5
846
330
40
100
AcDbDictionary
280
     1
281
     1
  3
ACAD_XREC_ROUNDTRIP
360
847
  0
DICTIONARY
  5
82C
330
33
100
AcDbDictionary
280
     1
281
     1
  3
ACAD_XREC_ROUNDTRIP
360
82D
  0
DICTIONARY
  5
842
330
3E
100
AcDbDictionary
280
     1
281
     1
  3
ACAD_XREC_ROUNDTRIP
360
843
  0
DICTIONARY
  5
840
330
3D
100
AcDbDictionary
280
     1
281
     1
  3
ACAD_XREC_ROUNDTRIP
360
841
  0
DICTIONARY
  5
83A
330
3A
100
AcDbDictionary
280
     1
281
     1
  3
ACAD_XREC_ROUNDTRIP
360
83B
  0
DICTIONARY
  5
83C
330
3B
100
AcDbDictionary
280
     1
281
     1
  3
ACAD_XREC_ROUNDTRIP
360
83D
  0
DICTIONARY
  5
832
330
36
100
AcDbDictionary
280
     1
281
     1
  3
ACAD_XREC_ROUNDTRIP
360
833
  0
DICTIONARY
  5
826
330
30
100
AcDbDictionary
280
     1
281
     1
  3
ACAD_XREC_ROUNDTRIP
360
827
  0
DICTIONARY
  5
83E
330
3C
100
AcDbDictionary
280
     1
281
     1
  3
ACAD_XREC_ROUNDTRIP
360
83F
  0
XRECORD
  5
624
102
{ACAD_REACTORS
330
1A
102
}
330
1A
100
AcDbXrecord
280
     1
102
MATERIAL
148
0.0
149
0.0
149
0.0
 93
        0
 94
      127
282
     0
 72
     0
 77
     0
171
     0
175
     0
179
     0
273
     0
  0
XRECORD
  5
1C
102
{ACAD_REACTORS
330
1A
102
}
330
1A
100
AcDbXrecord
280
     1
270
     1
271
     1
  0
XRECORD
  5
1B
102
{ACAD_REACTORS
330
1A
102
}
330
1A
100
AcDbXrecord
280
     1
270
     1
271
     1
  0
XRECORD
  5
1F
102
{ACAD_REACTORS
330
1A
102
}
330
1A
100
AcDbXrecord
280
     1
270
     1
271
     1
  0
XRECORD
  5
1E
102
{ACAD_REACTORS
330
1A
102
}
330
1A
100
AcDbXrecord
280
     1
270
     1
271
     1
  0
XRECORD
  5
20
102
{ACAD_REACTORS
330
1A
102
}
330
1A
100
AcDbXrecord
280
     1
270
     1
271
     1
  0
XRECORD
  5
1D
102
{ACAD_REACTORS
330
1A
102
}
330
1A
100
AcDbXrecord
280
     1
270
     1
271
     1
  0
XRECORD
  5
623
102
{ACAD_REACTORS
330
12
102
}
330
12
100
AcDbXrecord
280
     1
102
MATERIAL
148
0.0
149
0.0
149
0.0
 93
        0
 94
      127
282
     0
 72
     0
 77
     0
171
     0
175
     0
179
     0
273
     0
  0
XRECORD
  5
14
102
{ACAD_REACTORS
330
12
102
}
330
12
100
AcDbXrecord
280
     1
270
     1
271
     1
  0
XRECORD
  5
13
102
{ACAD_REACTORS
330
12
102
}
330
12
100
AcDbXrecord
280
     1
270
     1
271
     1
  0
XRECORD
  5
17
102
{ACAD_REACTORS
330
12
102
}
330
12
100
AcDbXrecord
280
     1
270
     1
271
     1
  0
XRECORD
  5
16
102
{ACAD_REACTORS
330
12
102
}
330
12
100
AcDbXrecord
280
     1
270
     1
271
     1
  0
XRECORD
  5
18
102
{ACAD_REACTORS
330
12
102
}
330
12
100
AcDbXrecord
280
     1
270
     1
271
     1
  0
XRECORD
  5
15
102
{ACAD_REACTORS
330
12
102
}
330
12
100
AcDbXrecord
280
     1
270
     1
271
     1
  0
XRECORD
  5
625
102
{ACAD_REACTORS
330
22
102
}
330
22
100
AcDbXrecord
280
     1
102
MATERIAL
148
0.0
149
0.0
149
0.0
 93
        0
 94
      127
282
     0
 72
     0
 77
     0
171
     0
175
     0
179
     0
273
     0
  0
XRECORD
  5
24
102
{ACAD_REACTORS
330
22
102
}
330
22
100
AcDbXrecord
280
     1
270
     1
271
     1
  0
XRECORD
  5
23
102
{ACAD_REACTORS
330
22
102
}
330
22
100
AcDbXrecord
280
     1
270
     1
271
     1
  0
XRECORD
  5
27
102
{ACAD_REACTORS
330
22
102
}
330
22
100
AcDbXrecord
280
     1
270
     1
271
     1
  0
XRECORD
  5
26
102
{ACAD_REACTORS
330
22
102
}
330
22
100
AcDbXrecord
280
     1
270
     1
271
     1
  0
XRECORD
  5
28
102
{ACAD_REACTORS
330
22
102
}
330
22
100
AcDbXrecord
280
     1
270
     1
271
     1
  0
XRECORD
  5
25
102
{ACAD_REACTORS
330
22
102
}
330
22
100
AcDbXrecord
280
     1
270
     1
271
     1
  0
CELLSTYLEMAP
  5
813
102
{ACAD_REACTORS
330
620
102
}
330
620
100
AcDbCellStyleMap
 90
        3
300
CELLSTYLE
  1
TABLEFORMAT_BEGIN
 90
        5
170
     1
 91
        0
 92
    32768
 62
   257
 93
        1
300
CONTENTFORMAT
  1
CONTENTFORMAT_BEGIN
 90
        0
 91
        0
 92
      512
 93
        0
300

 40
0.0
140
1.0
 94
        5
 62
     0
340
55
144
0.25
309
CONTENTFORMAT_END
171
     1
301
MARGIN
  1
CELLMARGIN_BEGIN
 40
0.06
 40
0.06
 40
0.06
 40
0.06
 40
0.18
 40
0.18
309
CELLMARGIN_END
 94
        6
 95
        1
302
GRIDFORMAT
  1
GRIDFORMAT_BEGIN
 90
        0
 91
        1
 62
     0
 92
       -2
340
0
 93
        0
 40
0.045
309
GRIDFORMAT_END
 95
        2
302
GRIDFORMAT
  1
GRIDFORMAT_BEGIN
 90
        0
 91
        1
 62
     0
 92
       -2
340
0
 93
        0
 40
0.045
309
GRIDFORMAT_END
 95
        4
302
GRIDFORMAT
  1
GRIDFORMAT_BEGIN
 90
        0
 91
        1
 62
     0
 92
       -2
340
0
 93
        0
 40
0.045
309
GRIDFORMAT_END
 95
        8
302
GRIDFORMAT
  1
GRIDFORMAT_BEGIN
 90
        0
 91
        1
 62
     0
 92
       -2
340
0
 93
        0
 40
0.045
309
GRIDFORMAT_END
 95
       16
302
GRIDFORMAT
  1
GRIDFORMAT_BEGIN
 90
        0
 91
        1
 62
     0
 92
       -2
340
0
 93
        0
 40
0.045
309
GRIDFORMAT_END
 95
       32
302
GRIDFORMAT
  1
GRIDFORMAT_BEGIN
 90
        0
 91
        1
 62
     0
 92
       -2
340
0
 93
        0
 40
0.045
309
GRIDFORMAT_END
309
TABLEFORMAT_END
  1
CELLSTYLE_BEGIN
 90
        1
 91
        1
300
_TITLE
309
CELLSTYLE_END
300
CELLSTYLE
  1
TABLEFORMAT_BEGIN
 90
        5
170
     1
 91
        0
 92
        0
 62
   257
 93
        1
300
CONTENTFORMAT
  1
CONTENTFORMAT_BEGIN
 90
        0
 91
        0
 92
      512
 93
        0
300

 40
0.0
140
1.0
 94
        5
 62
     0
340
55
144
0.18
309
CONTENTFORMAT_END
171
     1
301
MARGIN
  1
CELLMARGIN_BEGIN
 40
0.06
 40
0.06
 40
0.06
 40
0.06
 40
0.18
 40
0.18
309
CELLMARGIN_END
 94
        6
 95
        1
302
GRIDFORMAT
  1
GRIDFORMAT_BEGIN
 90
        0
 91
        1
 62
     0
 92
       -2
340
0
 93
        0
 40
0.045
309
GRIDFORMAT_END
 95
        2
302
GRIDFORMAT
  1
GRIDFORMAT_BEGIN
 90
        0
 91
        1
 62
     0
 92
       -2
340
0
 93
        0
 40
0.045
309
GRIDFORMAT_END
 95
        4
302
GRIDFORMAT
  1
GRIDFORMAT_BEGIN
 90
        0
 91
        1
 62
     0
 92
       -2
340
0
 93
        0
 40
0.045
309
GRIDFORMAT_END
 95
        8
302
GRIDFORMAT
  1
GRIDFORMAT_BEGIN
 90
        0
 91
        1
 62
     0
 92
       -2
340
0
 93
        0
 40
0.045
309
GRIDFORMAT_END
 95
       16
302
GRIDFORMAT
  1
GRIDFORMAT_BEGIN
 90
        0
 91
        1
 62
     0
 92
       -2
340
0
 93
        0
 40
0.045
309
GRIDFORMAT_END
 95
       32
302
GRIDFORMAT
  1
GRIDFORMAT_BEGIN
 90
        0
 91
        1
 62
     0
 92
       -2
340
0
 93
        0
 40
0.045
309
GRIDFORMAT_END
309
TABLEFORMAT_END
  1
CELLSTYLE_BEGIN
 90
        2
 91
        1
300
_HEADER
309
CELLSTYLE_END
300
CELLSTYLE
  1
TABLEFORMAT_BEGIN
 90
        5
170
     1
 91
        0
 92
        0
 62
   257
 93
        1
300
CONTENTFORMAT
  1
CONTENTFORMAT_BEGIN
 90
        0
 91
        0
 92
      512
 93
        0
300

 40
0.0
140
1.0
 94
        2
 62
     0
340
55
144
0.18
309
CONTENTFORMAT_END
171
     1
301
MARGIN
  1
CELLMARGIN_BEGIN
 40
0.06
 40
0.06
 40
0.06
 40
0.06
 40
0.18
 40
0.18
309
CELLMARGIN_END
 94
        6
 95
        1
302
GRIDFORMAT
  1
GRIDFORMAT_BEGIN
 90
        0
 91
        1
 62
     0
 92
       -2
340
0
 93
        0
 40
0.045
309
GRIDFORMAT_END
 95
        2
302
GRIDFORMAT
  1
GRIDFORMAT_BEGIN
 90
        0
 91
        1
 62
     0
 92
       -2
340
0
 93
        0
 40
0.045
309
GRIDFORMAT_END
 95
        4
302
GRIDFORMAT
  1
GRIDFORMAT_BEGIN
 90
        0
 91
        1
 62
     0
 92
       -2
340
0
 93
        0
 40
0.045
309
GRIDFORMAT_END
 95
        8
302
GRIDFORMAT
  1
GRIDFORMAT_BEGIN
 90
        0
 91
        1
 62
     0
 92
       -2
340
0
 93
        0
 40
0.045
309
GRIDFORMAT_END
 95
       16
302
GRIDFORMAT
  1
GRIDFORMAT_BEGIN
 90
        0
 91
        1
 62
     0
 92
       -2
340
0
 93
        0
 40
0.045
309
GRIDFORMAT_END
 95
       32
302
GRIDFORMAT
  1
GRIDFORMAT_BEGIN
 90
        0
 91
        1
 62
     0
 92
       -2
340
0
 93
        0
 40
0.045
309
GRIDFORMAT_END
309
TABLEFORMAT_END
  1
CELLSTYLE_BEGIN
 90
        3
 91
        2
300
_DATA
309
CELLSTYLE_END
  0
XRECORD
  5
84A
102
{ACAD_REACTORS
330
620
102
}
330
620
100
AcDbXrecord
280
     1
102
ACAD_ROUNDTRIP_PRE2007_TABLESTYLE
 90
      512
 91
        0
  1

 92
      512
 93
        0
  2

 94
      512
 95
        0
  3

  0
XRECORD
  5
825
102
{ACAD_REACTORS
330
824
102
}
330
824
100
AcDbXrecord
280
     1
102
RTVSPropertyOp0
 70
     1
102
RTVSPropertyOp1
 70
     1
102
RTVSPropertyOp2
 70
     1
102
RTVSPropertyOp3
 70
     1
102
RTVSPropertyOp4
 70
     1
102
RTVSPropertyOp5
 70
     1
102
RTVSPropertyOp6
 70
     1
102
RTVSPropertyOp7
 70
     1
102
RTVSPropertyOp8
 70
     1
102
RTVSPropertyOp9
 70
     1
102
RTVSPropertyOp10
 70
     1
102
RTVSPropertyOp11
 70
     1
102
RTVSPropertyOp12
 70
     1
102
RTVSPropertyOp13
 70
     1
102
RTVSPropertyOp14
 70
     1
102
RTVSPropertyOp15
 70
     1
102
RTVSPropertyOp16
 70
     1
102
RTVSPropertyOp17
 70
     1
102
RTVSPropertyOp18
 70
     1
102
RTVSPropertyOp19
 70
     1
102
RTVSPropertyOp20
 70
     1
102
RTVSPropertyOp21
 70
     1
102
RTVSPropertyOp22
 70
     1
102
RTVSPropertyOp23
 70
     1
102
RTVSPropertyOp24
 70
     1
102
RTVSPropertyOp25
 70
     1
102
RTVSPropertyOp26
 70
     1
102
RTVSPropertyOp27
 70
     1
102
RTVSPropertyOp28
 70
     1
102
RTVSPropertyOp29
 70
     1
102
RTVSPropertyOp30
 70
     1
102
RTVSPropertyOp31
 70
     1
102
RTVSPropertyOp32
 70
     1
  0
XRECORD
  5
823
102
{ACAD_REACTORS
330
822
102
}
330
822
100
AcDbXrecord
280
     1
102
RTVSPropertyOp0
 70
     1
102
RTVSPropertyOp1
 70
     1
102
RTVSPropertyOp2
 70
     1
102
RTVSPropertyOp3
 70
     1
102
RTVSPropertyOp4
 70
     1
102
RTVSPropertyOp5
 70
     1
102
RTVSPropertyOp6
 70
     1
102
RTVSPropertyOp7
 70
     1
102
RTVSPropertyOp8
 70
     1
102
RTVSPropertyOp9
 70
     1
102
RTVSPropertyOp10
 70
     1
102
RTVSPropertyOp11
 70
     1
102
RTVSPropertyOp12
 70
     1
102
RTVSPropertyOp13
 70
     1
102
RTVSPropertyOp14
 70
     1
102
RTVSPropertyOp15
 70
     1
102
RTVSPropertyOp16
 70
     1
102
RTVSPropertyOp17
 70
     1
102
RTVSPropertyOp18
 70
     1
102
RTVSPropertyOp19
 70
     1
102
RTVSPropertyOp20
 70
     1
102
RTVSPropertyOp21
 70
     1
102
RTVSPropertyOp22
 70
     1
102
RTVSPropertyOp23
 70
     1
102
RTVSPropertyOp24
 70
     1
102
RTVSPropertyOp25
 70
     1
102
RTVSPropertyOp26
 70
     1
102
RTVSPropertyOp27
 70
     1
102
RTVSPropertyOp28
 70
     1
102
RTVSPropertyOp29
 70
     1
102
RTVSPropertyOp30
 70
     1
102
RTVSPropertyOp31
 70
     1
102
RTVSPropertyOp32
 70
     1
  0
XRECORD
  5
831
102
{ACAD_REACTORS
330
830
102
}
330
830
100
AcDbXrecord
280
     1
102
RTVSPropertyOp0
 70
     1
102
RTVSPropertyOp1
 70
     1
102
RTVSPropertyOp2
 70
     1
102
RTVSPropertyOp3
 70
     1
102
RTVSPropertyOp4
 70
     1
102
RTVSPropertyOp5
 70
     1
102
RTVSPropertyOp6
 70
     1
102
RTVSPropertyOp7
 70
     1
102
RTVSPropertyOp8
 70
     1
102
RTVSPropertyOp9
 70
     1
102
RTVSPropertyOp10
 70
     1
102
RTVSPropertyOp11
 70
     1
102
RTVSPropertyOp12
 70
     1
102
RTVSPropertyOp13
 70
     1
102
RTVSPropertyOp14
 70
     1
102
RTVSPropertyOp15
 70
     1
102
RTVSPropertyOp16
 70
     1
102
RTVSPropertyOp17
 70
     1
102
RTVSPropertyOp18
 70
     1
102
RTVSPropertyOp19
 70
     1
102
RTVSPropertyOp20
 70
     1
102
RTVSPropertyOp21
 70
     1
102
RTVSPropertyOp22
 70
     1
102
RTVSPropertyOp23
 70
     1
102
RTVSPropertyOp24
 70
     1
102
RTVSPropertyOp25
 70
     1
102
RTVSPropertyOp26
 70
     1
102
RTVSPropertyOp27
 70
     1
102
RTVSPropertyOp28
 70
     1
102
RTVSPropertyOp29
 70
     1
102
RTVSPropertyOp30
 70
     1
102
RTVSPropertyOp31
 70
     1
102
RTVSPropertyOp32
 70
     1
  0
XRECORD
  5
839
102
{ACAD_REACTORS
330
838
102
}
330
838
100
AcDbXrecord
280
     1
102
RTVSPropertyOp0
 70
     1
102
RTVSPropertyOp1
 70
     1
102
RTVSPropertyOp2
 70
     1
102
RTVSPropertyOp3
 70
     1
102
RTVSPropertyOp4
 70
     1
102
RTVSPropertyOp5
 70
     1
102
RTVSPropertyOp6
 70
     1
102
RTVSPropertyOp7
 70
     1
102
RTVSPropertyOp8
 70
     1
102
RTVSPropertyOp9
 70
     1
102
RTVSPropertyOp10
 70
     1
102
RTVSPropertyOp11
 70
     1
102
RTVSPropertyOp12
 70
     1
102
RTVSPropertyOp13
 70
     1
102
RTVSPropertyOp14
 70
     1
102
RTVSPropertyOp15
 70
     1
102
RTVSPropertyOp16
 70
     1
102
RTVSPropertyOp17
 70
     1
102
RTVSPropertyOp18
 70
     1
102
RTVSPropertyOp19
 70
     1
102
RTVSPropertyOp20
 70
     1
102
RTVSPropertyOp21
 70
     1
102
RTVSPropertyOp22
 70
     1
102
RTVSPropertyOp23
 70
     1
102
RTVSPropertyOp24
 70
     1
102
RTVSPropertyOp25
 70
     1
102
RTVSPropertyOp26
 70
     1
102
RTVSPropertyOp27
 70
     1
102
RTVSPropertyOp28
 70
     1
102
RTVSPropertyOp29
 70
     1
102
RTVSPropertyOp30
 70
     1
102
RTVSPropertyOp31
 70
     1
102
RTVSPropertyOp32
 70
     1
  0
XRECORD
  5
82B
102
{ACAD_REACTORS
330
82A
102
}
330
82A
100
AcDbXrecord
280
     1
102
RTVSPropertyOp0
 70
     1
102
RTVSPropertyOp1
 70
     1
102
RTVSPropertyOp2
 70
     1
102
RTVSPropertyOp3
 70
     1
102
RTVSPropertyOp4
 70
     1
102
RTVSPropertyOp5
 70
     1
102
RTVSPropertyOp6
 70
     1
102
RTVSPropertyOp7
 70
     1
102
RTVSPropertyOp8
 70
     1
102
RTVSPropertyOp9
 70
     1
102
RTVSPropertyOp10
 70
     1
102
RTVSPropertyOp11
 70
     1
102
RTVSPropertyOp12
 70
     1
102
RTVSPropertyOp13
 70
     1
102
RTVSPropertyOp14
 70
     1
102
RTVSPropertyOp15
 70
     1
102
RTVSPropertyOp16
 70
     1
102
RTVSPropertyOp17
 70
     1
102
RTVSPropertyOp18
 70
     1
102
RTVSPropertyOp19
 70
     1
102
RTVSPropertyOp20
 70
     1
102
RTVSPropertyOp21
 70
     1
102
RTVSPropertyOp22
 70
     1
102
RTVSPropertyOp23
 70
     1
102
RTVSPropertyOp24
 70
     1
102
RTVSPropertyOp25
 70
     1
102
RTVSPropertyOp26
 70
     1
102
RTVSPropertyOp27
 70
     1
102
RTVSPropertyOp28
 70
     1
102
RTVSPropertyOp29
 70
     1
102
RTVSPropertyOp30
 70
     1
102
RTVSPropertyOp31
 70
     1
102
RTVSPropertyOp32
 70
     1
  0
XRECORD
  5
82F
102
{ACAD_REACTORS
330
82E
102
}
330
82E
100
AcDbXrecord
280
     1
102
RTVSPropertyOp0
 70
     1
102
RTVSPropertyOp1
 70
     1
102
RTVSPropertyOp2
 70
     1
102
RTVSPropertyOp3
 70
     1
102
RTVSPropertyOp4
 70
     1
102
RTVSPropertyOp5
 70
     1
102
RTVSPropertyOp6
 70
     1
102
RTVSPropertyOp7
 70
     1
102
RTVSPropertyOp8
 70
     1
102
RTVSPropertyOp9
 70
     1
102
RTVSPropertyOp10
 70
     1
102
RTVSPropertyOp11
 70
     1
102
RTVSPropertyOp12
 70
     1
102
RTVSPropertyOp13
 70
     1
102
RTVSPropertyOp14
 70
     1
102
RTVSPropertyOp15
 70
     1
102
RTVSPropertyOp16
 70
     1
102
RTVSPropertyOp17
 70
     1
102
RTVSPropertyOp18
 70
     1
102
RTVSPropertyOp19
 70
     1
102
RTVSPropertyOp20
 70
     1
102
RTVSPropertyOp21
 70
     1
102
RTVSPropertyOp22
 70
     1
102
RTVSPropertyOp23
 70
     1
102
RTVSPropertyOp24
 70
     1
102
RTVSPropertyOp25
 70
     1
102
RTVSPropertyOp26
 70
     1
102
RTVSPropertyOp27
 70
     1
102
RTVSPropertyOp28
 70
     1
102
RTVSPropertyOp29
 70
     1
102
RTVSPropertyOp30
 70
     1
102
RTVSPropertyOp31
 70
     1
102
RTVSPropertyOp32
 70
     1
  0
XRECORD
  5
849
102
{ACAD_REACTORS
330
848
102
}
330
848
100
AcDbXrecord
280
     1
102
RTVSPropertyOp0
 70
     0
102
RTVSPropertyOp1
 70
     0
102
RTVSPropertyOp2
 70
     0
102
RTVSPropertyOp3
 70
     0
102
RTVSPropertyOp4
 70
     0
102
RTVSPropertyOp5
 70
     0
102
RTVSPropertyOp6
 70
     0
102
RTVSPropertyOp7
 70
     0
102
RTVSPropertyOp8
 70
     0
102
RTVSPropertyOp9
 70
     0
102
RTVSPropertyOp10
 70
     0
102
RTVSPropertyOp11
 70
     0
102
RTVSPropertyOp12
 70
     0
102
RTVSPropertyOp13
 70
     0
102
RTVSPropertyOp14
 70
     2
102
RTVSPropertyOp15
 70
     0
102
RTVSPropertyOp16
 70
     0
102
RTVSPropertyOp17
 70
     0
102
RTVSPropertyOp18
 70
     0
102
RTVSPropertyOp19
 70
     0
102
RTVSPropertyOp20
 70
     0
102
RTVSPropertyOp21
 70
     0
102
RTVSPropertyOp22
 70
     0
102
RTVSPropertyOp23
 70
     0
102
RTVSPropertyOp24
 70
     0
102
RTVSPropertyOp25
 70
     0
102
RTVSPropertyOp26
 70
     0
102
RTVSPropertyOp27
 70
     0
102
RTVSPropertyOp28
 70
     0
102
RTVSPropertyOp29
 70
     0
102
RTVSPropertyOp30
 70
     0
102
RTVSPropertyOp31
 70
     0
102
RTVSPropertyOp32
 70
     0
  0
XRECORD
  5
837
102
{ACAD_REACTORS
330
836
102
}
330
836
100
AcDbXrecord
280
     1
102
RTVSPropertyOp0
 70
     1
102
RTVSPropertyOp1
 70
     1
102
RTVSPropertyOp2
 70
     1
102
RTVSPropertyOp3
 70
     1
102
RTVSPropertyOp4
 70
     1
102
RTVSPropertyOp5
 70
     1
102
RTVSPropertyOp6
 70
     1
102
RTVSPropertyOp7
 70
     1
102
RTVSPropertyOp8
 70
     1
102
RTVSPropertyOp9
 70
     1
102
RTVSPropertyOp10
 70
     1
102
RTVSPropertyOp11
 70
     1
102
RTVSPropertyOp12
 70
     1
102
RTVSPropertyOp13
 70
     1
102
RTVSPropertyOp14
 70
     1
102
RTVSPropertyOp15
 70
     1
102
RTVSPropertyOp16
 70
     1
102
RTVSPropertyOp17
 70
     1
102
RTVSPropertyOp18
 70
     1
102
RTVSPropertyOp19
 70
     1
102
RTVSPropertyOp20
 70
     1
102
RTVSPropertyOp21
 70
     1
102
RTVSPropertyOp22
 70
     1
102
RTVSPropertyOp23
 70
     1
102
RTVSPropertyOp24
 70
     1
102
RTVSPropertyOp25
 70
     1
102
RTVSPropertyOp26
 70
     1
102
RTVSPropertyOp27
 70
     1
102
RTVSPropertyOp28
 70
     1
102
RTVSPropertyOp29
 70
     1
102
RTVSPropertyOp30
 70
     1
102
RTVSPropertyOp31
 70
     1
102
RTVSPropertyOp32
 70
     1
  0
XRECORD
  5
81B
102
{ACAD_REACTORS
330
81A
102
}
330
81A
100
AcDbXrecord
280
     1
102
RTVSPropertyOp0
 70
     1
102
RTVSPropertyOp1
 70
     1
102
RTVSPropertyOp2
 70
     1
102
RTVSPropertyOp3
 70
     1
102
RTVSPropertyOp4
 70
     1
102
RTVSPropertyOp5
 70
     1
102
RTVSPropertyOp6
 70
     1
102
RTVSPropertyOp7
 70
     1
102
RTVSPropertyOp8
 70
     1
102
RTVSPropertyOp9
 70
     1
102
RTVSPropertyOp10
 70
     1
102
RTVSPropertyOp11
 70
     1
102
RTVSPropertyOp12
 70
     1
102
RTVSPropertyOp13
 70
     1
102
RTVSPropertyOp14
 70
     1
102
RTVSPropertyOp15
 70
     1
102
RTVSPropertyOp16
 70
     1
102
RTVSPropertyOp17
 70
     1
102
RTVSPropertyOp18
 70
     1
102
RTVSPropertyOp19
 70
     1
102
RTVSPropertyOp20
 70
     1
102
RTVSPropertyOp21
 70
     1
102
RTVSPropertyOp22
 70
     1
102
RTVSPropertyOp23
 70
     1
102
RTVSPropertyOp24
 70
     1
102
RTVSPropertyOp25
 70
     1
102
RTVSPropertyOp26
 70
     1
102
RTVSPropertyOp27
 70
     1
102
RTVSPropertyOp28
 70
     1
102
RTVSPropertyOp29
 70
     1
102
RTVSPropertyOp30
 70
     1
102
RTVSPropertyOp31
 70
     1
102
RTVSPropertyOp32
 70
     1
  0
XRECORD
  5
81D
102
{ACAD_REACTORS
330
81C
102
}
330
81C
100
AcDbXrecord
280
     1
102
RTVSPropertyOp0
 70
     1
102
RTVSPropertyOp1
 70
     1
102
RTVSPropertyOp2
 70
     1
102
RTVSPropertyOp3
 70
     1
102
RTVSPropertyOp4
 70
     1
102
RTVSPropertyOp5
 70
     1
102
RTVSPropertyOp6
 70
     1
102
RTVSPropertyOp7
 70
     1
102
RTVSPropertyOp8
 70
     1
102
RTVSPropertyOp9
 70
     1
102
RTVSPropertyOp10
 70
     1
102
RTVSPropertyOp11
 70
     1
102
RTVSPropertyOp12
 70
     1
102
RTVSPropertyOp13
 70
     1
102
RTVSPropertyOp14
 70
     1
102
RTVSPropertyOp15
 70
     1
102
RTVSPropertyOp16
 70
     1
102
RTVSPropertyOp17
 70
     1
102
RTVSPropertyOp18
 70
     1
102
RTVSPropertyOp19
 70
     1
102
RTVSPropertyOp20
 70
     1
102
RTVSPropertyOp21
 70
     1
102
RTVSPropertyOp22
 70
     1
102
RTVSPropertyOp23
 70
     1
102
RTVSPropertyOp24
 70
     1
102
RTVSPropertyOp25
 70
     1
102
RTVSPropertyOp26
 70
     1
102
RTVSPropertyOp27
 70
     1
102
RTVSPropertyOp28
 70
     1
102
RTVSPropertyOp29
 70
     1
102
RTVSPropertyOp30
 70
     1
102
RTVSPropertyOp31
 70
     1
102
RTVSPropertyOp32
 70
     1
  0
XRECORD
  5
81F
102
{ACAD_REACTORS
330
81E
102
}
330
81E
100
AcDbXrecord
280
     1
102
RTVSPropertyOp0
 70
     1
102
RTVSPropertyOp1
 70
     1
102
RTVSPropertyOp2
 70
     1
102
RTVSPropertyOp3
 70
     1
102
RTVSPropertyOp4
 70
     1
102
RTVSPropertyOp5
 70
     1
102
RTVSPropertyOp6
 70
     1
102
RTVSPropertyOp7
 70
     1
102
RTVSPropertyOp8
 70
     1
102
RTVSPropertyOp9
 70
     1
102
RTVSPropertyOp10
 70
     1
102
RTVSPropertyOp11
 70
     1
102
RTVSPropertyOp12
 70
     1
102
RTVSPropertyOp13
 70
     1
102
RTVSPropertyOp14
 70
     1
102
RTVSPropertyOp15
 70
     1
102
RTVSPropertyOp16
 70
     1
102
RTVSPropertyOp17
 70
     1
102
RTVSPropertyOp18
 70
     1
102
RTVSPropertyOp19
 70
     1
102
RTVSPropertyOp20
 70
     1
102
RTVSPropertyOp21
 70
     1
102
RTVSPropertyOp22
 70
     1
102
RTVSPropertyOp23
 70
     1
102
RTVSPropertyOp24
 70
     1
102
RTVSPropertyOp25
 70
     1
102
RTVSPropertyOp26
 70
     1
102
RTVSPropertyOp27
 70
     1
102
RTVSPropertyOp28
 70
     1
102
RTVSPropertyOp29
 70
     1
102
RTVSPropertyOp30
 70
     1
102
RTVSPropertyOp31
 70
     1
102
RTVSPropertyOp32
 70
     1
  0
XRECORD
  5
821
102
{ACAD_REACTORS
330
820
102
}
330
820
100
AcDbXrecord
280
     1
102
RTVSPropertyOp0
 70
     1
102
RTVSPropertyOp1
 70
     1
102
RTVSPropertyOp2
 70
     1
102
RTVSPropertyOp3
 70
     1
102
RTVSPropertyOp4
 70
     1
102
RTVSPropertyOp5
 70
     1
102
RTVSPropertyOp6
 70
     1
102
RTVSPropertyOp7
 70
     1
102
RTVSPropertyOp8
 70
     1
102
RTVSPropertyOp9
 70
     1
102
RTVSPropertyOp10
 70
     1
102
RTVSPropertyOp11
 70
     1
102
RTVSPropertyOp12
 70
     1
102
RTVSPropertyOp13
 70
     1
102
RTVSPropertyOp14
 70
     1
102
RTVSPropertyOp15
 70
     1
102
RTVSPropertyOp16
 70
     1
102
RTVSPropertyOp17
 70
     1
102
RTVSPropertyOp18
 70
     1
102
RTVSPropertyOp19
 70
     1
102
RTVSPropertyOp20
 70
     1
102
RTVSPropertyOp21
 70
     1
102
RTVSPropertyOp22
 70
     1
102
RTVSPropertyOp23
 70
     1
102
RTVSPropertyOp24
 70
     1
102
RTVSPropertyOp25
 70
     1
102
RTVSPropertyOp26
 70
     1
102
RTVSPropertyOp27
 70
     1
102
RTVSPropertyOp28
 70
     1
102
RTVSPropertyOp29
 70
     1
102
RTVSPropertyOp30
 70
     1
102
RTVSPropertyOp31
 70
     1
102
RTVSPropertyOp32
 70
     1
  0
XRECORD
  5
829
102
{ACAD_REACTORS
330
828
102
}
330
828
100
AcDbXrecord
280
     1
102
RTVSPropertyOp0
 70
     1
102
RTVSPropertyOp1
 70
     1
102
RTVSPropertyOp2
 70
     1
102
RTVSPropertyOp3
 70
     1
102
RTVSPropertyOp4
 70
     1
102
RTVSPropertyOp5
 70
     1
102
RTVSPropertyOp6
 70
     1
102
RTVSPropertyOp7
 70
     1
102
RTVSPropertyOp8
 70
     1
102
RTVSPropertyOp9
 70
     1
102
RTVSPropertyOp10
 70
     1
102
RTVSPropertyOp11
 70
     1
102
RTVSPropertyOp12
 70
     1
102
RTVSPropertyOp13
 70
     1
102
RTVSPropertyOp14
 70
     1
102
RTVSPropertyOp15
 70
     1
102
RTVSPropertyOp16
 70
     1
102
RTVSPropertyOp17
 70
     1
102
RTVSPropertyOp18
 70
     1
102
RTVSPropertyOp19
 70
     1
102
RTVSPropertyOp20
 70
     1
102
RTVSPropertyOp21
 70
     1
102
RTVSPropertyOp22
 70
     1
102
RTVSPropertyOp23
 70
     1
102
RTVSPropertyOp24
 70
     1
102
RTVSPropertyOp25
 70
     1
102
RTVSPropertyOp26
 70
     1
102
RTVSPropertyOp27
 70
     1
102
RTVSPropertyOp28
 70
     1
102
RTVSPropertyOp29
 70
     1
102
RTVSPropertyOp30
 70
     1
102
RTVSPropertyOp31
 70
     1
102
RTVSPropertyOp32
 70
     1
  0
XRECORD
  5
845
102
{ACAD_REACTORS
330
844
102
}
330
844
100
AcDbXrecord
280
     1
102
RTVSPropertyOp0
 70
     0
102
RTVSPropertyOp1
 70
     0
102
RTVSPropertyOp2
 70
     0
102
RTVSPropertyOp3
 70
     0
102
RTVSPropertyOp4
 70
     0
102
RTVSPropertyOp5
 70
     0
102
RTVSPropertyOp6
 70
     0
102
RTVSPropertyOp7
 70
     0
102
RTVSPropertyOp8
 70
     0
102
RTVSPropertyOp9
 70
     0
102
RTVSPropertyOp10
 70
     0
102
RTVSPropertyOp11
 70
     0
102
RTVSPropertyOp12
 70
     0
102
RTVSPropertyOp13
 70
     0
102
RTVSPropertyOp14
 70
     2
102
RTVSPropertyOp15
 70
     0
102
RTVSPropertyOp16
 70
     0
102
RTVSPropertyOp17
 70
     0
102
RTVSPropertyOp18
 70
     0
102
RTVSPropertyOp19
 70
     0
102
RTVSPropertyOp20
 70
     0
102
RTVSPropertyOp21
 70
     0
102
RTVSPropertyOp22
 70
     0
102
RTVSPropertyOp23
 70
     0
102
RTVSPropertyOp24
 70
     0
102
RTVSPropertyOp25
 70
     0
102
RTVSPropertyOp26
 70
     0
102
RTVSPropertyOp27
 70
     0
102
RTVSPropertyOp28
 70
     0
102
RTVSPropertyOp29
 70
     0
102
RTVSPropertyOp30
 70
     0
102
RTVSPropertyOp31
 70
     0
102
RTVSPropertyOp32
 70
     0
  0
XRECORD
  5
835
102
{ACAD_REACTORS
330
834
102
}
330
834
100
AcDbXrecord
280
     1
102
RTVSPropertyOp0
 70
     1
102
RTVSPropertyOp1
 70
     1
102
RTVSPropertyOp2
 70
     1
102
RTVSPropertyOp3
 70
     1
102
RTVSPropertyOp4
 70
     1
102
RTVSPropertyOp5
 70
     1
102
RTVSPropertyOp6
 70
     1
102
RTVSPropertyOp7
 70
     1
102
RTVSPropertyOp8
 70
     1
102
RTVSPropertyOp9
 70
     1
102
RTVSPropertyOp10
 70
     1
102
RTVSPropertyOp11
 70
     1
102
RTVSPropertyOp12
 70
     1
102
RTVSPropertyOp13
 70
     1
102
RTVSPropertyOp14
 70
     1
102
RTVSPropertyOp15
 70
     1
102
RTVSPropertyOp16
 70
     1
102
RTVSPropertyOp17
 70
     1
102
RTVSPropertyOp18
 70
     1
102
RTVSPropertyOp19
 70
     1
102
RTVSPropertyOp20
 70
     1
102
RTVSPropertyOp21
 70
     1
102
RTVSPropertyOp22
 70
     1
102
RTVSPropertyOp23
 70
     1
102
RTVSPropertyOp24
 70
     1
102
RTVSPropertyOp25
 70
     1
102
RTVSPropertyOp26
 70
     1
102
RTVSPropertyOp27
 70
     1
102
RTVSPropertyOp28
 70
     1
102
RTVSPropertyOp29
 70
     1
102
RTVSPropertyOp30
 70
     1
102
RTVSPropertyOp31
 70
     1
102
RTVSPropertyOp32
 70
     1
  0
XRECORD
  5
847
102
{ACAD_REACTORS
330
846
102
}
330
846
100
AcDbXrecord
280
     1
102
RTVSPropertyOp0
 70
     0
102
RTVSPropertyOp1
 70
     0
102
RTVSPropertyOp2
 70
     0
102
RTVSPropertyOp3
 70
     0
102
RTVSPropertyOp4
 70
     0
102
RTVSPropertyOp5
 70
     0
102
RTVSPropertyOp6
 70
     0
102
RTVSPropertyOp7
 70
     0
102
RTVSPropertyOp8
 70
     0
102
RTVSPropertyOp9
 70
     0
102
RTVSPropertyOp10
 70
     0
102
RTVSPropertyOp11
 70
     0
102
RTVSPropertyOp12
 70
     0
102
RTVSPropertyOp13
 70
     0
102
RTVSPropertyOp14
 70
     2
102
RTVSPropertyOp15
 70
     0
102
RTVSPropertyOp16
 70
     0
102
RTVSPropertyOp17
 70
     0
102
RTVSPropertyOp18
 70
     0
102
RTVSPropertyOp19
 70
     0
102
RTVSPropertyOp20
 70
     0
102
RTVSPropertyOp21
 70
     0
102
RTVSPropertyOp22
 70
     0
102
RTVSPropertyOp23
 70
     0
102
RTVSPropertyOp24
 70
     0
102
RTVSPropertyOp25
 70
     0
102
RTVSPropertyOp26
 70
     0
102
RTVSPropertyOp27
 70
     0
102
RTVSPropertyOp28
 70
     0
102
RTVSPropertyOp29
 70
     0
102
RTVSPropertyOp30
 70
     0
102
RTVSPropertyOp31
 70
     0
102
RTVSPropertyOp32
 70
     0
  0
XRECORD
  5
82D
102
{ACAD_REACTORS
330
82C
102
}
330
82C
100
AcDbXrecord
280
     1
102
RTVSPropertyOp0
 70
     1
102
RTVSPropertyOp1
 70
     1
102
RTVSPropertyOp2
 70
     1
102
RTVSPropertyOp3
 70
     1
102
RTVSPropertyOp4
 70
     1
102
RTVSPropertyOp5
 70
     1
102
RTVSPropertyOp6
 70
     1
102
RTVSPropertyOp7
 70
     1
102
RTVSPropertyOp8
 70
     1
102
RTVSPropertyOp9
 70
     1
102
RTVSPropertyOp10
 70
     1
102
RTVSPropertyOp11
 70
     1
102
RTVSPropertyOp12
 70
     1
102
RTVSPropertyOp13
 70
     1
102
RTVSPropertyOp14
 70
     1
102
RTVSPropertyOp15
 70
     1
102
RTVSPropertyOp16
 70
     1
102
RTVSPropertyOp17
 70
     1
102
RTVSPropertyOp18
 70
     1
102
RTVSPropertyOp19
 70
     1
102
RTVSPropertyOp20
 70
     1
102
RTVSPropertyOp21
 70
     1
102
RTVSPropertyOp22
 70
     1
102
RTVSPropertyOp23
 70
     1
102
RTVSPropertyOp24
 70
     1
102
RTVSPropertyOp25
 70
     1
102
RTVSPropertyOp26
 70
     1
102
RTVSPropertyOp27
 70
     1
102
RTVSPropertyOp28
 70
     1
102
RTVSPropertyOp29
 70
     1
102
RTVSPropertyOp30
 70
     1
102
RTVSPropertyOp31
 70
     1
102
RTVSPropertyOp32
 70
     1
  0
XRECORD
  5
843
102
{ACAD_REACTORS
330
842
102
}
330
842
100
AcDbXrecord
280
     1
102
RTVSPropertyOp0
 70
     1
102
RTVSPropertyOp1
 70
     1
102
RTVSPropertyOp2
 70
     1
102
RTVSPropertyOp3
 70
     1
102
RTVSPropertyOp4
 70
     1
102
RTVSPropertyOp5
 70
     1
102
RTVSPropertyOp6
 70
     1
102
RTVSPropertyOp7
 70
     1
102
RTVSPropertyOp8
 70
     1
102
RTVSPropertyOp9
 70
     1
102
RTVSPropertyOp10
 70
     1
102
RTVSPropertyOp11
 70
     1
102
RTVSPropertyOp12
 70
     1
102
RTVSPropertyOp13
 70
     1
102
RTVSPropertyOp14
 70
     1
102
RTVSPropertyOp15
 70
     1
102
RTVSPropertyOp16
 70
     1
102
RTVSPropertyOp17
 70
     1
102
RTVSPropertyOp18
 70
     1
102
RTVSPropertyOp19
 70
     1
102
RTVSPropertyOp20
 70
     1
102
RTVSPropertyOp21
 70
     1
102
RTVSPropertyOp22
 70
     1
102
RTVSPropertyOp23
 70
     1
102
RTVSPropertyOp24
 70
     1
102
RTVSPropertyOp25
 70
     1
102
RTVSPropertyOp26
 70
     1
102
RTVSPropertyOp27
 70
     1
102
RTVSPropertyOp28
 70
     1
102
RTVSPropertyOp29
 70
     1
102
RTVSPropertyOp30
 70
     1
102
RTVSPropertyOp31
 70
     1
102
RTVSPropertyOp32
 70
     1
  0
XRECORD
  5
841
102
{ACAD_REACTORS
330
840
102
}
330
840
100
AcDbXrecord
280
     1
102
RTVSPropertyOp0
 70
     1
102
RTVSPropertyOp1
 70
     1
102
RTVSPropertyOp2
 70
     1
102
RTVSPropertyOp3
 70
     1
102
RTVSPropertyOp4
 70
     1
102
RTVSPropertyOp5
 70
     1
102
RTVSPropertyOp6
 70
     1
102
RTVSPropertyOp7
 70
     1
102
RTVSPropertyOp8
 70
     1
102
RTVSPropertyOp9
 70
     1
102
RTVSPropertyOp10
 70
     1
102
RTVSPropertyOp11
 70
     1
102
RTVSPropertyOp12
 70
     1
102
RTVSPropertyOp13
 70
     1
102
RTVSPropertyOp14
 70
     1
102
RTVSPropertyOp15
 70
     1
102
RTVSPropertyOp16
 70
     1
102
RTVSPropertyOp17
 70
     1
102
RTVSPropertyOp18
 70
     1
102
RTVSPropertyOp19
 70
     1
102
RTVSPropertyOp20
 70
     1
102
RTVSPropertyOp21
 70
     1
102
RTVSPropertyOp22
 70
     1
102
RTVSPropertyOp23
 70
     1
102
RTVSPropertyOp24
 70
     1
102
RTVSPropertyOp25
 70
     1
102
RTVSPropertyOp26
 70
     1
102
RTVSPropertyOp27
 70
     1
102
RTVSPropertyOp28
 70
     1
102
RTVSPropertyOp29
 70
     1
102
RTVSPropertyOp30
 70
     1
102
RTVSPropertyOp31
 70
     1
102
RTVSPropertyOp32
 70
     1
  0
XRECORD
  5
83B
102
{ACAD_REACTORS
330
83A
102
}
330
83A
100
AcDbXrecord
280
     1
102
RTVSPropertyOp0
 70
     1
102
RTVSPropertyOp1
 70
     1
102
RTVSPropertyOp2
 70
     1
102
RTVSPropertyOp3
 70
     1
102
RTVSPropertyOp4
 70
     1
102
RTVSPropertyOp5
 70
     1
102
RTVSPropertyOp6
 70
     1
102
RTVSPropertyOp7
 70
     1
102
RTVSPropertyOp8
 70
     1
102
RTVSPropertyOp9
 70
     1
102
RTVSPropertyOp10
 70
     1
102
RTVSPropertyOp11
 70
     1
102
RTVSPropertyOp12
 70
     1
102
RTVSPropertyOp13
 70
     1
102
RTVSPropertyOp14
 70
     1
102
RTVSPropertyOp15
 70
     1
102
RTVSPropertyOp16
 70
     1
102
RTVSPropertyOp17
 70
     1
102
RTVSPropertyOp18
 70
     1
102
RTVSPropertyOp19
 70
     1
102
RTVSPropertyOp20
 70
     1
102
RTVSPropertyOp21
 70
     1
102
RTVSPropertyOp22
 70
     1
102
RTVSPropertyOp23
 70
     1
102
RTVSPropertyOp24
 70
     1
102
RTVSPropertyOp25
 70
     1
102
RTVSPropertyOp26
 70
     1
102
RTVSPropertyOp27
 70
     1
102
RTVSPropertyOp28
 70
     1
102
RTVSPropertyOp29
 70
     1
102
RTVSPropertyOp30
 70
     1
102
RTVSPropertyOp31
 70
     1
102
RTVSPropertyOp32
 70
     1
  0
XRECORD
  5
83D
102
{ACAD_REACTORS
330
83C
102
}
330
83C
100
AcDbXrecord
280
     1
102
RTVSPropertyOp0
 70
     1
102
RTVSPropertyOp1
 70
     1
102
RTVSPropertyOp2
 70
     1
102
RTVSPropertyOp3
 70
     1
102
RTVSPropertyOp4
 70
     1
102
RTVSPropertyOp5
 70
     1
102
RTVSPropertyOp6
 70
     1
102
RTVSPropertyOp7
 70
     1
102
RTVSPropertyOp8
 70
     1
102
RTVSPropertyOp9
 70
     1
102
RTVSPropertyOp10
 70
     1
102
RTVSPropertyOp11
 70
     1
102
RTVSPropertyOp12
 70
     1
102
RTVSPropertyOp13
 70
     1
102
RTVSPropertyOp14
 70
     1
102
RTVSPropertyOp15
 70
     1
102
RTVSPropertyOp16
 70
     1
102
RTVSPropertyOp17
 70
     1
102
RTVSPropertyOp18
 70
     1
102
RTVSPropertyOp19
 70
     1
102
RTVSPropertyOp20
 70
     1
102
RTVSPropertyOp21
 70
     1
102
RTVSPropertyOp22
 70
     1
102
RTVSPropertyOp23
 70
     1
102
RTVSPropertyOp24
 70
     1
102
RTVSPropertyOp25
 70
     1
102
RTVSPropertyOp26
 70
     1
102
RTVSPropertyOp27
 70
     1
102
RTVSPropertyOp28
 70
     1
102
RTVSPropertyOp29
 70
     1
102
RTVSPropertyOp30
 70
     1
102
RTVSPropertyOp31
 70
     1
102
RTVSPropertyOp32
 70
     1
  0
XRECORD
  5
833
102
{ACAD_REACTORS
330
832
102
}
330
832
100
AcDbXrecord
280
     1
102
RTVSPropertyOp0
 70
     1
102
RTVSPropertyOp1
 70
     1
102
RTVSPropertyOp2
 70
     1
102
RTVSPropertyOp3
 70
     1
102
RTVSPropertyOp4
 70
     1
102
RTVSPropertyOp5
 70
     1
102
RTVSPropertyOp6
 70
     1
102
RTVSPropertyOp7
 70
     1
102
RTVSPropertyOp8
 70
     1
102
RTVSPropertyOp9
 70
     1
102
RTVSPropertyOp10
 70
     1
102
RTVSPropertyOp11
 70
     1
102
RTVSPropertyOp12
 70
     1
102
RTVSPropertyOp13
 70
     1
102
RTVSPropertyOp14
 70
     1
102
RTVSPropertyOp15
 70
     1
102
RTVSPropertyOp16
 70
     1
102
RTVSPropertyOp17
 70
     1
102
RTVSPropertyOp18
 70
     1
102
RTVSPropertyOp19
 70
     1
102
RTVSPropertyOp20
 70
     1
102
RTVSPropertyOp21
 70
     1
102
RTVSPropertyOp22
 70
     1
102
RTVSPropertyOp23
 70
     1
102
RTVSPropertyOp24
 70
     1
102
RTVSPropertyOp25
 70
     1
102
RTVSPropertyOp26
 70
     1
102
RTVSPropertyOp27
 70
     1
102
RTVSPropertyOp28
 70
     1
102
RTVSPropertyOp29
 70
     1
102
RTVSPropertyOp30
 70
     1
102
RTVSPropertyOp31
 70
     1
102
RTVSPropertyOp32
 70
     1
  0
XRECORD
  5
827
102
{ACAD_REACTORS
330
826
102
}
330
826
100
AcDbXrecord
280
     1
102
RTVSPropertyOp0
 70
     1
102
RTVSPropertyOp1
 70
     1
102
RTVSPropertyOp2
 70
     1
102
RTVSPropertyOp3
 70
     1
102
RTVSPropertyOp4
 70
     1
102
RTVSPropertyOp5
 70
     1
102
RTVSPropertyOp6
 70
     1
102
RTVSPropertyOp7
 70
     1
102
RTVSPropertyOp8
 70
     1
102
RTVSPropertyOp9
 70
     1
102
RTVSPropertyOp10
 70
     1
102
RTVSPropertyOp11
 70
     1
102
RTVSPropertyOp12
 70
     1
102
RTVSPropertyOp13
 70
     1
102
RTVSPropertyOp14
 70
     1
102
RTVSPropertyOp15
 70
     1
102
RTVSPropertyOp16
 70
     1
102
RTVSPropertyOp17
 70
     1
102
RTVSPropertyOp18
 70
     1
102
RTVSPropertyOp19
 70
     1
102
RTVSPropertyOp20
 70
     1
102
RTVSPropertyOp21
 70
     1
102
RTVSPropertyOp22
 70
     1
102
RTVSPropertyOp23
 70
     1
102
RTVSPropertyOp24
 70
     1
102
RTVSPropertyOp25
 70
     1
102
RTVSPropertyOp26
 70
     1
102
RTVSPropertyOp27
 70
     1
102
RTVSPropertyOp28
 70
     1
102
RTVSPropertyOp29
 70
     1
102
RTVSPropertyOp30
 70
     1
102
RTVSPropertyOp31
 70
     1
102
RTVSPropertyOp32
 70
     1
  0
XRECORD
  5
83F
102
{ACAD_REACTORS
330
83E
102
}
330
83E
100
AcDbXrecord
280
     1
102
RTVSPropertyOp0
 70
     1
102
RTVSPropertyOp1
 70
     1
102
RTVSPropertyOp2
 70
     1
102
RTVSPropertyOp3
 70
     1
102
RTVSPropertyOp4
 70
     1
102
RTVSPropertyOp5
 70
     1
102
RTVSPropertyOp6
 70
     1
102
RTVSPropertyOp7
 70
     1
102
RTVSPropertyOp8
 70
     1
102
RTVSPropertyOp9
 70
     1
102
RTVSPropertyOp10
 70
     1
102
RTVSPropertyOp11
 70
     1
102
RTVSPropertyOp12
 70
     1
102
RTVSPropertyOp13
 70
     1
102
RTVSPropertyOp14
 70
     1
102
RTVSPropertyOp15
 70
     1
102
RTVSPropertyOp16
 70
     1
102
RTVSPropertyOp17
 70
     1
102
RTVSPropertyOp18
 70
     1
102
RTVSPropertyOp19
 70
     1
102
RTVSPropertyOp20
 70
     1
102
RTVSPropertyOp21
 70
     1
102
RTVSPropertyOp22
 70
     1
102
RTVSPropertyOp23
 70
     1
102
RTVSPropertyOp24
 70
     1
102
RTVSPropertyOp25
 70
     1
102
RTVSPropertyOp26
 70
     1
102
RTVSPropertyOp27
 70
     1
102
RTVSPropertyOp28
 70
     1
102
RTVSPropertyOp29
 70
     1
102
RTVSPropertyOp30
 70
     1
102
RTVSPropertyOp31
 70
     1
102
RTVSPropertyOp32
 70
     1
  0
ENDSEC
  0
EOF
