  0
SECTION
  2
HEADER
  9
$ACADVER
  1
AC1018
  9
$ACADMAINTVER
 70
   104
  9
$DWGCODEPAGE
  3
ANSI_932
  9
$TITLE
  1
ソケット
  9
$AUTHOR
  1
水田
  9
$LASTSAVEDBY
  1
user
  9
$CUSTOMPROPERTYTAG
  1
マネージャ
  9
$CUSTOMPROPERTY
  1

  9
$CUSTOMPROPERTYTAG
  1
会社
  9
$CUSTOMPROPERTY
  1

  9
$CUSTOMPROPERTYTAG
  1
カテゴリ
  9
$CUSTOMPROPERTY
  1

  9
$CUSTOMPROPERTYTAG
  1
部品番号
  9
$CUSTOMPROPERTY
  1
1BM-6011
  9
$CUSTOMPROPERTYTAG
  1
説明
  9
$CUSTOMPROPERTY
  1

  9
$CUSTOMPROPERTYTAG
  1
プロジェクト
  9
$CUSTOMPROPERTY
  1

  9
$CUSTOMPROPERTYTAG
  1
設計者
  9
$CUSTOMPROPERTY
  1
水田
  9
$CUSTOMPROPERTYTAG
  1
エンジニア
  9
$CUSTOMPROPERTY
  1

  9
$CUSTOMPROPERTYTAG
  1
責任者
  9
$CUSTOMPROPERTY
  1
mizuta
  9
$CUSTOMPROPERTYTAG
  1
コスト センター
  9
$CUSTOMPROPERTY
  1

  9
$CUSTOMPROPERTYTAG
  1
ベンダー
  9
$CUSTOMPROPERTY
  1

  9
$CUSTOMPROPERTYTAG
  1
ユーザ ステータス
  9
$CUSTOMPROPERTY
  1

  9
$CUSTOMPROPERTYTAG
  1
設計ステータス
  9
$CUSTOMPROPERTY
  1
作業中
  9
$CUSTOMPROPERTYTAG
  1
確認者
  9
$CUSTOMPROPERTY
  1
mizuta
  9
$CUSTOMPROPERTYTAG
  1
エンジニアリング承認者
  9
$CUSTOMPROPERTY
  1

  9
$CUSTOMPROPERTYTAG
  1
製造承認者
  9
$CUSTOMPROPERTY
  1

  9
$INSBASE
 10
0.0
 20
0.0
 30
0.0
  9
$EXTMIN
 10
94.67559923263696
 20
41.52543714121612
 30
-0.0000000349181948
  9
$EXTMAX
 10
242.4920662009299
 20
168.4855046922871
 30
0.0000000814935747
  9
$LIMMIN
 10
0.0
 20
0.0
  9
$LIMMAX
 10
420.0
 20
297.0
  9
$ORTHOMODE
 70
     0
  9
$REGENMODE
 70
     1
  9
$FILLMODE
 70
     1
  9
$QTEXTMODE
 70
     0
  9
$MIRRTEXT
 70
     0
  9
$LTSCALE
 40
1.0
  9
$ATTMODE
 70
     1
  9
$TEXTSIZE
 40
0.2
  9
$TRACEWID
 40
0.05
  9
$TEXTSTYLE
  7
Standard
  9
$CLAYER
  8
0
  9
$CELTYPE
  6
ByLayer
  9
$CECOLOR
 62
   256
  9
$CELTSCALE
 40
1.0
  9
$DISPSILH
 70
     0
  9
$DIMSCALE
 40
1.0
  9
$DIMASZ
 40
1.799999999999999
  9
$DIMEXO
 40
0.0625
  9
$DIMDLI
 40
0.38
  9
$DIMRND
 40
0.0
  9
$DIMDLE
 40
0.0
  9
$DIMEXE
 40
0.18
  9
$DIMTP
 40
0.0
  9
$DIMTM
 40
0.0
  9
$DIMTXT
 40
0.25
  9
$DIMCEN
 40
0.09
  9
$DIMTSZ
 40
0.0
  9
$DIMTOL
 70
     0
  9
$DIMLIM
 70
     0
  9
$DIMTIH
 70
     1
  9
$DIMTOH
 70
     1
  9
$DIMSE1
 70
     0
  9
$DIMSE2
 70
     0
  9
$DIMTAD
 70
     0
  9
$DIMZIN
 70
     0
  9
$DIMBLK
  1

  9
$DIMASO
 70
     1
  9
$DIMSHO
 70
     1
  9
$DIMPOST
  1

  9
$DIMAPOST
  1

  9
$DIMALT
 70
     0
  9
$DIMALTD
 70
     2
  9
$DIMALTF
 40
25.4
  9
$DIMLFAC
 40
1.0
  9
$DIMTOFL
 70
     0
  9
$DIMTVP
 40
0.0
  9
$DIMTIX
 70
     0
  9
$DIMSOXD
 70
     0
  9
$DIMSAH
 70
     0
  9
$DIMBLK1
  1

  9
$DIMBLK2
  1

  9
$DIMSTYLE
  2
Standard
  9
$DIMCLRD
 70
     0
  9
$DIMCLRE
 70
     0
  9
$DIMCLRT
 70
     0
  9
$DIMTFAC
 40
1.0
  9
$DIMGAP
 40
0.09
  9
$DIMJUST
 70
     0
  9
$DIMSD1
 70
     0
  9
$DIMSD2
 70
     0
  9
$DIMTOLJ
 70
     1
  9
$DIMTZIN
 70
     0
  9
$DIMALTZ
 70
     0
  9
$DIMALTTZ
 70
     0
  9
$DIMUPT
 70
     0
  9
$DIMDEC
 70
     4
  9
$DIMTDEC
 70
     4
  9
$DIMALTU
 70
     2
  9
$DIMALTTD
 70
     2
  9
$DIMTXSTY
  7
Standard
  9
$DIMAUNIT
 70
     0
  9
$DIMADEC
 70
     0
  9
$DIMALTRND
 40
0.0
  9
$DIMAZIN
 70
     0
  9
$DIMDSEP
 70
    46
  9
$DIMATFIT
 70
     3
  9
$DIMFRAC
 70
     0
  9
$DIMLDRBLK
  1

  9
$DIMLUNIT
 70
     2
  9
$DIMLWD
 70
    -2
  9
$DIMLWE
 70
    -2
  9
$DIMTMOVE
 70
     0
  9
$LUNITS
 70
     2
  9
$LUPREC
 70
     4
  9
$SKETCHINC
 40
0.1
  9
$FILLETRAD
 40
0.0
  9
$AUNITS
 70
     0
  9
$AUPREC
 70
     0
  9
$MENU
  1
.
  9
$ELEVATION
 40
0.0
  9
$PELEVATION
 40
0.0
  9
$THICKNESS
 40
0.0
  9
$LIMCHECK
 70
     0
  9
$CHAMFERA
 40
0.0
  9
$CHAMFERB
 40
0.0
  9
$CHAMFERC
 40
0.0
  9
$CHAMFERD
 40
0.0
  9
$SKPOLY
 70
     0
  9
$TDCREATE
 40
2456687.497241401
  9
$TDUCREATE
 40
2456687.122241401
  9
$TDUPDATE
 40
2456687.506175151
  9
$TDUUPDATE
 40
2456687.131175151
  9
$TDINDWG
 40
0.0030313542
  9
$TDUSRTIMER
 40
0.0030312847
  9
$USRTIMER
 70
     1
  9
$ANGBASE
 50
0.0
  9
$ANGDIR
 70
     0
  9
$PDMODE
 70
     0
  9
$PDSIZE
 40
0.0
  9
$PLINEWID
 40
0.0
  9
$SPLFRAME
 70
     0
  9
$SPLINETYPE
 70
     6
  9
$SPLINESEGS
 70
     8
  9
$HANDSEED
  5
7F9
  9
$SURFTAB1
 70
     6
  9
$SURFTAB2
 70
     6
  9
$SURFTYPE
 70
     6
  9
$SURFU
 70
     6
  9
$SURFV
 70
     6
  9
$UCSBASE
  2

  9
$UCSNAME
  2

  9
$UCSORG
 10
0.0
 20
0.0
 30
0.0
  9
$UCSXDIR
 10
1.0
 20
0.0
 30
0.0
  9
$UCSYDIR
 10
0.0
 20
1.0
 30
0.0
  9
$UCSORTHOREF
  2

  9
$UCSORTHOVIEW
 70
     0
  9
$UCSORGTOP
 10
0.0
 20
0.0
 30
0.0
  9
$UCSORGBOTTOM
 10
0.0
 20
0.0
 30
0.0
  9
$UCSORGLEFT
 10
0.0
 20
0.0
 30
0.0
  9
$UCSORGRIGHT
 10
0.0
 20
0.0
 30
0.0
  9
$UCSORGFRONT
 10
0.0
 20
0.0
 30
0.0
  9
$UCSORGBACK
 10
0.0
 20
0.0
 30
0.0
  9
$PUCSBASE
  2

  9
$PUCSNAME
  2

  9
$PUCSORG
 10
0.0
 20
0.0
 30
0.0
  9
$PUCSXDIR
 10
1.0
 20
0.0
 30
0.0
  9
$PUCSYDIR
 10
0.0
 20
1.0
 30
0.0
  9
$PUCSORTHOREF
  2

  9
$PUCSORTHOVIEW
 70
     0
  9
$PUCSORGTOP
 10
0.0
 20
0.0
 30
0.0
  9
$PUCSORGBOTTOM
 10
0.0
 20
0.0
 30
0.0
  9
$PUCSORGLEFT
 10
0.0
 20
0.0
 30
0.0
  9
$PUCSORGRIGHT
 10
0.0
 20
0.0
 30
0.0
  9
$PUCSORGFRONT
 10
0.0
 20
0.0
 30
0.0
  9
$PUCSORGBACK
 10
0.0
 20
0.0
 30
0.0
  9
$USERI1
 70
     0
  9
$USERI2
 70
     0
  9
$USERI3
 70
     0
  9
$USERI4
 70
     0
  9
$USERI5
 70
     0
  9
$USERR1
 40
0.0
  9
$USERR2
 40
0.0
  9
$USERR3
 40
0.0
  9
$USERR4
 40
0.0
  9
$USERR5
 40
0.0
  9
$WORLDVIEW
 70
     1
  9
$SHADEDGE
 70
     3
  9
$SHADEDIF
 70
    70
  9
$TILEMODE
 70
     1
  9
$MAXACTVP
 70
    64
  9
$PINSBASE
 10
0.0
 20
0.0
 30
0.0
  9
$PLIMCHECK
 70
     0
  9
$PEXTMIN
 10
0.0
 20
0.0
 30
0.0
  9
$PEXTMAX
 10
420.0
 20
297.0
 30
0.0
  9
$PLIMMIN
 10
0.0
 20
0.0
  9
$PLIMMAX
 10
420.0
 20
297.0
  9
$UNITMODE
 70
     0
  9
$VISRETAIN
 70
     1
  9
$PLINEGEN
 70
     0
  9
$PSLTSCALE
 70
     1
  9
$TREEDEPTH
 70
  3020
  9
$CMLSTYLE
  2
Standard
  9
$CMLJUST
 70
     0
  9
$CMLSCALE
 40
1.0
  9
$PROXYGRAPHICS
 70
     1
  9
$MEASUREMENT
 70
     1
  9
$CELWEIGHT
370
    -1
  9
$ENDCAPS
280
     0
  9
$JOINSTYLE
280
     0
  9
$LWDISPLAY
290
     0
  9
$INSUNITS
 70
     4
  9
$HYPERLINKBASE
  1

  9
$STYLESHEET
  1

  9
$XEDIT
290
     1
  9
$CEPSNTYPE
380
     0
  9
$PSTYLEMODE
290
     1
  9
$FINGERPRINTGUID
  2
{DE7B068F-C4CB-495C-9E1F-CE44D94285A1}
  9
$VERSIONGUID
  2
{FE0B5DAD-6907-4A90-847B-177CBD7CEFCE}
  9
$EXTNAMES
290
     1
  9
$PSVPSCALE
 40
0.0
  9
$OLESTARTUP
290
     0
  9
$SORTENTS
280
   127
  9
$INDEXCTL
280
     0
  9
$HIDETEXT
280
     1
  9
$XCLIPFRAME
290
     0
  9
$HALOGAP
280
     0
  9
$OBSCOLOR
 70
   257
  9
$OBSLTYPE
280
     0
  9
$INTERSECTIONDISPLAY
280
     0
  9
$INTERSECTIONCOLOR
 70
   257
  9
$DIMASSOC
280
     1
  9
$PROJECTNAME
  1

  0
ENDSEC
  0
SECTION
  2
CLASSES
  0
CLASS
  1
ACDBDICTIONARYWDFLT
  2
AcDbDictionaryWithDefault
  3
ObjectDBX Classes
 90
        0
 91
        1
280
     0
281
     0
  0
CLASS
  1
MATERIAL
  2
AcDbMaterial
  3
ObjectDBX Classes
 90
     1153
 91
        3
280
     0
281
     0
  0
CLASS
  1
VISUALSTYLE
  2
AcDbVisualStyle
  3
ObjectDBX Classes
 90
     4095
 91
       24
280
     0
281
     0
  0
CLASS
  1
SCALE
  2
AcDbScale
  3
ObjectDBX Classes
 90
     1153
 91
       17
280
     0
281
     0
  0
CLASS
  1
TABLESTYLE
  2
AcDbTableStyle
  3
ObjectDBX Classes
 90
     4095
 91
        1
280
     0
281
     0
  0
CLASS
  1
MLEADERSTYLE
  2
AcDbMLeaderStyle
  3
ACDB_MLEADERSTYLE_CLASS
 90
     4095
 91
        1
280
     0
281
     0
  0
CLASS
  1
DICTIONARYVAR
  2
AcDbDictionaryVar
  3
ObjectDBX Classes
 90
        0
 91
        9
280
     0
281
     0
  0
CLASS
  1
CELLSTYLEMAP
  2
AcDbCellStyleMap
  3
ObjectDBX Classes
 90
     1152
 91
        2
280
     0
281
     0
  0
CLASS
  1
AMGSETTINGSOBJ
  2
AmgSettingsObj
  3
"AcadM|Product Description: AutoCAD Mechanical|Company: Autodesk, Inc."
 90
     1024
 91
        2
280
     0
281
     0
  0
CLASS
  1
AMGOBJPROPCFG
  2
AmgObjPropCfg
  3
"AmgLay|Product Description: AutoCAD Mechanical|Company: Autodesk, Inc."
 90
     1025
 91
        2
280
     0
281
     0
  0
CLASS
  1
ACMESCOPE
  2
AcMeScope
  3
AcMeServices
 90
     1024
 91
        1
280
     0
281
     0
  0
CLASS
  1
ACGREFMASTER
  2
AcGrefMaster
  3
AcAttribServices
 90
     1024
 91
        1
280
     0
281
     0
  0
CLASS
  1
ACME_DOCUMENT
  2
AcMeDbDoc
  3
AcMeServices
 90
     1024
 91
        1
280
     0
281
     0
  0
CLASS
  1
ACMECOMMANDHISTORY
  2
AcMeCommandHistory
  3
AcMeServices
 90
     1024
 91
        1
280
     0
281
     0
  0
CLASS
  1
ACIMSYSVARMAN
  2
AcImSysVarManager
  3
AcMeServices
 90
     1024
 91
        4
280
     0
281
     0
  0
CLASS
  1
ACIMINTSYSVAR
  2
AcImIntSysVar
  3
AcMeServices
 90
     1024
 91
       27
280
     0
281
     0
  0
CLASS
  1
ACMESTATEMGR
  2
AcMeStateMgr
  3
AcMeServices
 90
     1024
 91
        1
280
     0
281
     0
  0
CLASS
  1
ACDBENTITYCACHE
  2
AcMeEntityCache
  3
AcMeServices
 90
     1024
 91
        1
280
     0
281
     0
  0
CLASS
  1
AM_DRAWING_MGR
  2
AcDmDwgMgr
  3
AcMechDwgViewMgmt
 90
     1024
 91
        1
280
     0
281
     0
  0
CLASS
  1
AM_DWG_DOCUMENT
  2
AcDmDwgDocument
  3
AcMechDwgViewMgmt
 90
     1024
 91
        1
280
     0
281
     0
  0
CLASS
  1
AM_DWG_SHEET
  2
AcDmSheet
  3
AcMechDwgViewMgmt
 90
     1024
 91
        2
280
     0
281
     0
  0
CLASS
  1
AM_VIEWDIMPARMAP
  2
AcDmViewDimParMap
  3
AcMechDwgViewMgmt
 90
     1024
 91
        2
280
     0
281
     0
  0
CLASS
  1
AMDTINTERNALREACTOR
  2
AmdtInternalReactor
  3
AcMeServices
 90
     1024
 91
        1
280
     0
281
     0
  0
CLASS
  1
ACIMREALSYSVAR
  2
AcImRealSysVar
  3
AcMeServices
 90
     1024
 91
        1
280
     0
281
     0
  0
CLASS
  1
AM_DWGMGR_NAME
  2
AcDmDwgMgrName
  3
AcMechDwgViewMgmt
 90
     1024
 91
        1
280
     0
281
     0
  0
CLASS
  1
ACME_DATABASE
  2
AcMeDbDatabase
  3
AcMeServices
 90
     1024
 91
        1
280
     0
281
     0
  0
CLASS
  1
ACRFINSADJUSTERMGR
  2
AcRfInsAdjusterMgr
  3
AcMeServices
 90
     1024
 91
        1
280
     0
281
     0
  0
CLASS
  1
ACGREFACADMASTER
  2
AcGrefacadMaster
  3
AcGrefServices
 90
     1024
 91
        1
280
     0
281
     0
  0
CLASS
  1
AMDTMENUSTATEMGR
  2
AmdtMenuStateMgr
  3
McadcomServices
 90
     1024
 91
        1
280
     0
281
     0
  0
CLASS
  1
AMDTMCOMMENUSTATE
  2
AmdtMcomMenuState
  3
McadcomServices
 90
     1024
 91
        1
280
     0
281
     0
  0
CLASS
  1
AMIMASTER
  2
AmiMaster
  3
AmiServices
 90
     1024
 91
        1
280
     0
281
     0
  0
CLASS
  1
MAPIAMMOUDLE
  2
MApiAmModule
  3
MApiAmServices
 90
     1024
 91
        1
280
     0
281
     0
  0
CLASS
  1
ACMSTANDARDANSI
  2
AcmStandardANSI
  3
"Amdt_StdImp|Product Description: AutoCAD Mechanical|Company: Autodesk, Inc."
 90
     1024
 91
        1
280
     0
281
     0
  0
CLASS
  1
ACMSURFSTANDARDANSI
  2
AcmSurfTextStdANSI
  3
"Amdt_StdImp|Product Description: AutoCAD Mechanical|Company: Autodesk, Inc."
 90
     1024
 91
        1
280
     0
281
     0
  0
CLASS
  1
ACMFCFSTANDARDANSI
  2
AcmFCFStdANSI
  3
"Amdt_StdImp|Product Description: AutoCAD Mechanical|Company: Autodesk, Inc."
 90
     1024
 91
        1
280
     0
281
     0
  0
CLASS
  1
ACMWELDSTANDARDANSI
  2
AcmWeldingStdANSI
  3
"Amdt_StdImp|Product Description: AutoCAD Mechanical|Company: Autodesk, Inc."
 90
     1024
 91
        1
280
     0
281
     0
  0
CLASS
  1
ACMIDSTANDARDANSI
  2
AcmIdStdANSI
  3
"Amdt_StdImp|Product Description: AutoCAD Mechanical|Company: Autodesk, Inc."
 90
     1024
 91
        1
280
     0
281
     0
  0
CLASS
  1
ACMDATUMSTANDARDANSI
  2
AcmDatumStdANSI
  3
"Amdt_StdImp|Product Description: AutoCAD Mechanical|Company: Autodesk, Inc."
 90
     1024
 91
        1
280
     0
281
     0
  0
CLASS
  1
ACMBOMSTANDARDANSI
  2
AcmBOMStdANSI
  3
"Amdt_StdImp|Product Description: AutoCAD Mechanical|Company: Autodesk, Inc."
 90
     1024
 91
        1
280
     0
281
     0
  0
CLASS
  1
ACMDETAILSTANDARDANSI
  2
AmdtDetailSymStdANSI
  3
"Amdt_StdImp|Product Description: AutoCAD Mechanical|Company: Autodesk, Inc."
 90
     1024
 91
        1
280
     0
281
     0
  0
CLASS
  1
ACMSECTIONSTANDARDANSI
  2
AmdtSectionSymStdANSI
  3
"Amdt_StdImp|Product Description: AutoCAD Mechanical|Company: Autodesk, Inc."
 90
     1024
 91
        1
280
     0
281
     0
  0
CLASS
  1
ACMCENTERLINESTANDARDANSI
  2
AmdtCenterLineStdANSI
  3
"Amdt_StdImp|Product Description: AutoCAD Mechanical|Company: Autodesk, Inc."
 90
     1024
 91
        1
280
     0
281
     0
  0
CLASS
  1
ACMNOTESTANDARDANSI
  2
AmdtNoteStdANSI
  3
"Amdt_StdImp|Product Description: AutoCAD Mechanical|Company: Autodesk, Inc."
 90
     1024
 91
        1
280
     0
281
     0
  0
CLASS
  1
ACAMGLAYSTD
  2
AcAmgLayStd
  3
"AmgLay|Product Description: AutoCAD Mechanical|Company: Autodesk, Inc."
 90
     1024
 91
        2
280
     0
281
     0
  0
CLASS
  1
ACAMGDIMSTD
  2
AcAmgDimStd
  3
"AmgDim|Product Description: AutoCAD Mechanical|Company: Autodesk, Inc."
 90
     1024
 91
        2
280
     0
281
     0
  0
CLASS
  1
ACAMGHOLECHARTSTDANSI
  2
AcAmgHoleChartStdANSI
  3
AmgDim|Product Description: AutoCAD Mechanical|Company: Autodesk, Inc.
 90
     1024
 91
        1
280
     0
281
     0
  0
CLASS
  1
ACAMGTITLESTD
  2
AcAmgTitleStd
  3
"AmgTitle|Product Description: AutoCAD Mechanical|Company: Autodesk, Inc."
 90
     4095
 91
        2
280
     0
281
     0
  0
CLASS
  1
ACMTHREADLINESTANDARDANSI
  2
AmdtThreadLineStdANSI
  3
"Amdt_StdImp|Product Description: AutoCAD Mechanical|Company: Autodesk, Inc."
 90
     1024
 91
        1
280
     0
281
     0
  0
CLASS
  1
ACMTAPERSTANDARDANSI
  2
AcmTaperStdANSI
  3
"Amdt_StdImp|Product Description: AutoCAD Mechanical|Company: Autodesk, Inc."
 90
     1024
 91
        1
280
     0
281
     0
  0
CLASS
  1
ACMANOOTATIONVIEWSTANDARDANSI
  2
AmdtAnViewStdANSI
  3
"Amdt_StdImp|Product Description: AutoCAD Mechanical|Company: Autodesk, Inc."
 90
     1024
 91
        1
280
     0
281
     0
  0
CLASS
  1
ACMSTANDARDJIS
  2
AcmStandardJIS
  3
"Amdt_StdImp|Product Description: AutoCAD Mechanical|Company: Autodesk, Inc."
 90
     1024
 91
        1
280
     0
281
     0
  0
CLASS
  1
ACMSURFSTANDARDJIS
  2
AcmSurfTextStdJIS
  3
"Amdt_StdImp|Product Description: AutoCAD Mechanical|Company: Autodesk, Inc."
 90
     1024
 91
        1
280
     0
281
     0
  0
CLASS
  1
ACMFCFSTANDARDJIS98
  2
AcmFCFStdJIS98
  3
"Amdt_StdImp|Product Description: AutoCAD Mechanical|Company: Autodesk, Inc."
 90
     1024
 91
        1
280
     0
281
     0
  0
CLASS
  1
ACMWELDSTANDARDJIS
  2
AcmWeldingStdJIS
  3
"Amdt_StdImp|Product Description: AutoCAD Mechanical|Company: Autodesk, Inc."
 90
     1024
 91
        1
280
     0
281
     0
  0
CLASS
  1
ACMIDSTANDARDJIS
  2
AcmIdStdJIS
  3
"Amdt_StdImp|Product Description: AutoCAD Mechanical|Company: Autodesk, Inc."
 90
     1024
 91
        1
280
     0
281
     0
  0
CLASS
  1
ACMDATUMSTANDARDJIS
  2
AcmDatumStdJIS
  3
"Amdt_StdImp|Product Description: AutoCAD Mechanical|Company: Autodesk, Inc."
 90
     1024
 91
        1
280
     0
281
     0
  0
CLASS
  1
ACMBOMSTANDARDJIS
  2
AcmBOMStdJIS
  3
"Amdt_StdImp|Product Description: AutoCAD Mechanical|Company: Autodesk, Inc."
 90
     1024
 91
        1
280
     0
281
     0
  0
CLASS
  1
ACMDETAILSTANDARDJIS
  2
AmdtDetailSymStdJIS
  3
"Amdt_StdImp|Product Description: AutoCAD Mechanical|Company: Autodesk, Inc."
 90
     1024
 91
        1
280
     0
281
     0
  0
CLASS
  1
ACMSECTIONSTANDARDJIS
  2
AmdtSectionSymStdJIS
  3
"Amdt_StdImp|Product Description: AutoCAD Mechanical|Company: Autodesk, Inc."
 90
     1024
 91
        1
280
     0
281
     0
  0
CLASS
  1
ACMCENTERLINESTANDARDJIS
  2
AmdtCenterLineStdJIS
  3
"Amdt_StdImp|Product Description: AutoCAD Mechanical|Company: Autodesk, Inc."
 90
     1024
 91
        1
280
     0
281
     0
  0
CLASS
  1
ACMNOTESTANDARDJIS
  2
AmdtNoteStdJIS
  3
"Amdt_StdImp|Product Description: AutoCAD Mechanical|Company: Autodesk, Inc."
 90
     1024
 91
        1
280
     0
281
     0
  0
CLASS
  1
AMDTNOTETEMPLATEDB
  2
AmdtNoteTemplateDB
  3
AcmSymBB|Product Description: AutoCAD Mechanical|Company: Autodesk, Inc.
 90
     1024
 91
        8
280
     0
281
     0
  0
CLASS
  1
ACAMGHOLECHARTSTDJIS
  2
AcAmgHoleChartStdJIS
  3
AmgDim|Product Description: AutoCAD Mechanical|Company: Autodesk, Inc.
 90
     1024
 91
        1
280
     0
281
     0
  0
CLASS
  1
ACMTHREADLINESTANDARDJIS
  2
AmdtThreadLineStdJIS
  3
"Amdt_StdImp|Product Description: AutoCAD Mechanical|Company: Autodesk, Inc."
 90
     1024
 91
        1
280
     0
281
     0
  0
CLASS
  1
ACMTAPERSTANDARDJIS
  2
AcmTaperStdJIS
  3
"Amdt_StdImp|Product Description: AutoCAD Mechanical|Company: Autodesk, Inc."
 90
     1024
 91
        1
280
     0
281
     0
  0
CLASS
  1
ACMANOOTATIONVIEWSTANDARDJIS
  2
AmdtAnViewStdJIS
  3
"Amdt_StdImp|Product Description: AutoCAD Mechanical|Company: Autodesk, Inc."
 90
     1024
 91
        1
280
     0
281
     0
  0
CLASS
  1
AMDTEDGESTANDARDJIS
  2
AmdtEdgeStdJIS
  3
"Amdt_StdImp|Product Description: AutoCAD Mechanical|Company: Autodesk, Inc."
 90
     1024
 91
        1
280
     0
281
     0
  0
CLASS
  1
ACIMSTRSYSVAR
  2
AcImStrSysVar
  3
AcMeServices
 90
     1024
 91
        5
280
     0
281
     0
  0
CLASS
  1
AMDTDMMENUSTATE
  2
AmdtDmMenuState
  3
AcMechDwgViewMgmt
 90
     1024
 91
        1
280
     0
281
     0
  0
CLASS
  1
AMDTAMMENUSTATE
  2
AmdtAmMenuState
  3
DesignerAssemblies
 90
     1024
 91
        1
280
     0
281
     0
  0
CLASS
  1
ACAMPROJECT
  2
AcAmProject
  3
DesignerAssemblies
 90
     1024
 91
        1
280
     0
281
     0
  0
CLASS
  1
ACAMGRCOMPDEF
  2
AcAmGrCompDef
  3
DesignerAssemblies
 90
     1024
 91
        1
280
     0
281
     0
  0
CLASS
  1
ACAMCOMPDEF
  2
AcAmCompDef
  3
DesignerAssemblies
 90
     1024
 91
        1
280
     0
281
     0
  0
CLASS
  1
ACAMCOMPDEFMGR
  2
AcAmCompDefMgr
  3
DesignerAssemblies
 90
     1024
 91
        1
280
     0
281
     0
  0
CLASS
  1
AMCONTEXTMGR
  2
AcAmContextMgr
  3
DesignerAssemblies
 90
     1024
 91
        1
280
     0
281
     0
  0
CLASS
  1
ACAMCONTEXTMODELER
  2
AcAmContextModeler
  3
DesignerAssemblies
 90
     1024
 91
        1
280
     0
281
     0
  0
CLASS
  1
ACMDATADICTIONARY
  2
AcmDataDictionary
  3
"AcmSymBB|Product Description: AutoCAD Mechanical|Company: Autodesk, Inc."
 90
     1024
 91
        1
280
     0
281
     0
  0
CLASS
  1
ACAMGRCOMPDEFSET
  2
AcAmGrCompDefSet
  3
DesignerAssemblies
 90
     1024
 91
        1
280
     0
281
     0
  0
CLASS
  1
AMDTBROWSERDBTAB
  2
AmdtBrowserDbTab
  3
McadcomServices
 90
     1024
 91
        1
280
     0
281
     0
  0
CLASS
  1
CBROWSERAPPOBJECT
  2
CBrowserAppObject
  3
McadcomServices
 90
     1024
 91
        2
280
     0
281
     0
  0
CLASS
  1
DM_PLACEHOLDER
  2
AcDmSelsetPlaceholder
  3
AcMechDwgViewMgmt
 90
     1024
 91
        1
280
     0
281
     0
  0
CLASS
  1
ACAMGFILTERDAT
  2
AcAmgFilterDat
  3
"AcadM|Product Description: AutoCAD Mechanical|Company: Autodesk, Inc."
 90
     1024
 91
        0
280
     0
281
     0
  0
ENDSEC
  0
SECTION
  2
TABLES
  0
TABLE
  2
VPORT
  5
8
330
0
100
AcDbSymbolTable
 70
     1
  0
VPORT
  5
57
330
8
100
AcDbSymbolTableRecord
100
AcDbViewportTableRecord
  2
*Active
 70
     0
 10
0.0
 20
0.0
 11
1.0
 21
1.0
 12
168.5838327167834
 22
105.0054709167516
 13
0.0
 23
0.0
 14
1.0
 24
1.0
 15
0.0
 25
0.0
 16
0.0
 26
0.0
 36
1.0
 17
0.0
 27
0.0
 37
0.0
 40
127.9417175579091
 41
1.623225806451612
 42
50.0
 43
0.0
 44
0.0
 50
0.0
 51
0.0
 71
     0
 72
   100
 73
     1
 74
     1
 75
     0
 76
     0
 77
     0
 78
     0
281
     0
 65
     1
110
0.0
120
0.0
130
0.0
111
1.0
121
0.0
131
0.0
112
0.0
122
1.0
132
0.0
 79
     0
146
0.0
  0
ENDTAB
  0
TABLE
  2
LTYPE
  5
5
330
0
100
AcDbSymbolTable
 70
    69
  0
LTYPE
  5
5B
330
5
100
AcDbSymbolTableRecord
100
AcDbLinetypeTableRecord
  2
ByBlock
 70
     0
  3

 72
    65
 73
     0
 40
0.0
  0
LTYPE
  5
5C
330
5
100
AcDbSymbolTableRecord
100
AcDbLinetypeTableRecord
  2
ByLayer
 70
     0
  3

 72
    65
 73
     0
 40
0.0
  0
LTYPE
  5
5D
330
5
100
AcDbSymbolTableRecord
100
AcDbLinetypeTableRecord
  2
Continuous
 70
     0
  3
Solid line
 72
    65
 73
     0
 40
0.0
  0
LTYPE
  5
74
330
5
100
AcDbSymbolTableRecord
100
AcDbLinetypeTableRecord
  2
CHAIN
 70
     0
  3
Chain ____ _ ____ _ ____ _ ____ _ ____ _ ____
 72
    65
 73
     4
 40
0.3543
 49
0.2362
 74
     0
 49
-0.0295
 74
     0
 49
0.0591
 74
     0
 49
-0.0295
 74
     0
  0
LTYPE
  5
75
330
5
100
AcDbSymbolTableRecord
100
AcDbLinetypeTableRecord
  2
DASH_DOT
 70
     0
  3
Dash dot __ . __ . __ . __ . __ . __ . __ . __
 72
    65
 73
     4
 40
0.37
 49
0.24
 74
     0
 49
-0.06
 74
     0
 49
0.01
 74
     0
 49
-0.06
 74
     0
  0
LTYPE
  5
76
330
5
100
AcDbSymbolTableRecord
100
AcDbLinetypeTableRecord
  2
DASH_DOUBLE_DOT
 70
     0
  3
Dash Double-Dot __ . . __ . . __ . . __ . .
 72
    65
 73
     6
 40
0.4398000000000001
 49
0.24
 74
     0
 49
-0.06
 74
     0
 49
0.0098
 74
     0
 49
-0.06
 74
     0
 49
0.01
 74
     0
 49
-0.06
 74
     0
  0
LTYPE
  5
77
330
5
100
AcDbSymbolTableRecord
100
AcDbLinetypeTableRecord
  2
DASH_TRIPLE_DOT
 70
     0
  3
Dash Triple-Dot _ . . . _ . . . _ . . . _
 72
    65
 73
     8
 40
0.51
 49
0.24
 74
     0
 49
-0.06
 74
     0
 49
0.01
 74
     0
 49
-0.06
 74
     0
 49
0.01
 74
     0
 49
-0.06
 74
     0
 49
0.01
 74
     0
 49
-0.06
 74
     0
  0
LTYPE
  5
78
330
5
100
AcDbSymbolTableRecord
100
AcDbLinetypeTableRecord
  2
DASHED
 70
     0
  3
Dashed __ __ __ __ __ __ __ __ __ __ __ __ __ _
 72
    65
 73
     2
 40
0.2067
 49
0.1654
 74
     0
 49
-0.0413
 74
     0
  0
LTYPE
  5
79
330
5
100
AcDbSymbolTableRecord
100
AcDbLinetypeTableRecord
  2
DASHED_SPACE
 70
     0
  3
Dashed Space __ __ __ __ __ __ __ __ __ __ __ _
 72
    65
 73
     2
 40
0.0826
 49
0.0413
 74
     0
 49
-0.0413
 74
     0
  0
LTYPE
  5
7A
330
5
100
AcDbSymbolTableRecord
100
AcDbLinetypeTableRecord
  2
DOTTED
 70
     0
  3
Dotted . . . . . . . . . . . . . . . . . . . . 
 72
    65
 73
     2
 40
0.0482
 49
0.0069
 74
     0
 49
-0.0413
 74
     0
  0
LTYPE
  5
7B
330
5
100
AcDbSymbolTableRecord
100
AcDbLinetypeTableRecord
  2
DOUBLE_DASH_CHAIN
 70
     0
  3
Double Dash Chain ___ _ _ ___ _ _ ___ _ _ ___ _
 72
    65
 73
     6
 40
1.240299999999997
 49
0.6614
 74
     0
 49
-0.0827
 74
     0
 49
0.1654
 74
     0
 49
-0.0827
 74
     0
 49
0.1654
 74
     0
 49
-0.0827
 74
     0
  0
LTYPE
  5
7C
330
5
100
AcDbSymbolTableRecord
100
AcDbLinetypeTableRecord
  2
DOUBLE_DASH_DOT
 70
     0
  3
Double Dash Dot __ __ . __ __ . __ __ . __ _
 72
    65
 73
     6
 40
0.6700000000000001
 49
0.24
 74
     0
 49
-0.06
 74
     0
 49
0.24
 74
     0
 49
-0.06
 74
     0
 49
0.01
 74
     0
 49
-0.06
 74
     0
  0
LTYPE
  5
7D
330
5
100
AcDbSymbolTableRecord
100
AcDbLinetypeTableRecord
  2
DOUBLE_DASH_DOUBLE_DOT
 70
     0
  3
Double-dash double-dot _ _ . . _ _ . . _
 72
    65
 73
     8
 40
0.7400000000000003
 49
0.24
 74
     0
 49
-0.06
 74
     0
 49
0.24
 74
     0
 49
-0.06
 74
     0
 49
0.01
 74
     0
 49
-0.06
 74
     0
 49
0.01
 74
     0
 49
-0.06
 74
     0
  0
LTYPE
  5
7E
330
5
100
AcDbSymbolTableRecord
100
AcDbLinetypeTableRecord
  2
DOUBLE_DASH_TRIPLE_DOT
 70
     0
  3
Double Dash Triple Dot __ __ . . . __ __ . . .
 72
    65
 73
    10
 40
0.8100000000000001
 49
0.24
 74
     0
 49
-0.06
 74
     0
 49
0.24
 74
     0
 49
-0.06
 74
     0
 49
0.01
 74
     0
 49
-0.06
 74
     0
 49
0.01
 74
     0
 49
-0.06
 74
     0
 49
0.01
 74
     0
 49
-0.06
 74
     0
  0
LTYPE
  5
7F
330
5
100
AcDbSymbolTableRecord
100
AcDbLinetypeTableRecord
  2
LONG_DASH_DOTTED
 70
     0
  3
Long Dash Dotted ____ . ____ . ____ . ____ . _
 72
    65
 73
     4
 40
0.61
 49
0.48
 74
     0
 49
-0.06
 74
     0
 49
0.01
 74
     0
 49
-0.06
 74
     0
  0
LTYPE
  5
80
330
5
100
AcDbSymbolTableRecord
100
AcDbLinetypeTableRecord
  2
LONG_DASH_DOUBLE_DOT
 70
     0
  3
Long Dash Double Dot ____ . . ____ . . ____ . .
 72
    65
 73
     6
 40
0.3345
 49
0.2362
 74
     0
 49
-0.0295
 74
     0
 49
0.0049
 74
     0
 49
-0.0295
 74
     0
 49
0.0049
 74
     0
 49
-0.0295
 74
     0
  0
LTYPE
  5
81
330
5
100
AcDbSymbolTableRecord
100
AcDbLinetypeTableRecord
  2
LONG_DASH_TRIPLE_DOT
 70
     0
  3
Long Dash Triple Dot ____ ... ____ ... ____
 72
    65
 73
     8
 40
0.75
 49
0.48
 74
     0
 49
-0.06
 74
     0
 49
0.01
 74
     0
 49
-0.06
 74
     0
 49
0.01
 74
     0
 49
-0.06
 74
     0
 49
0.01
 74
     0
 49
-0.06
 74
     0
  0
LTYPE
  5
82
330
5
100
AcDbSymbolTableRecord
100
AcDbLinetypeTableRecord
  2
BORDER
 70
     0
  3
Border __ __ . __ __ . __ __ . __ __ . __ __ .
 72
    65
 73
     6
 40
44.45
 49
12.7
 74
     0
 49
-6.349999999999997
 74
     0
 49
12.7
 74
     0
 49
-6.349999999999997
 74
     0
 49
0.0
 74
     0
 49
-6.349999999999997
 74
     0
  0
LTYPE
  5
83
330
5
100
AcDbSymbolTableRecord
100
AcDbLinetypeTableRecord
  2
BORDER2
 70
     0
  3
Border (.5x) __.__.__.__.__.__.__.__.__.__.__.
 72
    65
 73
     6
 40
22.225
 49
6.349999999999997
 74
     0
 49
-3.174999999999998
 74
     0
 49
6.349999999999997
 74
     0
 49
-3.174999999999998
 74
     0
 49
0.0
 74
     0
 49
-3.174999999999998
 74
     0
  0
LTYPE
  5
84
330
5
100
AcDbSymbolTableRecord
100
AcDbLinetypeTableRecord
  2
BORDERX2
 70
     0
  3
Border (2x) ____  ____  .  ____  ____  .  ___
 72
    65
 73
     6
 40
88.9
 49
25.4
 74
     0
 49
-12.7
 74
     0
 49
25.4
 74
     0
 49
-12.7
 74
     0
 49
0.0
 74
     0
 49
-12.7
 74
     0
  0
LTYPE
  5
85
330
5
100
AcDbSymbolTableRecord
100
AcDbLinetypeTableRecord
  2
CENTER
 70
     0
  3
Center ____ _ ____ _ ____ _ ____ _ ____ _ ____
 72
    65
 73
     4
 40
2.0
 49
1.25
 74
     0
 49
-0.25
 74
     0
 49
0.25
 74
     0
 49
-0.25
 74
     0
  0
LTYPE
  5
86
330
5
100
AcDbSymbolTableRecord
100
AcDbLinetypeTableRecord
  2
CENTER2
 70
     0
  3
Center (.5x) ___ _ ___ _ ___ _ ___ _ ___ _ ___
 72
    65
 73
     4
 40
28.575
 49
19.05
 74
     0
 49
-3.174999999999998
 74
     0
 49
3.174999999999998
 74
     0
 49
-3.174999999999998
 74
     0
  0
LTYPE
  5
87
330
5
100
AcDbSymbolTableRecord
100
AcDbLinetypeTableRecord
  2
CENTERX2
 70
     0
  3
Center (2x) ________  __  ________  __  _____
 72
    65
 73
     4
 40
101.6
 49
63.5
 74
     0
 49
-12.7
 74
     0
 49
12.7
 74
     0
 49
-12.7
 74
     0
  0
LTYPE
  5
88
330
5
100
AcDbSymbolTableRecord
100
AcDbLinetypeTableRecord
  2
DASHDOT
 70
     0
  3
Dash dot __ . __ . __ . __ . __ . __ . __ . __
 72
    65
 73
     4
 40
25.4
 49
12.7
 74
     0
 49
-6.349999999999997
 74
     0
 49
0.0
 74
     0
 49
-6.349999999999997
 74
     0
  0
LTYPE
  5
89
330
5
100
AcDbSymbolTableRecord
100
AcDbLinetypeTableRecord
  2
DASHDOT2
 70
     0
  3
Dash dot (.5x) _._._._._._._._._._._._._._._.
 72
    65
 73
     4
 40
12.7
 49
6.349999999999997
 74
     0
 49
-3.174999999999998
 74
     0
 49
0.0
 74
     0
 49
-3.174999999999998
 74
     0
  0
LTYPE
  5
8A
330
5
100
AcDbSymbolTableRecord
100
AcDbLinetypeTableRecord
  2
DASHDOTX2
 70
     0
  3
Dash dot (2x) ____  .  ____  .  ____  .  ___
 72
    65
 73
     4
 40
50.8
 49
25.4
 74
     0
 49
-12.7
 74
     0
 49
0.0
 74
     0
 49
-12.7
 74
     0
  0
LTYPE
  5
8B
330
5
100
AcDbSymbolTableRecord
100
AcDbLinetypeTableRecord
  2
DASHED2
 70
     0
  3
Dashed (.5x) _ _ _ _ _ _ _ _ _ _ _ _ _ _ _ _ _
 72
    65
 73
     2
 40
9.524999999999996
 49
6.349999999999997
 74
     0
 49
-3.174999999999998
 74
     0
  0
LTYPE
  5
8C
330
5
100
AcDbSymbolTableRecord
100
AcDbLinetypeTableRecord
  2
DASHEDX2
 70
     0
  3
Dashed (2x) ____  ____  ____  ____  ____  ___
 72
    65
 73
     2
 40
38.1
 49
25.4
 74
     0
 49
-12.7
 74
     0
  0
LTYPE
  5
8D
330
5
100
AcDbSymbolTableRecord
100
AcDbLinetypeTableRecord
  2
DIVIDE
 70
     0
  3
Divide ____ . . ____ . . ____ . . ____ . . ____
 72
    65
 73
     6
 40
31.75
 49
12.7
 74
     0
 49
-6.349999999999997
 74
     0
 49
0.0
 74
     0
 49
-6.349999999999997
 74
     0
 49
0.0
 74
     0
 49
-6.349999999999997
 74
     0
  0
LTYPE
  5
8E
330
5
100
AcDbSymbolTableRecord
100
AcDbLinetypeTableRecord
  2
DIVIDE2
 70
     0
  3
Divide (.5x) __..__..__..__..__..__..__..__.._
 72
    65
 73
     6
 40
15.875
 49
6.349999999999997
 74
     0
 49
-3.174999999999998
 74
     0
 49
0.0
 74
     0
 49
-3.174999999999998
 74
     0
 49
0.0
 74
     0
 49
-3.174999999999998
 74
     0
  0
LTYPE
  5
8F
330
5
100
AcDbSymbolTableRecord
100
AcDbLinetypeTableRecord
  2
DIVIDEX2
 70
     0
  3
Divide (2x) ________  .  .  ________  .  .  _
 72
    65
 73
     6
 40
63.49999999999999
 49
25.4
 74
     0
 49
-12.7
 74
     0
 49
0.0
 74
     0
 49
-12.7
 74
     0
 49
0.0
 74
     0
 49
-12.7
 74
     0
  0
LTYPE
  5
90
330
5
100
AcDbSymbolTableRecord
100
AcDbLinetypeTableRecord
  2
DOT2
 70
     0
  3
Dot (.5x) .....................................
 72
    65
 73
     2
 40
3.174999999999998
 49
0.0
 74
     0
 49
-3.174999999999998
 74
     0
  0
LTYPE
  5
91
330
5
100
AcDbSymbolTableRecord
100
AcDbLinetypeTableRecord
  2
DOTX2
 70
     0
  3
Dot (2x) .  .  .  .  .  .  .  .  .  .  .  .  . 
 72
    65
 73
     2
 40
12.7
 49
0.0
 74
     0
 49
-12.7
 74
     0
  0
LTYPE
  5
92
330
5
100
AcDbSymbolTableRecord
100
AcDbLinetypeTableRecord
  2
HIDDEN
 70
     0
  3
Hidden __ __ __ __ __ __ __ __ __ __ __ __ __ _
 72
    65
 73
     2
 40
9.524999999999996
 49
6.349999999999997
 74
     0
 49
-3.174999999999998
 74
     0
  0
LTYPE
  5
93
330
5
100
AcDbSymbolTableRecord
100
AcDbLinetypeTableRecord
  2
HIDDEN2
 70
     0
  3
Hidden (.5x) _ _ _ _ _ _ _ _ _ _ _ _ _ _ _ _ _
 72
    65
 73
     2
 40
4.762499999999998
 49
3.174999999999998
 74
     0
 49
-1.587499999999999
 74
     0
  0
LTYPE
  5
94
330
5
100
AcDbSymbolTableRecord
100
AcDbLinetypeTableRecord
  2
HIDDENX2
 70
     0
  3
Hidden (2x) ____ ____ ____ ____ ____ ____ ____
 72
    65
 73
     2
 40
19.05
 49
12.7
 74
     0
 49
-6.349999999999997
 74
     0
  0
LTYPE
  5
95
330
5
100
AcDbSymbolTableRecord
100
AcDbLinetypeTableRecord
  2
PHANTOM
 70
     0
  3
Phantom ______  __  __  ______  __  __  ______
 72
    65
 73
     6
 40
63.5
 49
31.75
 74
     0
 49
-6.349999999999997
 74
     0
 49
6.349999999999997
 74
     0
 49
-6.349999999999997
 74
     0
 49
6.349999999999997
 74
     0
 49
-6.349999999999997
 74
     0
  0
LTYPE
  5
96
330
5
100
AcDbSymbolTableRecord
100
AcDbLinetypeTableRecord
  2
PHANTOM2
 70
     0
  3
Phantom (.5x) ___ _ _ ___ _ _ ___ _ _ ___ _ _
 72
    65
 73
     6
 40
1.25
 49
0.625
 74
     0
 49
-0.125
 74
     0
 49
0.125
 74
     0
 49
-0.125
 74
     0
 49
0.125
 74
     0
 49
-0.125
 74
     0
  0
LTYPE
  5
97
330
5
100
AcDbSymbolTableRecord
100
AcDbLinetypeTableRecord
  2
PHANTOMX2
 70
     0
  3
Phantom (2x) ____________    ____    ____   _
 72
    65
 73
     6
 40
127.0
 49
63.5
 74
     0
 49
-12.7
 74
     0
 49
12.7
 74
     0
 49
-12.7
 74
     0
 49
12.7
 74
     0
 49
-12.7
 74
     0
  0
LTYPE
  5
98
330
5
100
AcDbSymbolTableRecord
100
AcDbLinetypeTableRecord
  2
ACAD_ISO02W100
 70
     0
  3
ISO dash __ __ __ __ __ __ __ __ __ __ __ __ __
 72
    65
 73
     2
 40
15.0
 49
12.0
 74
     0
 49
-3.0
 74
     0
  0
LTYPE
  5
99
330
5
100
AcDbSymbolTableRecord
100
AcDbLinetypeTableRecord
  2
ACAD_ISO03W100
 70
     0
  3
ISO dash space __    __    __    __    __    __
 72
    65
 73
     2
 40
30.0
 49
12.0
 74
     0
 49
-18.0
 74
     0
  0
LTYPE
  5
9A
330
5
100
AcDbSymbolTableRecord
100
AcDbLinetypeTableRecord
  2
ACAD_ISO04W100
 70
     0
  3
ISO long-dash dot ____ . ____ . ____ . ____ . _
 72
    65
 73
     4
 40
30.0
 49
24.0
 74
     0
 49
-3.0
 74
     0
 49
0.0
 74
     0
 49
-3.0
 74
     0
  0
LTYPE
  5
9B
330
5
100
AcDbSymbolTableRecord
100
AcDbLinetypeTableRecord
  2
ACAD_ISO05W100
 70
     0
  3
ISO long-dash double-dot ____ .. ____ .. ____ .
 72
    65
 73
     6
 40
33.0
 49
24.0
 74
     0
 49
-3.0
 74
     0
 49
0.0
 74
     0
 49
-3.0
 74
     0
 49
0.0
 74
     0
 49
-3.0
 74
     0
  0
LTYPE
  5
9C
330
5
100
AcDbSymbolTableRecord
100
AcDbLinetypeTableRecord
  2
ACAD_ISO06W100
 70
     0
  3
ISO long-dash triple-dot ____ ... ____ ... ____
 72
    65
 73
     8
 40
36.0
 49
24.0
 74
     0
 49
-3.0
 74
     0
 49
0.0
 74
     0
 49
-3.0
 74
     0
 49
0.0
 74
     0
 49
-3.0
 74
     0
 49
0.0
 74
     0
 49
-3.0
 74
     0
  0
LTYPE
  5
9D
330
5
100
AcDbSymbolTableRecord
100
AcDbLinetypeTableRecord
  2
ACAD_ISO07W100
 70
     0
  3
ISO dot . . . . . . . . . . . . . . . . . . . .
 72
    65
 73
     2
 40
3.0
 49
0.0
 74
     0
 49
-3.0
 74
     0
  0
LTYPE
  5
9E
330
5
100
AcDbSymbolTableRecord
100
AcDbLinetypeTableRecord
  2
ACAD_ISO08W100
 70
     0
  3
ISO long-dash short-dash ____ __ ____ __ ____ _
 72
    65
 73
     4
 40
36.0
 49
24.0
 74
     0
 49
-3.0
 74
     0
 49
6.0
 74
     0
 49
-3.0
 74
     0
  0
LTYPE
  5
9F
330
5
100
AcDbSymbolTableRecord
100
AcDbLinetypeTableRecord
  2
ACAD_ISO09W100
 70
     0
  3
ISO long-dash double-short-dash ____ __ __ ____
 72
    65
 73
     6
 40
45.0
 49
24.0
 74
     0
 49
-3.0
 74
     0
 49
6.0
 74
     0
 49
-3.0
 74
     0
 49
6.0
 74
     0
 49
-3.0
 74
     0
  0
LTYPE
  5
A0
330
5
100
AcDbSymbolTableRecord
100
AcDbLinetypeTableRecord
  2
ACAD_ISO10W100
 70
     0
  3
ISO dash dot __ . __ . __ . __ . __ . __ . __ .
 72
    65
 73
     4
 40
18.0
 49
12.0
 74
     0
 49
-3.0
 74
     0
 49
0.0
 74
     0
 49
-3.0
 74
     0
  0
LTYPE
  5
A1
330
5
100
AcDbSymbolTableRecord
100
AcDbLinetypeTableRecord
  2
ACAD_ISO11W100
 70
     0
  3
ISO double-dash dot __ __ . __ __ . __ __ . __ 
 72
    65
 73
     6
 40
33.0
 49
12.0
 74
     0
 49
-3.0
 74
     0
 49
12.0
 74
     0
 49
-3.0
 74
     0
 49
0.0
 74
     0
 49
-3.0
 74
     0
  0
LTYPE
  5
A2
330
5
100
AcDbSymbolTableRecord
100
AcDbLinetypeTableRecord
  2
ACAD_ISO12W100
 70
     0
  3
ISO dash double-dot __ . . __ . . __ . . __ . .
 72
    65
 73
     6
 40
21.0
 49
12.0
 74
     0
 49
-3.0
 74
     0
 49
0.0
 74
     0
 49
-3.0
 74
     0
 49
0.0
 74
     0
 49
-3.0
 74
     0
  0
LTYPE
  5
A3
330
5
100
AcDbSymbolTableRecord
100
AcDbLinetypeTableRecord
  2
ACAD_ISO13W100
 70
     0
  3
ISO double-dash double-dot __ __ . . __ __ . . 
 72
    65
 73
     8
 40
36.0
 49
12.0
 74
     0
 49
-3.0
 74
     0
 49
12.0
 74
     0
 49
-3.0
 74
     0
 49
0.0
 74
     0
 49
-3.0
 74
     0
 49
0.0
 74
     0
 49
-3.0
 74
     0
  0
LTYPE
  5
A4
330
5
100
AcDbSymbolTableRecord
100
AcDbLinetypeTableRecord
  2
ACAD_ISO14W100
 70
     0
  3
ISO dash triple-dot __ . . . __ . . . __ . . . 
 72
    65
 73
     8
 40
24.0
 49
12.0
 74
     0
 49
-3.0
 74
     0
 49
0.0
 74
     0
 49
-3.0
 74
     0
 49
0.0
 74
     0
 49
-3.0
 74
     0
 49
0.0
 74
     0
 49
-3.0
 74
     0
  0
LTYPE
  5
A5
330
5
100
AcDbSymbolTableRecord
100
AcDbLinetypeTableRecord
  2
ACAD_ISO15W100
 70
     0
  3
ISO double-dash triple-dot __ __ . . . __ __ . 
 72
    65
 73
    10
 40
39.0
 49
12.0
 74
     0
 49
-3.0
 74
     0
 49
12.0
 74
     0
 49
-3.0
 74
     0
 49
0.0
 74
     0
 49
-3.0
 74
     0
 49
0.0
 74
     0
 49
-3.0
 74
     0
 49
0.0
 74
     0
 49
-3.0
 74
     0
  0
LTYPE
  5
A8
330
5
100
AcDbSymbolTableRecord
100
AcDbLinetypeTableRecord
  2
FENCELINE1
 70
     0
  3
Fenceline circle ----0-----0----0-----0----0---
 72
    65
 73
     4
 40
36.83
 49
6.349999999999997
 74
     0
 49
-2.54
 74
     4
 75
   133
340
A7
 46
2.54
 50
0.0
 44
-2.54
 45
0.0
 49
-2.54
 74
     0
 49
25.4
 74
     0
  0
LTYPE
  5
A9
330
5
100
AcDbSymbolTableRecord
100
AcDbLinetypeTableRecord
  2
FENCELINE2
 70
     0
  3
Fenceline square ----[]-----[]----[]-----[]----
 72
    65
 73
     4
 40
36.83
 49
6.349999999999997
 74
     0
 49
-2.54
 74
     4
 75
   132
340
A7
 46
2.54
 50
0.0
 44
-2.54
 45
0.0
 49
-2.54
 74
     0
 49
25.4
 74
     0
  0
LTYPE
  5
AA
330
5
100
AcDbSymbolTableRecord
100
AcDbLinetypeTableRecord
  2
TRACKS
 70
     0
  3
Tracks -|-|-|-|-|-|-|-|-|-|-|-|-|-|-|-|-|-|-|-|
 72
    65
 73
     2
 40
7.62
 49
3.81
 74
     4
 75
   130
340
A7
 46
6.349999999999997
 50
0.0
 44
0.0
 45
0.0
 49
3.81
 74
     0
  0
LTYPE
  5
AB
330
5
100
AcDbSymbolTableRecord
100
AcDbLinetypeTableRecord
  2
BATTING
 70
     0
  3
Batting SSSSSSSSSSSSSSSSSSSSSSSSSSSSSSSSSSSSSSS
 72
    65
 73
     4
 40
10.16254
 49
0.00254
 74
     0
 49
-2.54
 74
     4
 75
   134
340
A7
 46
2.54
 50
0.0
 44
-2.54
 45
0.0
 49
-5.08
 74
     4
 75
   134
340
A7
 46
2.54
 50
180.0
 44
2.54
 45
0.0
 49
-2.54
 74
     0
  0
LTYPE
  5
AC
330
5
100
AcDbSymbolTableRecord
100
AcDbLinetypeTableRecord
  2
HOT_WATER_SUPPLY
 70
     0
  3
Hot water supply ---- HW ---- HW ---- HW ----
 72
    65
 73
     3
 40
22.86
 49
12.7
 74
     0
 49
-5.08
 74
     2
 75
     0
340
55
 46
2.54
 50
0.0
 44
-2.54
 45
-1.27
  9
HW
 49
-5.08
 74
     0
  0
LTYPE
  5
AD
330
5
100
AcDbSymbolTableRecord
100
AcDbLinetypeTableRecord
  2
GAS_LINE
 70
     0
  3
Gas line ----GAS----GAS----GAS----GAS----GAS---
 72
    65
 73
     3
 40
24.13
 49
12.7
 74
     0
 49
-5.08
 74
     2
 75
     0
340
55
 46
2.54
 50
0.0
 44
-2.54
 45
-1.27
  9
GAS
 49
-6.349999999999997
 74
     0
  0
LTYPE
  5
AE
330
5
100
AcDbSymbolTableRecord
100
AcDbLinetypeTableRecord
  2
ZIGZAG
 70
     0
  3
Zig zag /\/\/\/\/\/\/\/\/\/\/\/\/\/\/\/\/\/\/\/
 72
    65
 73
     4
 40
20.32254
 49
0.00254
 74
     0
 49
-5.08
 74
     4
 75
   131
340
A7
 46
5.08
 50
0.0
 44
-5.08
 45
0.0
 49
-10.16
 74
     4
 75
   131
340
A7
 46
5.08
 50
180.0
 44
5.08
 45
0.0
 49
-5.08
 74
     0
  0
LTYPE
  5
620
330
5
100
AcDbSymbolTableRecord
100
AcDbLinetypeTableRecord
  2
AM_ISO02W050
 70
     0
  3
__ __ __ __ __ __ __ __ __ __ __ __ __ __ __
 72
    65
 73
     2
 40
7.5
 49
6.0
 74
     0
 49
-1.5
 74
     0
  0
LTYPE
  5
621
330
5
100
AcDbSymbolTableRecord
100
AcDbLinetypeTableRecord
  2
AM_ISO08W050
 70
     0
  3
____ . ____ . ____ . ____ . ____ . ____ . ____
 72
    65
 73
     4
 40
18.0
 49
12.0
 74
     0
 49
-1.5
 74
     0
 49
3.0
 74
     0
 49
-1.5
 74
     0
  0
LTYPE
  5
622
330
5
100
AcDbSymbolTableRecord
100
AcDbLinetypeTableRecord
  2
AM_ISO09W050
 70
     0
  3
_____ . . _____ . . _____ . . ____ .. ____
 72
    65
 73
     6
 40
22.5
 49
12.0
 74
     0
 49
-1.5
 74
     0
 49
3.0
 74
     0
 49
-1.5
 74
     0
 49
3.0
 74
     0
 49
-1.5
 74
     0
  0
LTYPE
  5
623
330
5
100
AcDbSymbolTableRecord
100
AcDbLinetypeTableRecord
  2
Amconstr
 70
     0
  3
_______________________
 72
    65
 73
     2
 40
9999.0
 49
9999.0
 74
     0
 49
0.0
 74
     0
  0
LTYPE
  5
624
330
5
100
AcDbSymbolTableRecord
100
AcDbLinetypeTableRecord
  2
AM_ISO08W050x2
 70
     0
  3
__ . __ . __ . __ . __ . __
 72
    65
 73
     4
 40
9.0
 49
6.0
 74
     0
 49
-0.75
 74
     0
 49
1.5
 74
     0
 49
-0.75
 74
     0
  0
LTYPE
  5
625
330
5
100
AcDbSymbolTableRecord
100
AcDbLinetypeTableRecord
  2
AM_ISO02W050x2
 70
     0
  3
 _ _ _ _ _ _ _ _ _ _ _ _
 72
    65
 73
     2
 40
3.75
 49
3.0
 74
     0
 49
-0.75
 74
     0
  0
LTYPE
  5
626
330
5
100
AcDbSymbolTableRecord
100
AcDbLinetypeTableRecord
  2
Amzigzag
 70
     0
  3
/\/-/\/-/\/-/\/-/\/-/\/
 72
    65
 73
     2
 40
11.0001
 49
0.0001
 74
     4
 75
   135
340
A7
 46
0.04
 50
0.0
 44
0.0
 45
0.0
 49
-11.0
 74
     0
  0
LTYPE
  5
665
330
5
100
AcDbSymbolTableRecord
100
AcDbLinetypeTableRecord
  2
ACANSTGB
 70
     0
  3
__ . . __ . .
 72
    65
 73
     6
 40
0.35433070866
 49
0.15748031496
 74
     0
 49
-0.03937007874
 74
     0
 49
0.03937007874
 74
     0
 49
-0.03937007874
 74
     0
 49
0.03937007874
 74
     0
 49
-0.03937007874
 74
     0
  0
LTYPE
  5
666
330
5
100
AcDbSymbolTableRecord
100
AcDbLinetypeTableRecord
  2
ACANSTGL
 70
     0
  3
_ _ _ _ _
 72
    65
 73
     2
 40
0.11811023622
 49
0.07874015748
 74
     0
 49
-0.03937007874
 74
     0
  0
LTYPE
  5
68E
330
5
100
AcDbSymbolTableRecord
100
AcDbLinetypeTableRecord
  2
ACJISTGB
 70
     0
  3
__ . . __ . .
 72
    65
 73
     6
 40
9.0
 49
4.0
 74
     0
 49
-1.0
 74
     0
 49
1.0
 74
     0
 49
-1.0
 74
     0
 49
1.0
 74
     0
 49
-1.0
 74
     0
  0
LTYPE
  5
68F
330
5
100
AcDbSymbolTableRecord
100
AcDbLinetypeTableRecord
  2
ACJISTGL
 70
     0
  3
_ _ _ _ _
 72
    65
 73
     2
 40
3.0
 49
2.0
 74
     0
 49
-1.0
 74
     0
  0
ENDTAB
  0
TABLE
  2
LAYER
  5
2
330
0
100
AcDbSymbolTable
 70
     4
  0
LAYER
  5
54
330
2
100
AcDbSymbolTableRecord
100
AcDbLayerTableRecord
  2
0
 70
     0
 62
     7
  6
Continuous
370
    25
390
F
  0
LAYER
  5
BF
330
2
100
AcDbSymbolTableRecord
100
AcDbLayerTableRecord
  2
Overlay (ISO)
 70
     0
 62
     7
  6
LONG_DASH_DOTTED
370
    18
390
F
  0
LAYER
  5
C6
330
2
100
AcDbSymbolTableRecord
100
AcDbLayerTableRecord
  2
Visible (ISO)
 70
     0
 62
     7
  6
Continuous
370
    35
390
F
  0
LAYER
  5
C7
330
2
100
AcDbSymbolTableRecord
100
AcDbLayerTableRecord
  2
Visible Narrow (ISO)
 70
     0
 62
     7
  6
Continuous
370
    35
390
F
  0
ENDTAB
  0
TABLE
  2
STYLE
  5
3
330
0
100
AcDbSymbolTable
 70
     7
  0
STYLE
  5
55
330
3
100
AcDbSymbolTableRecord
100
AcDbTextStyleTableRecord
  2
Standard
 70
     0
 40
0.0
 41
1.0
 50
0.0
 71
     0
 42
0.2
  3

  4

1001
ACAD
1000
MS PGothic
1071
      256
  0
STYLE
  5
5A
330
3
100
AcDbSymbolTableRecord
100
AcDbTextStyleTableRecord
  2
Annotative
 70
     0
 40
0.0
 41
1.0
 50
0.0
 71
     0
 42
0.2
  3
txt
  4

1001
AcadAnnotative
1000
AnnotativeData
1002
{
1070
     1
1070
     1
1002
}
  0
STYLE
  5
A7
330
3
100
AcDbSymbolTableRecord
100
AcDbTextStyleTableRecord
  2

 70
     1
 40
0.0
 41
1.0
 50
0.0
 71
     0
 42
0.2
  3
ltypeshp.shx
  4

  0
STYLE
  5
65E
330
3
100
AcDbSymbolTableRecord
100
AcDbTextStyleTableRecord
  2
ACANSTS
 70
     0
 40
1.0
 41
1.0
 50
0.0
 71
     0
 42
0.2
  3
romans.shx
  4

  0
STYLE
  5
661
330
3
100
AcDbSymbolTableRecord
100
AcDbTextStyleTableRecord
  2
ACANSGDT
 70
     0
 40
0.0
 41
1.0
 50
0.0
 71
     0
 42
0.2
  3
amgdtans.shx
  4

  0
STYLE
  5
687
330
3
100
AcDbSymbolTableRecord
100
AcDbTextStyleTableRecord
  2
ACJISTS
 70
     0
 40
1.0
 41
1.0
 50
0.0
 71
     0
 42
0.2
  3
isocp.shx
  4
extfont.shx
  0
STYLE
  5
68A
330
3
100
AcDbSymbolTableRecord
100
AcDbTextStyleTableRecord
  2
ACJISGDT
 70
     0
 40
0.0
 41
1.0
 50
0.0
 71
     0
 42
0.2
  3
amgdt.shx
  4

  0
ENDTAB
  0
TABLE
  2
VIEW
  5
6
330
0
100
AcDbSymbolTable
 70
     0
  0
ENDTAB
  0
TABLE
  2
UCS
  5
7
330
0
100
AcDbSymbolTable
 70
     0
  0
ENDTAB
  0
TABLE
  2
APPID
  5
9
330
0
100
AcDbSymbolTable
 70
    17
  0
APPID
  5
56
330
9
100
AcDbSymbolTableRecord
100
AcDbRegAppTableRecord
  2
ACAD
 70
     0
  0
APPID
  5
5E
330
9
100
AcDbSymbolTableRecord
100
AcDbRegAppTableRecord
  2
AcadAnnotative
 70
     0
  0
APPID
  5
60B
330
9
100
AcDbSymbolTableRecord
100
AcDbRegAppTableRecord
  2
ACAD_MLEADERVER
 70
     0
  0
APPID
  5
614
330
9
100
AcDbSymbolTableRecord
100
AcDbRegAppTableRecord
  2
MCAD_NO_VIS
 70
     0
  0
APPID
  5
615
330
9
100
AcDbSymbolTableRecord
100
AcDbRegAppTableRecord
  2
ACAD_TEMP_GRAPHIC
 70
     0
  0
APPID
  5
616
330
9
100
AcDbSymbolTableRecord
100
AcDbRegAppTableRecord
  2
ACATTRIBSERVICES
 70
     0
  0
APPID
  5
617
330
9
100
AcDbSymbolTableRecord
100
AcDbRegAppTableRecord
  2
AD_DRAW
 70
     0
  0
APPID
  5
618
330
9
100
AcDbSymbolTableRecord
100
AcDbRegAppTableRecord
  2
DESIGNERASSEMBLIES
 70
     0
  0
APPID
  5
619
330
9
100
AcDbSymbolTableRecord
100
AcDbRegAppTableRecord
  2
ACADM_DIM_EDIT
 70
     0
  0
APPID
  5
61A
330
9
100
AcDbSymbolTableRecord
100
AcDbRegAppTableRecord
  2
AMDT_DM_ADJ
 70
     0
  0
APPID
  5
61B
330
9
100
AcDbSymbolTableRecord
100
AcDbRegAppTableRecord
  2
ACAD_DSTYLE_DIMJAG
 70
     0
  0
APPID
  5
61C
330
9
100
AcDbSymbolTableRecord
100
AcDbRegAppTableRecord
  2
ACAD_DSTYLE_DIMBREAK
 70
     0
  0
APPID
  5
6D2
330
9
100
AcDbSymbolTableRecord
100
AcDbRegAppTableRecord
  2
ACAD_EXEMPT_FROM_CAD_STANDARDS
 70
     0
  0
APPID
  5
70A
330
9
100
AcDbSymbolTableRecord
100
AcDbRegAppTableRecord
  2
ACAD_DSTYLE_DIMARC_LENGTH_SYMBOL
 70
     0
  0
APPID
  5
70B
330
9
100
AcDbSymbolTableRecord
100
AcDbRegAppTableRecord
  2
ACAD_DSTYLE_DIM_LINETYPE
 70
     0
  0
APPID
  5
70C
330
9
100
AcDbSymbolTableRecord
100
AcDbRegAppTableRecord
  2
ACAD_DSTYLE_DIM_EXT1_LINETYPE
 70
     0
  0
APPID
  5
70D
330
9
100
AcDbSymbolTableRecord
100
AcDbRegAppTableRecord
  2
ACAD_DSTYLE_DIM_EXT2_LINETYPE
 70
     0
  0
ENDTAB
  0
TABLE
  2
DIMSTYLE
  5
A
330
0
100
AcDbSymbolTable
 70
    15
100
AcDbDimStyleTable
 71
     0
  0
DIMSTYLE
105
58
330
A
100
AcDbSymbolTableRecord
100
AcDbDimStyleTableRecord
  2
Standard
 70
     0
340
55
  0
DIMSTYLE
105
59
330
A
100
AcDbSymbolTableRecord
100
AcDbDimStyleTableRecord
  2
Annotative
 70
     0
340
55
1001
AcadAnnotative
1000
AnnotativeData
1002
{
1070
     1
1070
     1
1002
}
  0
DIMSTYLE
105
677
330
A
100
AcDbSymbolTableRecord
100
AcDbDimStyleTableRecord
  2
AM_ANSI
 70
     0
  4
mm
 40
0.5
 41
0.1
 42
0.05
 43
0.5
 44
0.1
 47
0.1
 48
0.1
 78
     7
 79
     2
140
0.12
141
0.0
146
0.71
147
0.06
176
   256
177
   256
178
     2
274
     4
284
     7
340
55
371
    -1
372
    -1
  0
DIMSTYLE
105
678
330
A
100
AcDbSymbolTableRecord
100
AcDbDimStyleTableRecord
  2
AM_ANSI$3
 70
     0
  4
mm
 40
0.5
 41
0.1
 42
0.05
 43
0.5
 44
0.1
 47
0.1
 48
0.1
 78
     7
 79
     2
140
0.12
141
0.0
146
0.71
147
0.06
176
   256
177
   256
178
     2
274
     4
284
     7
288
     1
289
     0
340
55
371
    -1
372
    -1
  0
DIMSTYLE
105
679
330
A
100
AcDbSymbolTableRecord
100
AcDbDimStyleTableRecord
  2
AM_ANSI$4
 70
     0
  4
mm
 40
0.5
 41
0.1
 42
0.05
 43
0.5
 44
0.1
 47
0.1
 48
0.1
 78
     7
 79
     2
140
0.12
141
0.0
146
0.71
147
0.06
176
   256
177
   256
178
     2
274
     4
284
     7
288
     1
289
     0
340
55
371
    -1
372
    -1
  0
DIMSTYLE
105
67A
330
A
100
AcDbSymbolTableRecord
100
AcDbDimStyleTableRecord
  2
AM_ANSI$7
 70
     0
  4
mm
 40
0.5
 41
0.1
 42
0.05
 43
0.5
 44
0.1
 47
0.1
 48
0.1
 78
     7
 79
     2
140
0.24
141
0.0
146
0.71
147
0.06
176
   256
177
   256
178
     2
274
     4
284
     7
340
55
371
    -1
372
    -1
  0
DIMSTYLE
105
67B
330
A
100
AcDbSymbolTableRecord
100
AcDbDimStyleTableRecord
  2
AM_ANSI$SF
 70
     0
  4
mm
 40
0.5
 41
0.1
 42
0.05
 43
0.5
 44
0.1
 47
0.1
 48
0.1
 75
     1
 76
     1
 78
     7
 79
     2
140
0.12
141
0.0
146
0.71
147
0.06
176
   256
177
   256
178
     2
274
     4
284
     7
340
55
371
    -1
372
    -1
  0
DIMSTYLE
105
67C
330
A
100
AcDbSymbolTableRecord
100
AcDbDimStyleTableRecord
  2
AM_ANSI$SH
 70
     0
  4
mm
 40
0.5
 41
0.1
 42
0.05
 43
0.5
 44
0.1
 47
0.1
 48
0.1
 75
     1
 76
     1
 78
     7
 79
     2
140
0.12
141
0.0
146
0.71
147
0.06
173
     1
176
   256
177
   256
178
     2
274
     4
284
     7
340
55
343
67D
371
    -1
372
    -1
  0
DIMSTYLE
105
6A0
330
A
100
AcDbSymbolTableRecord
100
AcDbDimStyleTableRecord
  2
AM_JIS
 70
     0
  4
"
 40
0.5
 41
2.5
 42
1.0
 43
10.0
 44
1.0
 47
0.1
 48
0.1
 73
     0
 74
     0
 77
     3
 78
     8
 79
     2
140
3.5
141
0.0
143
0.0393701
146
0.71
147
1.5
172
     1
176
   256
177
   256
178
     2
271
     2
272
     3
274
     4
283
     0
284
     8
340
55
341
6A1
342
6A1
343
6A1
344
6A1
371
    -1
372
    -1
1001
ACAD_DSTYLE_DIMJAG
1070
   388
1040
1.5
1001
ACAD_DSTYLE_DIMBREAK
1070
   391
1040
3.75
1001
ACAD_DSTYLE_DIMARC_LENGTH_SYMBOL
1070
   379
1070
     1
1001
ACAD_DSTYLE_DIM_LINETYPE
1070
   380
1005
5B
1001
ACAD_DSTYLE_DIM_EXT1_LINETYPE
1070
   381
1005
5B
1001
ACAD_DSTYLE_DIM_EXT2_LINETYPE
1070
   382
1005
5B
  0
DIMSTYLE
105
6A7
330
A
100
AcDbSymbolTableRecord
100
AcDbDimStyleTableRecord
  2
AM_JIS$3
 70
     0
  4
"
 40
0.5
 41
2.5
 42
1.0
 43
10.0
 44
1.0
 47
0.1
 48
0.1
 73
     0
 77
     3
 78
     8
 79
     2
140
3.5
141
0.0
143
0.0393701
146
0.71
147
1.5
172
     1
176
   256
177
   256
178
     2
271
     2
272
     3
274
     4
283
     0
284
     8
288
     1
289
     0
340
55
341
6A1
342
6A1
343
6A1
344
6A1
371
    -1
372
    -1
1001
ACAD_DSTYLE_DIMBREAK
1070
   391
1040
3.75
1001
ACAD_DSTYLE_DIMJAG
1070
   388
1040
1.5
1001
ACAD_DSTYLE_DIMARC_LENGTH_SYMBOL
1070
   379
1070
     1
1001
ACAD_DSTYLE_DIM_LINETYPE
1070
   380
1005
5B
1001
ACAD_DSTYLE_DIM_EXT1_LINETYPE
1070
   381
1005
5B
1001
ACAD_DSTYLE_DIM_EXT2_LINETYPE
1070
   382
1005
5B
  0
DIMSTYLE
105
6A8
330
A
100
AcDbSymbolTableRecord
100
AcDbDimStyleTableRecord
  2
AM_JIS$4
 70
     0
  4
"
 40
0.5
 41
2.5
 42
1.0
 43
10.0
 44
1.0
 47
0.1
 48
0.1
 73
     0
 74
     0
 77
     3
 78
     8
 79
     2
140
3.5
141
0.0
143
0.0393701
146
0.71
147
1.5
172
     1
176
   256
177
   256
178
     2
271
     2
272
     3
274
     4
283
     0
284
     8
340
55
341
6A1
342
6A1
343
6A1
344
6A1
371
    -1
372
    -1
1001
ACAD_DSTYLE_DIMBREAK
1070
   391
1040
3.75
1001
ACAD_DSTYLE_DIMJAG
1070
   388
1040
1.5
1001
ACAD_DSTYLE_DIMARC_LENGTH_SYMBOL
1070
   379
1070
     1
1001
ACAD_DSTYLE_DIM_LINETYPE
1070
   380
1005
5B
1001
ACAD_DSTYLE_DIM_EXT1_LINETYPE
1070
   381
1005
5B
1001
ACAD_DSTYLE_DIM_EXT2_LINETYPE
1070
   382
1005
5B
  0
DIMSTYLE
105
6A9
330
A
100
AcDbSymbolTableRecord
100
AcDbDimStyleTableRecord
  2
AM_JIS$6
 70
     0
  4
"
 40
0.5
 41
2.5
 42
1.0
 43
10.0
 44
1.0
 47
0.1
 48
0.1
 73
     0
 74
     0
 78
     8
 79
     2
140
3.5
141
0.0
143
0.0393701
146
0.71
147
1.5
172
     1
176
   256
177
   256
178
     2
271
     2
272
     3
274
     4
283
     0
284
     8
340
55
341
6A1
342
6A1
343
6A1
344
6A1
371
    -1
372
    -1
1001
ACAD_DSTYLE_DIMBREAK
1070
   391
1040
3.75
1001
ACAD_DSTYLE_DIMJAG
1070
   388
1040
1.5
1001
ACAD_DSTYLE_DIMARC_LENGTH_SYMBOL
1070
   379
1070
     1
1001
ACAD_DSTYLE_DIM_LINETYPE
1070
   380
1005
5B
1001
ACAD_DSTYLE_DIM_EXT1_LINETYPE
1070
   381
1005
5B
1001
ACAD_DSTYLE_DIM_EXT2_LINETYPE
1070
   382
1005
5B
  0
DIMSTYLE
105
6AA
330
A
100
AcDbSymbolTableRecord
100
AcDbDimStyleTableRecord
  2
AM_JIS$7
 70
     0
  4
"
 40
0.5
 41
2.5
 42
1.0
 43
10.0
 44
1.0
 47
0.1
 48
0.1
 73
     0
 74
     0
 77
     3
 78
     8
 79
     2
140
3.5
141
0.0
143
0.0393701
146
0.71
147
1.5
172
     1
176
   256
177
   256
178
     2
271
     2
272
     3
274
     4
283
     0
284
     8
340
55
341
6A1
342
6A1
343
6A1
344
6A1
371
    -1
372
    -1
1001
ACAD_DSTYLE_DIMBREAK
1070
   391
1040
3.75
1001
ACAD_DSTYLE_DIMJAG
1070
   388
1040
1.5
1001
ACAD_DSTYLE_DIMARC_LENGTH_SYMBOL
1070
   379
1070
     1
1001
ACAD_DSTYLE_DIM_LINETYPE
1070
   380
1005
5B
1001
ACAD_DSTYLE_DIM_EXT1_LINETYPE
1070
   381
1005
5B
1001
ACAD_DSTYLE_DIM_EXT2_LINETYPE
1070
   382
1005
5B
  0
DIMSTYLE
105
6AB
330
A
100
AcDbSymbolTableRecord
100
AcDbDimStyleTableRecord
  2
AM_JIS$SF
 70
     0
  4
"
 40
0.5
 41
2.5
 42
1.0
 43
10.0
 44
1.0
 47
0.1
 48
0.1
 73
     0
 74
     0
 75
     1
 76
     1
 77
     3
 78
     8
 79
     2
140
3.5
141
0.0
143
0.0393701
146
0.71
147
1.5
172
     1
176
   256
177
   256
178
     2
271
     2
272
     3
274
     4
283
     0
284
     8
340
55
341
6A1
342
6A1
343
6A1
344
6A1
371
    -1
372
    -1
1001
ACAD_DSTYLE_DIMBREAK
1070
   391
1040
3.75
1001
ACAD_DSTYLE_DIMJAG
1070
   388
1040
1.5
1001
ACAD_DSTYLE_DIMARC_LENGTH_SYMBOL
1070
   379
1070
     1
1001
ACAD_DSTYLE_DIM_LINETYPE
1070
   380
1005
5B
1001
ACAD_DSTYLE_DIM_EXT1_LINETYPE
1070
   381
1005
5B
1001
ACAD_DSTYLE_DIM_EXT2_LINETYPE
1070
   382
1005
5B
  0
DIMSTYLE
105
6AC
330
A
100
AcDbSymbolTableRecord
100
AcDbDimStyleTableRecord
  2
AM_JIS$SH
 70
     0
  4
"
 40
0.5
 41
2.5
 42
1.0
 43
10.0
 44
1.0
 47
0.1
 48
0.1
 73
     0
 74
     0
 75
     1
 76
     1
 77
     3
 78
     8
 79
     2
140
3.5
141
0.0
143
0.0393701
144
2.0
146
0.71
147
1.5
172
     1
173
     1
176
   256
177
   256
178
     2
271
     2
272
     3
274
     4
283
     0
284
     8
340
55
341
6A1
342
6A1
343
67D
344
6A1
371
    -1
372
    -1
1001
ACAD_DSTYLE_DIMBREAK
1070
   391
1040
3.75
1001
ACAD_DSTYLE_DIMJAG
1070
   388
1040
1.5
1001
ACAD_DSTYLE_DIMARC_LENGTH_SYMBOL
1070
   379
1070
     1
1001
ACAD_DSTYLE_DIM_LINETYPE
1070
   380
1005
5B
1001
ACAD_DSTYLE_DIM_EXT1_LINETYPE
1070
   381
1005
5B
1001
ACAD_DSTYLE_DIM_EXT2_LINETYPE
1070
   382
1005
5B
  0
ENDTAB
  0
TABLE
  2
BLOCK_RECORD
  5
1
330
0
100
AcDbSymbolTable
 70
     4
  0
BLOCK_RECORD
  5
6C
330
1
100
AcDbSymbolTableRecord
100
AcDbBlockTableRecord
  2
*Model_Space
340
6F
  0
BLOCK_RECORD
  5
68
330
1
100
AcDbSymbolTableRecord
100
AcDbBlockTableRecord
  2
*Paper_Space
340
6B
  0
BLOCK_RECORD
  5
70
330
1
100
AcDbSymbolTableRecord
100
AcDbBlockTableRecord
  2
*Paper_Space0
340
73
  0
BLOCK_RECORD
  5
67D
330
1
100
AcDbSymbolTableRecord
100
AcDbBlockTableRecord
  2
GENAXEH
340
0
  0
BLOCK_RECORD
  5
6A1
330
1
100
AcDbSymbolTableRecord
100
AcDbBlockTableRecord
  2
_Open30
340
0
  0
ENDTAB
  0
ENDSEC
  0
SECTION
  2
BLOCKS
  0
BLOCK
  5
6D
330
6C
100
AcDbEntity
  8
0
100
AcDbBlockBegin
  2
*Model_Space
 70
     0
 10
0.0
 20
0.0
 30
0.0
  3
*Model_Space
  1

  0
ENDBLK
  5
6E
330
6C
100
AcDbEntity
  8
0
100
AcDbBlockEnd
  0
BLOCK
  5
69
330
68
100
AcDbEntity
 67
     1
  8
0
100
AcDbBlockBegin
  2
*Paper_Space
 70
     0
 10
0.0
 20
0.0
 30
0.0
  3
*Paper_Space
  1

  0
ENDBLK
  5
6A
330
68
100
AcDbEntity
 67
     1
  8
0
100
AcDbBlockEnd
  0
BLOCK
  5
71
330
70
100
AcDbEntity
 67
     1
  8
0
100
AcDbBlockBegin
  2
*Paper_Space0
 70
     0
 10
0.0
 20
0.0
 30
0.0
  3
*Paper_Space0
  1

  0
ENDBLK
  5
72
330
70
100
AcDbEntity
 67
     1
  8
0
100
AcDbBlockEnd
  0
BLOCK
  5
773
330
67D
100
AcDbEntity
  8
0
100
AcDbBlockBegin
  2
GENAXEH
 70
     0
 10
0.0
 20
0.0
 30
0.0
  3
GENAXEH
  1

  0
LINE
  5
774
330
67D
100
AcDbEntity
  8
0
100
AcDbLine
 10
-1.0
 20
0.0
 30
0.0
 11
1.0
 21
0.0
 31
0.0
  0
ENDBLK
  5
775
330
67D
100
AcDbEntity
  8
0
100
AcDbBlockEnd
  0
BLOCK
  5
797
330
6A1
100
AcDbEntity
  8
0
100
AcDbBlockBegin
  2
_Open30
 70
     0
 10
0.0
 20
0.0
 30
0.0
  3
_Open30
  1

  0
LINE
  5
798
330
6A1
100
AcDbEntity
  8
0
  6
ByBlock
 62
     0
370
    -2
100
AcDbLine
 10
-1.0
 20
0.26794919
 30
0.0
 11
0.0
 21
0.0
 31
0.0
  0
LINE
  5
799
330
6A1
100
AcDbEntity
  8
0
  6
ByBlock
 62
     0
370
    -2
100
AcDbLine
 10
0.0
 20
0.0
 30
0.0
 11
-1.0
 21
-0.26794919
 31
0.0
  0
LINE
  5
79A
330
6A1
100
AcDbEntity
  8
0
  6
ByBlock
 62
     0
370
    -2
100
AcDbLine
 10
0.0
 20
0.0
 30
0.0
 11
-1.0
 21
0.0
 31
0.0
  0
ENDBLK
  5
79B
330
6A1
100
AcDbEntity
  8
0
100
AcDbBlockEnd
  0
ENDSEC
  0
SECTION
  2
ENTITIES
  0
LINE
  5
CC
330
6C
100
AcDbEntity
  8
Visible (ISO)
100
AcDbLine
 10
143.2036062212586
 20
44.85109272422904
 30
0.0
 11
143.2036062212586
 21
57.85109272422904
 31
0.0
  0
LINE
  5
CD
330
6C
100
AcDbEntity
  8
Visible (ISO)
100
AcDbLine
 10
143.7036062212586
 20
57.35109272422904
 30
0.0
 11
143.7036062212586
 21
45.35109272422904
 31
0.0
  0
LINE
  5
CE
330
6C
100
AcDbEntity
  8
Visible (ISO)
100
AcDbLine
 10
143.7036062212586
 20
45.35109272422904
 30
0.0
 11
143.2036062212586
 21
44.85109272422904
 31
0.0
  0
LINE
  5
CF
330
6C
100
AcDbEntity
  8
Visible (ISO)
100
AcDbLine
 10
143.7036062212586
 20
57.35109272422904
 30
0.0
 11
143.2036062212586
 21
57.85109272422904
 31
0.0
  0
SPLINE
  5
D0
330
6C
100
AcDbEntity
  8
Visible (ISO)
100
AcDbSpline
210
0.0
220
0.0
230
1.0
 70
    12
 71
     2
 72
     6
 73
     3
 74
     0
 42
0.0000000001
 43
0.0000000001
 40
0.4256073096284686
 40
0.4256073096284686
 40
0.4256073096284686
 40
0.8365524254088846
 40
0.8365524254088846
 40
0.8365524254088846
 10
130.2705935193663
 20
47.70246284439743
 30
0.0
 41
1.045691116018826
 10
130.7036062212586
 20
49.60386151416884
 30
0.0
 41
1.044904085362813
 10
130.7036062212586
 20
51.35109272422905
 30
0.0
 41
1.0
  0
LINE
  5
D1
330
6C
100
AcDbEntity
  8
Visible (ISO)
100
AcDbLine
 10
130.2705935193663
 20
47.70246284439743
 30
0.0
 11
130.2705935193663
 21
45.81419173197711
 31
0.0
  0
LINE
  5
D2
330
6C
100
AcDbEntity
  8
Visible (ISO)
100
AcDbLine
 10
130.7036062212586
 20
43.98987679206132
 30
0.0
 11
130.7036062212586
 21
51.35109272422905
 31
0.0
  0
LINE
  5
D3
330
6C
100
AcDbEntity
  8
Visible (ISO)
100
AcDbLine
 10
130.2705935193663
 20
56.88799371648094
 30
0.0
 11
130.2705935193663
 21
54.99972260406067
 31
0.0
  0
SPLINE
  5
D4
330
6C
100
AcDbEntity
  8
Visible (ISO)
100
AcDbSpline
210
0.0
220
0.0
230
1.0
 70
    12
 71
     2
 72
     6
 73
     3
 74
     0
 42
0.0000000001
 43
0.0000000001
 40
0.8365524254088846
 40
0.8365524254088846
 40
0.8365524254088846
 40
1.2474975411893
 40
1.2474975411893
 40
1.2474975411893
 10
130.7036062212586
 20
51.35109272422905
 30
0.0
 41
1.0
 10
130.7036062212586
 20
53.09832393428925
 30
0.0
 41
1.044904085362809
 10
130.2705935193663
 20
54.99972260406067
 30
0.0
 41
1.045691116018822
  0
LINE
  5
D5
330
6C
100
AcDbEntity
  8
Visible (ISO)
100
AcDbLine
 10
130.7036062212586
 20
51.35109272422905
 30
0.0
 11
130.7036062212586
 21
58.71230865639677
 31
0.0
  0
LINE
  5
D6
330
6C
100
AcDbEntity
  8
Visible (ISO)
100
AcDbLine
 10
130.7036062212586
 20
58.71230865639677
 30
0.0
 11
130.7036062212586
 21
59.85109272422904
 31
0.0
  0
LINE
  5
D7
330
6C
100
AcDbEntity
  8
Visible (ISO)
100
AcDbLine
 10
130.7036062212586
 20
42.85109272422906
 30
0.0
 11
130.7036062212586
 21
43.98987679206132
 31
0.0
  0
LINE
  5
D8
330
6C
100
AcDbEntity
  8
Visible (ISO)
100
AcDbLine
 10
130.7036062212586
 20
59.85109272422904
 30
0.0
 11
130.2705935193663
 21
60.60109272422905
 31
0.0
  0
LINE
  5
D9
330
6C
100
AcDbEntity
  8
Visible (ISO)
100
AcDbLine
 10
130.7036062212586
 20
42.85109272422904
 30
0.0
 11
130.2705935193663
 21
42.10109272422903
 31
0.0
  0
SPLINE
  5
DA
330
6C
100
AcDbEntity
  8
Visible (ISO)
100
AcDbSpline
210
0.0
220
0.0
230
1.0
 70
    12
 71
     2
 72
     6
 73
     3
 74
     0
 42
0.0000000001
 43
0.0000000001
 40
0.8365524254088846
 40
0.8365524254088846
 40
0.8365524254088846
 40
1.2474975411893
 40
1.2474975411893
 40
1.2474975411893
 10
130.7036062212586
 20
43.98987679206132
 30
0.0
 41
1.0
 10
130.7036062212586
 20
44.86349239709142
 30
0.0
 41
1.044904085362819
 10
130.2705935193663
 20
45.81419173197713
 30
0.0
 41
1.045691116018833
  0
SPLINE
  5
DB
330
6C
100
AcDbEntity
  8
Visible (ISO)
100
AcDbSpline
210
0.0
220
0.0
230
1.0
 70
    12
 71
     2
 72
     6
 73
     3
 74
     0
 42
0.0000000001
 43
0.0000000001
 40
0.4256073096284686
 40
0.4256073096284686
 40
0.4256073096284686
 40
0.8365524254088844
 40
0.8365524254088844
 40
0.8365524254088844
 10
130.2705935193663
 20
56.88799371648096
 30
0.0
 41
1.045691116018839
 10
130.7036062212586
 20
57.83869305136665
 30
0.0
 41
1.044904085362823
 10
130.7036062212586
 20
58.71230865639677
 30
0.0
 41
1.0
  0
LINE
  5
DC
330
6C
100
AcDbEntity
  8
Visible (ISO)
100
AcDbLine
 10
130.2705935193663
 20
60.60109272422906
 30
0.0
 11
130.2705935193663
 21
60.53662359631258
 31
0.0
  0
SPLINE
  5
DD
330
6C
100
AcDbEntity
  8
Visible (ISO)
100
AcDbSpline
210
0.0
220
0.0
230
1.0
 70
    12
 71
     2
 72
     6
 73
     3
 74
     0
 42
0.0000000001
 43
0.0000000001
 40
0.8365524254088844
 40
0.8365524254088844
 40
0.8365524254088844
 40
1.2474975411893
 40
1.2474975411893
 40
1.2474975411893
 10
130.7036062212586
 20
58.71230865639677
 30
0.0
 41
1.0
 10
130.7036062212586
 20
59.58592426142689
 30
0.0
 41
1.044904085362819
 10
130.2705935193663
 20
60.53662359631258
 30
0.0
 41
1.045691116018834
  0
SPLINE
  5
DE
330
6C
100
AcDbEntity
  8
Visible (ISO)
100
AcDbSpline
210
0.0
220
0.0
230
1.0
 70
    12
 71
     2
 72
     6
 73
     3
 74
     0
 42
0.0000000001
 43
0.0000000001
 40
0.4256073096284692
 40
0.4256073096284692
 40
0.4256073096284692
 40
0.8365524254088846
 40
0.8365524254088846
 40
0.8365524254088846
 10
130.2705935193663
 20
42.16556185214551
 30
0.0
 41
1.045691116018834
 10
130.7036062212586
 20
43.11626118703118
 30
0.0
 41
1.044904085362819
 10
130.7036062212586
 20
43.98987679206132
 30
0.0
 41
1.0
  0
LINE
  5
DF
330
6C
100
AcDbEntity
  8
Visible (ISO)
100
AcDbLine
 10
130.2705935193663
 20
42.16556185214551
 30
0.0
 11
130.2705935193663
 21
42.10109272422903
 31
0.0
  0
LINE
  5
E0
330
6C
100
AcDbEntity
  8
Visible (ISO)
100
AcDbLine
 10
125.6366189231508
 20
42.16556185214551
 30
0.0
 11
130.2705935193663
 21
42.16556185214551
 31
0.0
  0
LINE
  5
E1
330
6C
100
AcDbEntity
  8
Visible (ISO)
100
AcDbLine
 10
125.6366189231508
 20
42.10109272422903
 30
0.0
 11
125.6366189231508
 21
42.16556185214551
 31
0.0
  0
LINE
  5
E2
330
6C
100
AcDbEntity
  8
Visible (ISO)
100
AcDbLine
 10
130.2705935193663
 20
45.81419173197713
 30
0.0
 11
125.6366189231508
 21
45.81419173197713
 31
0.0
  0
SPLINE
  5
E3
330
6C
100
AcDbEntity
  8
Visible (ISO)
100
AcDbSpline
210
0.0
220
0.0
230
1.0
 70
    12
 71
     2
 72
     6
 73
     3
 74
     0
 42
0.0000000001
 43
0.0000000001
 40
0.3847937513989837
 40
0.3847937513989837
 40
0.3847937513989837
 40
0.7911618380462638
 40
0.7911618380462638
 40
0.7911618380462638
 10
125.6366189231508
 20
45.81419173197713
 30
0.0
 41
1.041774167103256
 10
125.2036062212585
 20
44.86349239709142
 30
0.0
 41
1.042945248861377
 10
125.2036062212585
 20
43.98987679206132
 30
0.0
 41
1.0
  0
SPLINE
  5
E4
330
6C
100
AcDbEntity
  8
Visible (ISO)
100
AcDbSpline
210
0.0
220
0.0
230
1.0
 70
    12
 71
     2
 72
     6
 73
     3
 74
     0
 42
0.0000000001
 43
0.0000000001
 40
0.7911618380462638
 40
0.7911618380462638
 40
0.7911618380462638
 40
1.197529924693542
 40
1.197529924693542
 40
1.197529924693542
 10
125.2036062212585
 20
43.98987679206132
 30
0.0
 41
1.0
 10
125.2036062212585
 20
43.11626118703118
 30
0.0
 41
1.04294524886138
 10
125.6366189231508
 20
42.16556185214551
 30
0.0
 41
1.041774167103257
  0
LINE
  5
E5
330
6C
100
AcDbEntity
  8
Visible (ISO)
100
AcDbLine
 10
125.6366189231508
 20
46.60109272422904
 30
0.0
 11
125.2036062212585
 21
47.35109272422904
 31
0.0
  0
LINE
  5
E6
330
6C
100
AcDbEntity
  8
Visible (ISO)
100
AcDbLine
 10
125.6366189231508
 20
45.81419173197711
 30
0.0
 11
125.6366189231508
 21
46.60109272422904
 31
0.0
  0
LINE
  5
E7
330
6C
100
AcDbEntity
  8
Visible (ISO)
100
AcDbLine
 10
125.6366189231508
 20
56.88799371648096
 30
0.0
 11
130.2705935193663
 21
56.88799371648096
 31
0.0
  0
LINE
  5
E8
330
6C
100
AcDbEntity
  8
Visible (ISO)
100
AcDbLine
 10
125.6366189231508
 20
56.10109272422905
 30
0.0
 11
125.6366189231508
 21
56.88799371648096
 31
0.0
  0
LINE
  5
E9
330
6C
100
AcDbEntity
  8
Visible (ISO)
100
AcDbLine
 10
125.2036062212585
 20
55.35109272422904
 30
0.0
 11
125.6366189231508
 21
56.10109272422904
 31
0.0
  0
LINE
  5
EA
330
6C
100
AcDbEntity
  8
Visible (ISO)
100
AcDbLine
 10
130.2705935193663
 20
60.53662359631258
 30
0.0
 11
125.6366189231508
 21
60.53662359631258
 31
0.0
  0
SPLINE
  5
EB
330
6C
100
AcDbEntity
  8
Visible (ISO)
100
AcDbSpline
210
0.0
220
0.0
230
1.0
 70
    12
 71
     2
 72
     6
 73
     3
 74
     0
 42
0.0000000001
 43
0.0000000001
 40
0.3847937513989835
 40
0.3847937513989835
 40
0.3847937513989835
 40
0.7911618380462635
 40
0.7911618380462635
 40
0.7911618380462635
 10
125.6366189231508
 20
60.53662359631258
 30
0.0
 41
1.041774167103255
 10
125.2036062212585
 20
59.58592426142686
 30
0.0
 41
1.042945248861377
 10
125.2036062212585
 20
58.71230865639677
 30
0.0
 41
1.0
  0
SPLINE
  5
EC
330
6C
100
AcDbEntity
  8
Visible (ISO)
100
AcDbSpline
210
0.0
220
0.0
230
1.0
 70
    12
 71
     2
 72
     6
 73
     3
 74
     0
 42
0.0000000001
 43
0.0000000001
 40
0.7911618380462635
 40
0.7911618380462635
 40
0.7911618380462635
 40
1.197529924693542
 40
1.197529924693542
 40
1.197529924693542
 10
125.2036062212585
 20
58.71230865639677
 30
0.0
 41
1.0
 10
125.2036062212585
 20
57.83869305136668
 30
0.0
 41
1.042945248861377
 10
125.6366189231508
 20
56.88799371648096
 30
0.0
 41
1.041774167103256
  0
LINE
  5
ED
330
6C
100
AcDbEntity
  8
Visible (ISO)
100
AcDbLine
 10
125.6366189231508
 20
60.53662359631258
 30
0.0
 11
125.6366189231508
 21
60.60109272422905
 31
0.0
  0
LINE
  5
EE
330
6C
100
AcDbEntity
  8
Visible (ISO)
100
AcDbLine
 10
125.2036062212585
 20
55.35109272422904
 30
0.0
 11
125.2036062212585
 21
58.71230865639677
 31
0.0
  0
LINE
  5
EF
330
6C
100
AcDbEntity
  8
Visible (ISO)
100
AcDbLine
 10
125.2036062212585
 20
58.71230865639677
 30
0.0
 11
125.2036062212585
 21
59.85109272422904
 31
0.0
  0
LINE
  5
F0
330
6C
100
AcDbEntity
  8
Visible (ISO)
100
AcDbLine
 10
125.2036062212585
 20
43.98987679206131
 30
0.0
 11
125.2036062212585
 21
47.35109272422904
 31
0.0
  0
LINE
  5
F1
330
6C
100
AcDbEntity
  8
Visible (ISO)
100
AcDbLine
 10
125.2036062212585
 20
42.85109272422904
 30
0.0
 11
125.2036062212585
 21
43.98987679206132
 31
0.0
  0
LINE
  5
F2
330
6C
100
AcDbEntity
  8
Visible (ISO)
100
AcDbLine
 10
125.6366189231508
 20
42.10109272422903
 30
0.0
 11
130.2705935193663
 21
42.10109272422903
 31
0.0
  0
LINE
  5
F3
330
6C
100
AcDbEntity
  8
Visible (ISO)
100
AcDbLine
 10
125.6366189231508
 20
60.60109272422905
 30
0.0
 11
130.2705935193663
 21
60.60109272422905
 31
0.0
  0
LINE
  5
F4
330
6C
100
AcDbEntity
  8
Visible (ISO)
100
AcDbLine
 10
125.2036062212585
 20
59.85109272422904
 30
0.0
 11
125.6366189231508
 21
60.60109272422905
 31
0.0
  0
LINE
  5
F5
330
6C
100
AcDbEntity
  8
Visible (ISO)
100
AcDbLine
 10
125.2036062212585
 20
42.85109272422904
 30
0.0
 11
125.6366189231508
 21
42.10109272422903
 31
0.0
  0
LINE
  5
F6
330
6C
100
AcDbEntity
  8
Visible (ISO)
100
AcDbLine
 10
108.1366189231508
 20
47.70246284439743
 30
0.0
 11
130.2705935193663
 21
47.70246284439743
 31
0.0
  0
LINE
  5
F7
330
6C
100
AcDbEntity
  8
Visible (ISO)
100
AcDbLine
 10
108.1366189231508
 20
45.81419173197711
 30
0.0
 11
108.1366189231508
 21
47.70246284439743
 31
0.0
  0
LINE
  5
F8
330
6C
100
AcDbEntity
  8
Visible (ISO)
100
AcDbLine
 10
112.7705935193663
 20
45.81419173197713
 30
0.0
 11
108.1366189231508
 21
45.81419173197713
 31
0.0
  0
LINE
  5
F9
330
6C
100
AcDbEntity
  8
Visible (ISO)
100
AcDbLine
 10
130.2705935193663
 20
54.99972260406067
 30
0.0
 11
108.1366189231508
 21
54.99972260406067
 31
0.0
  0
LINE
  5
FA
330
6C
100
AcDbEntity
  8
Visible (ISO)
100
AcDbLine
 10
108.1366189231508
 20
56.88799371648096
 30
0.0
 11
112.7705935193663
 21
56.88799371648096
 31
0.0
  0
LINE
  5
FB
330
6C
100
AcDbEntity
  8
Visible (ISO)
100
AcDbLine
 10
108.1366189231508
 20
54.99972260406067
 30
0.0
 11
108.1366189231508
 21
56.88799371648096
 31
0.0
  0
LINE
  5
FC
330
6C
100
AcDbEntity
  8
Visible (ISO)
100
AcDbLine
 10
108.1366189231508
 20
42.10109272422903
 30
0.0
 11
108.1366189231508
 21
42.16556185214551
 31
0.0
  0
LINE
  5
FD
330
6C
100
AcDbEntity
  8
Visible (ISO)
100
AcDbLine
 10
108.1366189231508
 20
60.53662359631258
 30
0.0
 11
108.1366189231508
 21
60.60109272422905
 31
0.0
  0
LINE
  5
FE
330
6C
100
AcDbEntity
  8
Visible (ISO)
100
AcDbLine
 10
112.7705935193663
 20
60.53662359631258
 30
0.0
 11
108.1366189231508
 21
60.53662359631258
 31
0.0
  0
LINE
  5
FF
330
6C
100
AcDbEntity
  8
Visible (ISO)
100
AcDbLine
 10
108.1366189231508
 20
42.16556185214551
 30
0.0
 11
112.7705935193663
 21
42.16556185214551
 31
0.0
  0
LINE
  5
100
330
6C
100
AcDbEntity
  8
Visible (ISO)
100
AcDbLine
 10
108.1366189231508
 20
60.60109272422905
 30
0.0
 11
112.7705935193663
 21
60.60109272422905
 31
0.0
  0
LINE
  5
101
330
6C
100
AcDbEntity
  8
Visible (ISO)
100
AcDbLine
 10
108.1366189231508
 20
42.10109272422903
 30
0.0
 11
112.7705935193663
 21
42.10109272422903
 31
0.0
  0
LINE
  5
102
330
6C
100
AcDbEntity
  8
Visible (ISO)
100
AcDbLine
 10
112.7705935193663
 20
46.60109272422904
 30
0.0
 11
112.7705935193663
 21
45.81419173197713
 31
0.0
  0
LINE
  5
103
330
6C
100
AcDbEntity
  8
Visible (ISO)
100
AcDbLine
 10
113.2036062212586
 20
47.35109272422904
 30
0.0
 11
112.7705935193663
 21
46.60109272422904
 31
0.0
  0
LINE
  5
104
330
6C
100
AcDbEntity
  8
Visible (ISO)
100
AcDbLine
 10
112.7705935193663
 20
56.10109272422904
 30
0.0
 11
113.2036062212586
 21
55.35109272422904
 31
0.0
  0
LINE
  5
105
330
6C
100
AcDbEntity
  8
Visible (ISO)
100
AcDbLine
 10
112.7705935193663
 20
56.88799371648098
 30
0.0
 11
112.7705935193663
 21
56.10109272422905
 31
0.0
  0
LINE
  5
106
330
6C
100
AcDbEntity
  8
Visible (ISO)
100
AcDbLine
 10
112.7705935193663
 20
60.60109272422906
 30
0.0
 11
112.7705935193663
 21
60.53662359631258
 31
0.0
  0
SPLINE
  5
107
330
6C
100
AcDbEntity
  8
Visible (ISO)
100
AcDbSpline
210
0.0
220
0.0
230
1.0
 70
    12
 71
     2
 72
     6
 73
     3
 74
     0
 42
0.0000000001
 43
0.0000000001
 40
0.3847937513989829
 40
0.3847937513989829
 40
0.3847937513989829
 40
0.7911618380462635
 40
0.7911618380462635
 40
0.7911618380462635
 10
112.7705935193663
 20
56.88799371648096
 30
0.0
 41
1.041774167103256
 10
113.2036062212586
 20
57.83869305136668
 30
0.0
 41
1.042945248861377
 10
113.2036062212586
 20
58.71230865639677
 30
0.0
 41
1.0
  0
SPLINE
  5
108
330
6C
100
AcDbEntity
  8
Visible (ISO)
100
AcDbSpline
210
0.0
220
0.0
230
1.0
 70
    12
 71
     2
 72
     6
 73
     3
 74
     0
 42
0.0000000001
 43
0.0000000001
 40
0.7911618380462635
 40
0.7911618380462635
 40
0.7911618380462635
 40
1.197529924693542
 40
1.197529924693542
 40
1.197529924693542
 10
113.2036062212586
 20
58.71230865639677
 30
0.0
 41
1.0
 10
113.2036062212586
 20
59.58592426142686
 30
0.0
 41
1.042945248861377
 10
112.7705935193663
 20
60.53662359631258
 30
0.0
 41
1.041774167103254
  0
LINE
  5
109
330
6C
100
AcDbEntity
  8
Visible (ISO)
100
AcDbLine
 10
113.2036062212586
 20
58.71230865639677
 30
0.0
 11
113.2036062212586
 21
59.85109272422904
 31
0.0
  0
LINE
  5
10A
330
6C
100
AcDbEntity
  8
Visible (ISO)
100
AcDbLine
 10
113.2036062212586
 20
55.35109272422904
 30
0.0
 11
113.2036062212586
 21
58.71230865639677
 31
0.0
  0
SPLINE
  5
10B
330
6C
100
AcDbEntity
  8
Visible (ISO)
100
AcDbSpline
210
0.0
220
0.0
230
1.0
 70
    12
 71
     2
 72
     6
 73
     3
 74
     0
 42
0.0000000001
 43
0.0000000001
 40
0.7911618380462631
 40
0.7911618380462631
 40
0.7911618380462631
 40
1.197529924693542
 40
1.197529924693542
 40
1.197529924693542
 10
113.2036062212586
 20
43.98987679206132
 30
0.0
 41
1.0
 10
113.2036062212586
 20
44.86349239709142
 30
0.0
 41
1.042945248861377
 10
112.7705935193663
 20
45.81419173197713
 30
0.0
 41
1.041774167103256
  0
LINE
  5
10C
330
6C
100
AcDbEntity
  8
Visible (ISO)
100
AcDbLine
 10
113.2036062212586
 20
43.98987679206131
 30
0.0
 11
113.2036062212586
 21
47.35109272422904
 31
0.0
  0
SPLINE
  5
10D
330
6C
100
AcDbEntity
  8
Visible (ISO)
100
AcDbSpline
210
0.0
220
0.0
230
1.0
 70
    12
 71
     2
 72
     6
 73
     3
 74
     0
 42
0.0000000001
 43
0.0000000001
 40
0.384793751398983
 40
0.384793751398983
 40
0.384793751398983
 40
0.7911618380462631
 40
0.7911618380462631
 40
0.7911618380462631
 10
112.7705935193663
 20
42.16556185214551
 30
0.0
 41
1.041774167103257
 10
113.2036062212586
 20
43.11626118703118
 30
0.0
 41
1.04294524886138
 10
113.2036062212586
 20
43.98987679206132
 30
0.0
 41
1.0
  0
LINE
  5
10E
330
6C
100
AcDbEntity
  8
Visible (ISO)
100
AcDbLine
 10
112.7705935193663
 20
42.16556185214551
 30
0.0
 11
112.7705935193663
 21
42.10109272422903
 31
0.0
  0
LINE
  5
10F
330
6C
100
AcDbEntity
  8
Visible (ISO)
100
AcDbLine
 10
113.2036062212586
 20
42.85109272422904
 30
0.0
 11
113.2036062212586
 21
43.98987679206132
 31
0.0
  0
LINE
  5
110
330
6C
100
AcDbEntity
  8
Visible (ISO)
100
AcDbLine
 10
113.2036062212586
 20
59.85109272422904
 30
0.0
 11
112.7705935193663
 21
60.60109272422905
 31
0.0
  0
LINE
  5
111
330
6C
100
AcDbEntity
  8
Visible (ISO)
100
AcDbLine
 10
113.2036062212586
 20
42.85109272422904
 30
0.0
 11
112.7705935193663
 21
42.10109272422903
 31
0.0
  0
LINE
  5
112
330
6C
100
AcDbEntity
  8
Visible (ISO)
100
AcDbLine
 10
125.2036062212585
 20
47.35109272422904
 30
0.0
 11
113.2036062212586
 21
47.35109272422904
 31
0.0
  0
LINE
  5
113
330
6C
100
AcDbEntity
  8
Visible (ISO)
100
AcDbLine
 10
113.2036062212586
 20
55.35109272422904
 30
0.0
 11
125.2036062212585
 21
55.35109272422904
 31
0.0
  0
SPLINE
  5
114
330
6C
100
AcDbEntity
  8
Visible (ISO)
100
AcDbSpline
210
0.0
220
0.0
230
1.0
 70
    12
 71
     2
 72
     6
 73
     3
 74
     0
 42
0.0000000001
 43
0.0000000001
 40
0.4226777092670462
 40
0.4226777092670462
 40
0.4226777092670462
 40
0.8332926396892185
 40
0.8332926396892185
 40
0.8332926396892185
 10
108.1366189231508
 20
54.99972260406067
 30
0.0
 41
1.045413293158438
 10
107.7036062212585
 20
53.09832393428925
 30
0.0
 41
1.044765269262242
 10
107.7036062212585
 20
51.35109272422905
 30
0.0
 41
1.0
  0
SPLINE
  5
115
330
6C
100
AcDbEntity
  8
Visible (ISO)
100
AcDbSpline
210
0.0
220
0.0
230
1.0
 70
    12
 71
     2
 72
     6
 73
     3
 74
     0
 42
0.0000000001
 43
0.0000000001
 40
0.8332926396892185
 40
0.8332926396892185
 40
0.8332926396892185
 40
1.243907570111389
 40
1.243907570111389
 40
1.243907570111389
 10
107.7036062212585
 20
51.35109272422905
 30
0.0
 41
1.0
 10
107.7036062212585
 20
49.60386151416884
 30
0.0
 41
1.044765269262244
 10
108.1366189231508
 20
47.70246284439743
 30
0.0
 41
1.045413293158438
  0
SPLINE
  5
116
330
6C
100
AcDbEntity
  8
Visible (ISO)
100
AcDbSpline
210
0.0
220
0.0
230
1.0
 70
    12
 71
     2
 72
     6
 73
     3
 74
     0
 42
0.0000000001
 43
0.0000000001
 40
0.4226777092670475
 40
0.4226777092670475
 40
0.4226777092670475
 40
0.8332926396892188
 40
0.8332926396892188
 40
0.8332926396892188
 10
108.1366189231508
 20
45.81419173197713
 30
0.0
 41
1.045413293158431
 10
107.7036062212585
 20
44.86349239709142
 30
0.0
 41
1.044765269262237
 10
107.7036062212585
 20
43.98987679206132
 30
0.0
 41
1.0
  0
LINE
  5
117
330
6C
100
AcDbEntity
  8
Visible (ISO)
100
AcDbLine
 10
107.7036062212585
 20
51.35109272422903
 30
0.0
 11
107.7036062212585
 21
43.98987679206132
 31
0.0
  0
SPLINE
  5
118
330
6C
100
AcDbEntity
  8
Visible (ISO)
100
AcDbSpline
210
0.0
220
0.0
230
1.0
 70
    12
 71
     2
 72
     6
 73
     3
 74
     0
 42
0.0000000001
 43
0.0000000001
 40
0.8332926396892188
 40
0.8332926396892188
 40
0.8332926396892188
 40
1.243907570111389
 40
1.243907570111389
 40
1.243907570111389
 10
107.7036062212585
 20
43.98987679206132
 30
0.0
 41
1.0
 10
107.7036062212585
 20
43.11626118703121
 30
0.0
 41
1.044765269262234
 10
108.1366189231508
 20
42.16556185214551
 30
0.0
 41
1.045413293158427
  0
LINE
  5
119
330
6C
100
AcDbEntity
  8
Visible (ISO)
100
AcDbLine
 10
107.7036062212585
 20
43.98987679206132
 30
0.0
 11
107.7036062212585
 21
42.85109272422904
 31
0.0
  0
LINE
  5
11A
330
6C
100
AcDbEntity
  8
Visible (ISO)
100
AcDbLine
 10
107.7036062212585
 20
59.85109272422904
 30
0.0
 11
107.7036062212585
 21
58.71230865639677
 31
0.0
  0
SPLINE
  5
11B
330
6C
100
AcDbEntity
  8
Visible (ISO)
100
AcDbSpline
210
0.0
220
0.0
230
1.0
 70
    12
 71
     2
 72
     6
 73
     3
 74
     0
 42
0.0000000001
 43
0.0000000001
 40
0.4226777092670467
 40
0.4226777092670467
 40
0.4226777092670467
 40
0.8332926396892183
 40
0.8332926396892183
 40
0.8332926396892183
 10
108.1366189231508
 20
60.53662359631258
 30
0.0
 41
1.045413293158434
 10
107.7036062212585
 20
59.58592426142686
 30
0.0
 41
1.044765269262239
 10
107.7036062212585
 20
58.71230865639677
 30
0.0
 41
1.0
  0
SPLINE
  5
11C
330
6C
100
AcDbEntity
  8
Visible (ISO)
100
AcDbSpline
210
0.0
220
0.0
230
1.0
 70
    12
 71
     2
 72
     6
 73
     3
 74
     0
 42
0.0000000001
 43
0.0000000001
 40
0.8332926396892183
 40
0.8332926396892183
 40
0.8332926396892183
 40
1.243907570111389
 40
1.243907570111389
 40
1.243907570111389
 10
107.7036062212585
 20
58.71230865639677
 30
0.0
 41
1.0
 10
107.7036062212585
 20
57.83869305136665
 30
0.0
 41
1.044765269262239
 10
108.1366189231508
 20
56.88799371648096
 30
0.0
 41
1.045413293158434
  0
LINE
  5
11D
330
6C
100
AcDbEntity
  8
Visible (ISO)
100
AcDbLine
 10
107.7036062212585
 20
58.71230865639677
 30
0.0
 11
107.7036062212585
 21
51.35109272422905
 31
0.0
  0
LINE
  5
11E
330
6C
100
AcDbEntity
  8
Visible (ISO)
100
AcDbLine
 10
107.7036062212585
 20
42.85109272422904
 30
0.0
 11
108.1366189231508
 21
42.10109272422903
 31
0.0
  0
LINE
  5
11F
330
6C
100
AcDbEntity
  8
Visible (ISO)
100
AcDbLine
 10
107.7036062212585
 20
59.85109272422904
 30
0.0
 11
108.1366189231508
 21
60.60109272422905
 31
0.0
  0
LINE
  5
120
330
6C
100
AcDbEntity
  8
Visible (ISO)
100
AcDbLine
 10
114.0649881577446
 20
50.60163312634646
 30
0.0
 11
115.1570838696098
 21
53.65508461837667
 31
0.0
  0
ELLIPSE
  5
121
330
6C
100
AcDbEntity
  8
Visible (ISO)
100
AcDbEllipse
 10
115.6695731391689
 20
53.42762034352475
 30
0.0
 11
0.5653269642954283
 21
0.0000000000008308
 31
0.0
210
0.0
220
0.0
230
1.0
 40
0.9531667975378875
 41
0.4357918987539078
 42
2.705800754833092
  0
LINE
  5
122
330
6C
100
AcDbEntity
  8
Visible (ISO)
100
AcDbLine
 10
116.1820624087279
 20
53.65508461837681
 30
0.0
 11
117.2744126782234
 21
50.60092139442804
 31
0.0
  0
ELLIPSE
  5
123
330
6C
100
AcDbEntity
  8
Visible (ISO)
100
AcDbEllipse
 10
117.8312519433762
 20
50.78186254185151
 30
0.0
 11
-0.5883077352017581
 21
-0.0000000000000282
 31
0.0
210
0.0
220
0.0
230
1.0
 40
0.9531667975376029
 41
0.3285531705514044
 42
2.110876526947181
  0
LINE
  5
124
330
6C
100
AcDbEntity
  8
Visible (ISO)
100
AcDbLine
 10
118.1337625919669
 20
50.30092089082518
 30
0.0
 11
118.1698810137763
 21
50.32156113610636
 31
0.0
  0
LINE
  5
125
330
6C
100
AcDbEntity
  8
Visible (ISO)
100
AcDbLine
 10
118.1698810137763
 20
50.32156113610636
 30
0.0
 11
117.4793708854878
 21
49.00521848081022
 31
0.0
  0
ELLIPSE
  5
126
330
6C
100
AcDbEntity
  8
Visible (ISO)
100
AcDbEllipse
 10
117.4135960811078
 20
49.03656566063499
 30
0.0
 11
0.0735384669001882
 21
0.0000000000000271
 31
0.0
210
0.0
220
0.0
230
1.0
 40
0.9531667975395267
 41
3.962594650552751
 42
5.819537698179257
  0
ELLIPSE
  5
127
330
6C
100
AcDbEntity
  8
Visible (ISO)
100
AcDbEllipse
 10
115.6695731391689
 20
47.25142532149585
 30
0.0
 11
2.485600181227439
 21
-0.0000000000002831
 31
0.0
210
0.0
220
0.0
230
1.0
 40
0.9531667975375935
 41
0.8210019969645859
 42
2.320590656625419
  0
ELLIPSE
  5
128
330
6C
100
AcDbEntity
  8
Visible (ISO)
100
AcDbEllipse
 10
113.9255501972299
 20
49.03656566063499
 30
0.0
 11
0.0735384669002225
 21
0.0000000000000042
 31
0.0
210
0.0
220
0.0
230
1.0
 40
0.9531667975374901
 41
3.605240262590537
 42
5.462183310214954
  0
LINE
  5
129
330
6C
100
AcDbEntity
  8
Visible (ISO)
100
AcDbLine
 10
113.8597753928499
 20
49.00521848081021
 30
0.0
 11
113.1692652645614
 21
50.32156113610636
 31
0.0
  0
LINE
  5
12A
330
6C
100
AcDbEntity
  8
Visible (ISO)
100
AcDbLine
 10
113.1692652645614
 20
50.32156113610636
 30
0.0
 11
113.213995024991
 21
50.29694585212222
 31
0.0
  0
ELLIPSE
  5
12B
330
6C
100
AcDbEntity
  8
Visible (ISO)
100
AcDbEllipse
 10
113.5081488925919
 20
50.78257427376993
 30
0.0
 11
-0.5883077352017625
 21
0.0000000000000488
 31
0.0
210
0.0
220
0.0
230
1.0
 40
0.9531667975375855
 41
1.047197551196687
 42
2.813039483038433
  0
LINE
  5
12C
330
6C
100
AcDbEntity
  8
Visible (ISO)
100
AcDbLine
 10
123.7248208201169
 20
50.63931323832563
 30
0.0
 11
123.7248208201169
 21
50.14371852466926
 31
0.0
  0
LINE
  5
12D
330
6C
100
AcDbEntity
  8
Visible (ISO)
100
AcDbLine
 10
123.7248208201169
 20
50.14371852466926
 30
0.0
 11
121.9871127800812
 21
50.14371852466926
 31
0.0
  0
ARC
  5
12E
330
6C
100
AcDbEntity
  8
Visible (ISO)
100
AcDbCircle
 10
122.7750581557009
 20
50.39151588149744
 30
0.0
 40
0.8259911894273129
100
AcDbArc
 50
197.457603123722
 51
316.5096153456693
  0
LINE
  5
12F
330
6C
100
AcDbEntity
  8
Visible (ISO)
100
AcDbLine
 10
123.3743064046633
 20
49.82304162427283
 30
0.0
 11
123.7248208201169
 21
49.47252720881919
 31
0.0
  0
ARC
  5
130
330
6C
100
AcDbEntity
  8
Visible (ISO)
100
AcDbCircle
 10
122.7750581557009
 20
50.39151588149744
 30
0.0
 40
1.321585903083698
100
AcDbArc
 50
44.05655693703279
 51
315.9434430629681
  0
LINE
  5
131
330
6C
100
AcDbEntity
  8
Visible (ISO)
100
AcDbLine
 10
123.7248208201169
 20
51.31050455417569
 30
0.0
 11
123.3743064046633
 21
50.95999013872205
 31
0.0
  0
ARC
  5
132
330
6C
100
AcDbEntity
  8
Visible (ISO)
100
AcDbCircle
 10
122.7750581557009
 20
50.39151588149743
 30
0.0
 40
0.8259911894273136
100
AcDbArc
 50
43.49038465433067
 51
162.5423968762779
  0
LINE
  5
133
330
6C
100
AcDbEntity
  8
Visible (ISO)
100
AcDbLine
 10
121.9871127800812
 20
50.63931323832563
 30
0.0
 11
123.7248208201169
 21
50.63931323832563
 31
0.0
  0
ARC
  5
134
330
6C
100
AcDbEntity
  8
Visible (ISO)
100
AcDbCircle
 10
120.0286283178188
 20
50.38199099132288
 30
0.0
 40
1.321585903083698
100
AcDbArc
 50
45.00000000000055
 51
315.0
  0
LINE
  5
135
330
6C
100
AcDbEntity
  8
Visible (ISO)
100
AcDbLine
 10
120.9631306718098
 20
51.31649334531392
 30
0.0
 11
120.6126922890631
 21
50.96605496256728
 31
0.0
  0
ARC
  5
136
330
6C
100
AcDbEntity
  8
Visible (ISO)
100
AcDbCircle
 10
120.0286283178188
 20
50.38199099132288
 30
0.0
 40
0.8259911894273129
100
AcDbArc
 50
45.0
 51
315.0
  0
LINE
  5
137
330
6C
100
AcDbEntity
  8
Visible (ISO)
100
AcDbLine
 10
120.6126922890631
 20
49.79792702007848
 30
0.0
 11
120.9631306718098
 21
49.44748863733185
 31
0.0
  0
LINE
  5
138
330
6C
100
AcDbEntity
  8
Visible (ISO)
100
AcDbLine
 10
115.6003188845278
 20
51.39843038415314
 30
0.0
 11
115.3369779941693
 21
50.69560856753593
 31
0.0
  0
ELLIPSE
  5
139
330
6C
100
AcDbEntity
  8
Visible (ISO)
100
AcDbEllipse
 10
115.6695731409222
 20
51.37485507780198
 30
0.0
 11
0.0735384669002193
 21
0.0000000000000001
 31
0.0
210
0.0
220
0.0
230
1.0
 40
0.9531667975375063
 41
0.3430239404206459
 42
2.798568713169143
  0
LINE
  5
13A
330
6C
100
AcDbEntity
  8
Visible (ISO)
100
AcDbLine
 10
116.0021682846728
 20
50.69560856729025
 30
0.0
 11
115.7388273973166
 21
51.39843038415314
 31
0.0
  0
ELLIPSE
  5
13B
330
6C
100
AcDbEntity
  8
Visible (ISO)
100
AcDbEllipse
 10
115.9329140282324
 20
50.67203326106191
 30
0.0
 11
0.0735384669002201
 21
0.0000000000000141
 31
0.0
210
0.0
220
0.0
230
1.0
 40
0.9531667975375228
 41
4.712388980384504
 42
6.626209245739198
  0
LINE
  5
13C
330
6C
100
AcDbEntity
  8
Visible (ISO)
100
AcDbLine
 10
115.4062322505177
 20
50.60193883607081
 30
0.0
 11
115.9329140282324
 21
50.60193883607081
 31
0.0
  0
ELLIPSE
  5
13D
330
6C
100
AcDbEntity
  8
Visible (ISO)
100
AcDbEllipse
 10
115.4062322505177
 20
50.67203326106191
 30
0.0
 11
-0.0735384669002224
 21
0.0000000000000012
 31
0.0
210
0.0
220
0.0
230
1.0
 40
0.9531667975374929
 41
5.940161364897996
 42
7.853981633974497
  0
SPLINE
  5
13E
330
6C
100
AcDbEntity
  8
Visible (ISO)
100
AcDbSpline
210
0.0
220
0.0
230
1.0
 70
     8
 71
     3
 72
    22
 73
    18
 74
     0
 42
0.0000000001
 43
0.0000000001
 40
0.930303521037988
 40
0.930303521037988
 40
0.9303035210404583
 40
0.9303035210404583
 40
1.161283013875379
 40
1.161283013875379
 40
1.392262506710301
 40
1.392262506710301
 40
1.62643477439561
 40
1.62643477439561
 40
1.860607042080914
 40
1.860607042080914
 40
2.094779309766223
 40
2.094779309766223
 40
2.328951577451529
 40
2.328951577451529
 40
2.559931070286451
 40
2.559931070286451
 40
2.790910563121121
 40
2.790910563121121
 40
2.790910563121374
 40
2.790910563121374
 10
125.1036062212586
 20
59.85109272422904
 30
0.0
 10
125.1036062212586
 20
59.85109272422904
 30
0.0
 10
124.9439954834071
 20
59.73797309451907
 30
0.0
 10
124.3322229330469
 20
59.33171952092918
 30
0.0
 10
123.8813101793658
 20
59.04175506186071
 30
0.0
 10
122.8627710875844
 20
58.4679740191521
 30
0.0
 10
122.2186327752535
 20
58.13914411929275
 30
0.0
 10
120.7812904292755
 20
57.63411596531363
 30
0.0
 10
119.9841804468762
 20
57.46991614054039
 30
0.0
 10
118.4230319956409
 20
57.46991614054039
 30
0.0
 10
117.6259220132416
 20
57.63411596531363
 30
0.0
 10
116.1885796672636
 20
58.13914411929275
 30
0.0
 10
115.5444413549327
 20
58.4679740191521
 30
0.0
 10
114.5259022631513
 20
59.04175506186071
 30
0.0
 10
114.0749895094702
 20
59.33171952092918
 30
0.0
 10
113.4632169591103
 20
59.73797309451882
 30
0.0
 10
113.3036062212589
 20
59.85109272422879
 30
0.0
 10
113.3036062212585
 20
59.85109272422904
 30
0.0
  0
LINE
  5
13F
330
6C
100
AcDbEntity
  8
Visible (ISO)
100
AcDbLine
 10
113.3036062212585
 20
59.85109272422904
 30
0.0
 11
113.3036062212585
 21
61.85109272422907
 31
0.0
  0
LINE
  5
140
330
6C
100
AcDbEntity
  8
Visible (ISO)
100
AcDbLine
 10
125.1036062212586
 20
59.85109272422904
 30
0.0
 11
125.1036062212586
 21
61.85109272422907
 31
0.0
  0
LINE
  5
141
330
6C
100
AcDbEntity
  8
Visible (ISO)
100
AcDbLine
 10
143.2036062212586
 20
44.85109272422904
 30
0.0
 11
130.7036062212586
 21
44.85109272422904
 31
0.0
  0
LINE
  5
142
330
6C
100
AcDbEntity
  8
Visible (ISO)
100
AcDbLine
 10
143.2036062212586
 20
57.85109272422904
 30
0.0
 11
130.7036062212586
 21
57.85109272422904
 31
0.0
  0
LINE
  5
143
330
6C
100
AcDbEntity
  8
Visible (ISO)
100
AcDbLine
 10
125.2036062212585
 20
59.85109272422904
 30
0.0
 11
125.1036062212586
 21
59.85109272422904
 31
0.0
  0
LINE
  5
144
330
6C
100
AcDbEntity
  8
Visible (ISO)
100
AcDbLine
 10
113.3036062212585
 20
59.85109272422904
 30
0.0
 11
113.2036062212586
 21
59.85109272422904
 31
0.0
  0
LINE
  5
145
330
6C
100
AcDbEntity
  8
Visible (ISO)
100
AcDbLine
 10
125.2036062212585
 20
42.85109272422904
 30
0.0
 11
113.2036062212586
 21
42.85109272422904
 31
0.0
  0
LINE
  5
146
330
6C
100
AcDbEntity
  8
Visible (ISO)
100
AcDbLine
 10
122.7036062212583
 20
79.85109272422903
 30
0.0
 11
115.7036062212588
 21
79.85109272422903
 31
0.0
  0
LINE
  5
147
330
6C
100
AcDbEntity
  8
Visible (ISO)
100
AcDbLine
 10
122.7036062212583
 20
72.85109272422904
 30
0.0
 11
122.7036062212583
 21
67.85109272422906
 31
0.0
  0
LINE
  5
148
330
6C
100
AcDbEntity
  8
Visible Narrow (ISO)
100
AcDbLine
 10
122.7036062212583
 20
72.85109272422904
 30
0.0
 11
115.7036062212588
 21
72.85109272422904
 31
0.0
  0
LINE
  5
149
330
6C
100
AcDbEntity
  8
Visible (ISO)
100
AcDbLine
 10
115.7036062212588
 20
67.85109272422906
 30
0.0
 11
115.7036062212588
 21
72.85109272422904
 31
0.0
  0
LINE
  5
14A
330
6C
100
AcDbEntity
  8
Visible (ISO)
100
AcDbLine
 10
115.7036062212588
 20
67.85109272422906
 30
0.0
 11
122.7036062212583
 21
67.85109272422906
 31
0.0
  0
LINE
  5
14B
330
6C
100
AcDbEntity
  8
Visible (ISO)
100
AcDbLine
 10
122.7036062212583
 20
67.85109272422906
 30
0.0
 11
122.7036062212583
 21
67.60334747899998
 31
0.0
  0
SPLINE
  5
14C
330
6C
100
AcDbEntity
  8
Visible (ISO)
100
AcDbSpline
210
0.0
220
0.0
230
1.0
 70
     8
 71
     3
 72
    14
 73
    10
 74
     0
 42
0.0000000001
 43
0.0000000001
 40
0.0979815127343829
 40
0.0979815127343829
 40
0.0979815127343829
 40
0.0979815127343829
 40
0.1506624850332004
 40
0.1506624850332004
 40
0.3013249700664007
 40
0.3013249700664007
 40
0.4554237426914714
 40
0.4554237426914714
 40
0.5051911393277391
 40
0.5051911393277391
 40
0.5051911393277391
 40
0.5051911393277391
 10
113.7851461453919
 20
61.85109272422907
 30
0.0
 10
113.7966253382414
 20
62.03000478377095
 30
0.0
 10
113.8112187850136
 20
62.20670108086763
 30
0.0
 10
113.878342951813
 20
62.86854550735171
 30
0.0
 10
113.9519891945104
 20
63.31489335756671
 30
0.0
 10
114.1151999509786
 20
64.02702900981035
 30
0.0
 10
114.2162083856695
 20
64.33767903912187
 30
0.0
 10
114.3534519437445
 20
64.61023210693515
 30
0.0
 10
114.3872364960363
 20
64.66635470500746
 30
0.0
 10
114.4207438911544
 20
64.71144647573622
 30
0.0
  0
ELLIPSE
  5
14D
330
6C
100
AcDbEntity
  8
Visible (ISO)
100
AcDbEllipse
 10
50.7036062212644
 20
68.19896715655348
 30
0.0
 11
-64.99999999999444
 21
-0.0000000000000034
 31
0.0
210
0.0
220
0.0
230
1.0
 40
0.271399209557107
 41
2.942587086109377
 42
3.032609081529036
  0
SPLINE
  5
14E
330
6C
100
AcDbEntity
  8
Visible (ISO)
100
AcDbSpline
210
0.0
220
0.0
230
1.0
 70
     8
 71
     3
 72
    10
 73
     6
 74
     0
 42
0.0000000001
 43
0.0000000001
 40
5.578615183636051
 40
5.578615183636051
 40
5.578615183636051
 40
5.578615183636051
 40
6.021510703961547
 40
6.021510703961547
 40
6.267952460891861
 40
6.267952460891861
 40
6.267952460891861
 40
6.267952460891861
 10
115.3179720261308
 20
66.28019717040287
 30
0.0
 10
115.4762676261637
 20
66.67283502666181
 30
0.0
 10
115.5910030499952
 20
67.00222620136287
 30
0.0
 10
115.6861129984274
 20
67.39499929258761
 30
0.0
 10
115.7036062212588
 20
67.51171046903053
 30
0.0
 10
115.7036062212588
 20
67.60334747899999
 30
0.0
  0
LINE
  5
14F
330
6C
100
AcDbEntity
  8
Visible (ISO)
100
AcDbLine
 10
124.6220662971252
 20
61.85109272422907
 30
0.0
 11
121.8016824326116
 21
61.85109272422907
 31
0.0
  0
SPLINE
  5
150
330
6C
100
AcDbEntity
  8
Visible (ISO)
100
AcDbSpline
210
0.0
220
0.0
230
1.0
 70
     8
 71
     3
 72
    14
 73
    10
 74
     0
 42
0.0000000001
 43
0.0000000001
 40
1.926793397172414
 40
1.926793397172414
 40
1.926793397172414
 40
1.926793397172414
 40
1.976560793808679
 40
1.976560793808679
 40
2.130659566433751
 40
2.130659566433751
 40
2.28132205146695
 40
2.28132205146695
 40
2.334003023765768
 40
2.334003023765768
 40
2.334003023765768
 40
2.334003023765768
 10
123.9864685513627
 20
64.71144647573622
 30
0.0
 10
124.0199759464807
 20
64.66635470500746
 30
0.0
 10
124.0537604987726
 20
64.61023210693515
 30
0.0
 10
124.1910040568476
 20
64.33767903912187
 30
0.0
 10
124.2920124915385
 20
64.02702900981035
 30
0.0
 10
124.4552232480067
 20
63.31489335756671
 30
0.0
 10
124.5288694907041
 20
62.86854550735171
 30
0.0
 10
124.5959936575035
 20
62.20670108086763
 30
0.0
 10
124.6105871042757
 20
62.03000478377095
 30
0.0
 10
124.6220662971252
 20
61.85109272422907
 30
0.0
  0
LINE
  5
151
330
6C
100
AcDbEntity
  8
Visible Narrow (ISO)
100
AcDbLine
 10
123.9864685513627
 20
64.71144647573622
 30
0.0
 11
114.4207438911544
 21
64.71144647573622
 31
0.0
  0
LINE
  5
152
330
6C
100
AcDbEntity
  8
Visible (ISO)
100
AcDbLine
 10
116.6055300099055
 20
61.85109272422907
 30
0.0
 11
113.7851461453919
 21
61.85109272422907
 31
0.0
  0
ELLIPSE
  5
153
330
6C
100
AcDbEntity
  8
Visible (ISO)
100
AcDbEllipse
 10
187.7036062212527
 20
68.19896715655348
 30
0.0
 11
64.99999999999444
 21
-0.0000000000000022
 31
0.0
210
0.0
220
0.0
230
1.0
 40
0.271399209557107
 41
3.250576225650547
 42
3.340598221070206
  0
LINE
  5
154
330
6C
100
AcDbEntity
  8
Visible Narrow (ISO)
100
AcDbLine
 10
123.0892404163862
 20
66.28019717040287
 30
0.0
 11
115.3179720261308
 21
66.28019717040287
 31
0.0
  0
SPLINE
  5
155
330
6C
100
AcDbEntity
  8
Visible (ISO)
100
AcDbSpline
210
0.0
220
0.0
230
1.0
 70
     8
 71
     3
 72
    10
 73
     6
 74
     0
 42
0.0000000001
 43
0.0000000001
 40
4.585290746366443
 40
4.585290746366443
 40
4.585290746366443
 40
4.585290746366443
 40
4.831732503296846
 40
4.831732503296846
 40
5.274628023622251
 40
5.274628023622251
 40
5.274628023622251
 40
5.274628023622251
 10
122.7036062212583
 20
67.60334747899999
 30
0.0
 10
122.7036062212583
 20
67.5117104690305
 30
0.0
 10
122.7210994440897
 20
67.39499929258754
 30
0.0
 10
122.8162093925219
 20
67.00222620136274
 30
0.0
 10
122.9309448163534
 20
66.67283502666174
 30
0.0
 10
123.0892404163862
 20
66.28019717040287
 30
0.0
  0
LINE
  5
156
330
6C
100
AcDbEntity
  8
Visible (ISO)
100
AcDbLine
 10
115.7036062212588
 20
67.60334747899999
 30
0.0
 11
115.7036062212588
 21
67.85109272422904
 31
0.0
  0
LINE
  5
157
330
6C
100
AcDbEntity
  8
Visible (ISO)
100
AcDbLine
 10
122.7036062212583
 20
72.85109272422904
 30
0.0
 11
122.7036062212583
 21
79.85109272422903
 31
0.0
  0
SPLINE
  5
158
330
6C
100
AcDbEntity
  8
Visible (ISO)
100
AcDbSpline
210
0.0
220
0.0
230
1.0
 70
     8
 71
     3
 72
    10
 73
     6
 74
     0
 42
0.0000000001
 43
0.0000000001
 40
1.75851045369192
 40
1.75851045369192
 40
1.75851045369192
 40
1.75851045369192
 40
1.769985036102441
 40
1.769985036102441
 40
1.77528265148158
 40
1.77528265148158
 40
1.77528265148158
 40
1.77528265148158
 10
125.8633284434802
 20
61.85109272422909
 30
0.0
 10
125.8751087155986
 20
61.85109272422909
 30
0.0
 10
125.8868927436099
 20
61.85738149083167
 30
0.0
 10
125.9036594866232
 20
61.87464874265133
 30
0.0
 10
125.9088896050777
 20
61.88127247254628
 30
0.0
 10
125.9140298556108
 20
61.88890964802908
 30
0.0
  0
LINE
  5
159
330
6C
100
AcDbEntity
  8
Visible (ISO)
100
AcDbLine
 10
125.9118101537573
 20
61.85109272422907
 30
0.0
 11
125.8633284434809
 21
61.85109272422907
 31
0.0
  0
SPLINE
  5
15A
330
6C
100
AcDbEntity
  8
Visible (ISO)
100
AcDbSpline
210
0.0
220
0.0
230
1.0
 70
     8
 71
     3
 72
     8
 73
     4
 74
     0
 42
0.0000000001
 43
0.0000000001
 40
-0.0038487373741095
 40
-0.0038487373741095
 40
-0.0038487373741095
 40
-0.0038487373741095
 40
0.0
 40
0.0
 40
0.0
 40
0.0
 10
125.9140298556108
 20
61.88890964802904
 30
0.0
 10
125.9132899603465
 20
61.8763039278278
 30
0.0
 10
125.912550059679
 20
61.86369828566046
 30
0.0
 10
125.9118101537573
 20
61.85109272422907
 30
0.0
  0
SPLINE
  5
15B
330
6C
100
AcDbEntity
  8
Visible (ISO)
100
AcDbSpline
210
0.0
220
0.0
230
1.0
 70
     8
 71
     3
 72
    10
 73
     6
 74
     0
 42
0.0000000001
 43
0.0000000001
 40
1.741738255902264
 40
1.741738255902264
 40
1.741738255902264
 40
1.741738255902264
 40
1.7470358712814
 40
1.7470358712814
 40
1.758510453691921
 40
1.758510453691921
 40
1.758510453691921
 40
1.758510453691921
 10
112.4931825869063
 20
61.88890964802904
 30
0.0
 10
112.4983228374394
 20
61.88127247254627
 30
0.0
 10
112.5035529558938
 20
61.87464874265121
 30
0.0
 10
112.5203196989071
 20
61.85738149083153
 30
0.0
 10
112.5321037269185
 20
61.85109272422907
 30
0.0
 10
112.5438839990369
 20
61.85109272422906
 30
0.0
  0
SPLINE
  5
15C
330
6C
100
AcDbEntity
  8
Visible (ISO)
100
AcDbSpline
210
0.0
220
0.0
230
1.0
 70
     8
 71
     3
 72
     8
 73
     4
 74
     0
 42
0.0000000001
 43
0.0000000001
 40
-0.0038487374224739
 40
-0.0038487374224739
 40
-0.0038487374224739
 40
-0.0038487374224739
 40
0.0
 40
0.0
 40
0.0
 40
0.0
 10
112.4954022887598
 20
61.85109272422907
 30
0.0
 10
112.4946623828348
 20
61.86369828571654
 30
0.0
 10
112.493922482164
 20
61.87630392794012
 30
0.0
 10
112.4931825869063
 20
61.88890964802904
 30
0.0
  0
LINE
  5
15D
330
6C
100
AcDbEntity
  8
Visible (ISO)
100
AcDbLine
 10
112.5438839990369
 20
61.85109272422907
 30
0.0
 11
112.4954022887601
 21
61.85109272422907
 31
0.0
  0
SPLINE
  5
15E
330
6C
100
AcDbEntity
  8
Visible (ISO)
100
AcDbSpline
210
0.0
220
0.0
230
1.0
 70
     8
 71
     3
 72
    22
 73
    18
 74
     0
 42
0.0000000001
 43
0.0000000001
 40
1.758510453691921
 40
1.758510453691921
 40
1.758510453691921
 40
1.758510453691921
 40
1.769985036102444
 40
1.769985036102444
 40
1.781459618512965
 40
1.781459618512965
 40
1.804408783334004
 40
1.804408783334004
 40
1.879967807849264
 40
1.879967807849264
 40
1.955526832364521
 40
1.955526832364521
 40
2.150713591741938
 40
2.150713591741938
 40
2.345900351119353
 40
2.345900351119353
 40
2.573780108621498
 40
2.573780108621498
 40
2.573780108621498
 40
2.573780108621498
 10
112.5438839990369
 20
61.85109272422906
 30
0.0
 10
112.5556642711553
 20
61.85109272422906
 30
0.0
 10
112.5673828636009
 20
61.85738149083189
 30
0.0
 10
112.5900786755314
 20
61.88100803119264
 30
0.0
 10
112.6010568724516
 20
61.89833633820249
 30
0.0
 10
112.6322432615596
 20
61.96178903930192
 30
0.0
 10
112.6507597067619
 20
62.01952532644079
 30
0.0
 10
112.7166636855981
 20
62.26495738510124
 30
0.0
 10
112.7536008886656
 20
62.50580421847182
 30
0.0
 10
112.8194837388896
 20
63.00476009641528
 30
0.0
 10
112.847060953164
 20
63.26482310779013
 30
0.0
 10
112.9299217883048
 20
64.12154503951244
 30
0.0
 10
112.9765427344135
 20
64.76343381571928
 30
0.0
 10
113.0616508904074
 20
66.07612214235672
 30
0.0
 10
113.0993066649812
 20
66.74753309926114
 30
0.0
 10
113.1751733243234
 20
68.22505904178917
 30
0.0
 10
113.2122973191562
 20
69.03466883423975
 30
0.0
 10
113.2470190958855
 20
69.85109272422905
 30
0.0
  0
LINE
  5
15F
330
6C
100
AcDbEntity
  8
Visible (ISO)
100
AcDbLine
 10
113.7851461453919
 20
61.85109272422907
 30
0.0
 11
112.5438839990369
 21
61.85109272422907
 31
0.0
  0
LINE
  5
160
330
6C
100
AcDbEntity
  8
Visible (ISO)
100
AcDbLine
 10
113.0268583806032
 20
70.8458363022197
 30
0.0
 11
115.7036062212588
 21
70.8458363022197
 31
0.0
  0
SPLINE
  5
161
330
6C
100
AcDbEntity
  8
Visible (ISO)
100
AcDbSpline
210
0.0
220
0.0
230
1.0
 70
     8
 71
     3
 72
    10
 73
     6
 74
     0
 42
0.0000000001
 43
0.0000000001
 40
1.026679612955202
 40
1.026679612955202
 40
1.026679612955202
 40
1.026679612955202
 40
1.0549869503969
 40
1.0549869503969
 40
1.150372975748467
 40
1.150372975748467
 40
1.150372975748467
 40
1.150372975748467
 10
113.2470190958855
 20
69.85109272422905
 30
0.0
 10
113.2325327136818
 20
69.92969798377405
 30
0.0
 10
113.2177400719628
 20
70.00734630961527
 30
0.0
 10
113.1515655400916
 20
70.34197953253297
 30
0.0
 10
113.0929083473233
 20
70.60662943772982
 30
0.0
 10
113.0268583806032
 20
70.8458363022197
 30
0.0
  0
SPLINE
  5
162
330
6C
100
AcDbEntity
  8
Visible (ISO)
100
AcDbSpline
210
0.0
220
0.0
230
1.0
 70
     8
 71
     3
 72
    22
 73
    18
 74
     0
 42
0.0000000001
 43
0.0000000001
 40
0.9432407987623507
 40
0.9432407987623507
 40
0.9432407987623507
 40
0.9432407987623507
 40
1.171120556264495
 40
1.171120556264495
 40
1.366307315641912
 40
1.366307315641912
 40
1.561494075019328
 40
1.561494075019328
 40
1.637053099534583
 40
1.637053099534583
 40
1.712612124049838
 40
1.712612124049838
 40
1.735561288870879
 40
1.735561288870879
 40
1.7470358712814
 40
1.7470358712814
 40
1.75851045369192
 40
1.75851045369192
 40
1.75851045369192
 40
1.75851045369192
 10
125.1601933466316
 20
69.85109272422905
 30
0.0
 10
125.1949151233609
 20
69.03466883423975
 30
0.0
 10
125.2320391181937
 20
68.22505904178917
 30
0.0
 10
125.3079057775359
 20
66.74753309926114
 30
0.0
 10
125.3455615521096
 20
66.07612214235671
 30
0.0
 10
125.4306697081035
 20
64.76343381571926
 30
0.0
 10
125.4772906542123
 20
64.12154503951241
 30
0.0
 10
125.5601514893531
 20
63.26482310779013
 30
0.0
 10
125.5877287036275
 20
63.00476009641528
 30
0.0
 10
125.6536115538515
 20
62.50580421847185
 30
0.0
 10
125.690548756919
 20
62.26495738510128
 30
0.0
 10
125.7564527357552
 20
62.01952532644082
 30
0.0
 10
125.7749691809575
 20
61.96178903930192
 30
0.0
 10
125.8061555700654
 20
61.89833633820249
 30
0.0
 10
125.8171337669857
 20
61.88100803119263
 30
0.0
 10
125.8398295789162
 20
61.85738149083189
 30
0.0
 10
125.8515481713618
 20
61.85109272422909
 30
0.0
 10
125.8633284434802
 20
61.85109272422909
 30
0.0
  0
SPLINE
  5
163
330
6C
100
AcDbEntity
  8
Visible (ISO)
100
AcDbSpline
210
0.0
220
0.0
230
1.0
 70
     8
 71
     3
 72
    10
 73
     6
 74
     0
 42
0.0000000001
 43
0.0000000001
 40
1.5278493950117
 40
1.5278493950117
 40
1.5278493950117
 40
1.5278493950117
 40
1.623235420363269
 40
1.623235420363269
 40
1.651542757804969
 40
1.651542757804969
 40
1.651542757804969
 40
1.651542757804969
 10
125.3803540619139
 20
70.8458363022197
 30
0.0
 10
125.3143040951938
 20
70.60662943772982
 30
0.0
 10
125.2556469024255
 20
70.34197953253299
 30
0.0
 10
125.1894723705543
 20
70.0073463096153
 30
0.0
 10
125.1746797288352
 20
69.92969798377406
 30
0.0
 10
125.1601933466316
 20
69.85109272422905
 30
0.0
  0
LINE
  5
164
330
6C
100
AcDbEntity
  8
Visible (ISO)
100
AcDbLine
 10
122.7036062212583
 20
70.8458363022197
 30
0.0
 11
125.3803540619139
 21
70.8458363022197
 31
0.0
  0
LINE
  5
165
330
6C
100
AcDbEntity
  8
Visible (ISO)
100
AcDbLine
 10
125.8633284434802
 20
61.85109272422907
 30
0.0
 11
124.6220662971252
 21
61.85109272422907
 31
0.0
  0
LINE
  5
166
330
6C
100
AcDbEntity
  8
Visible (ISO)
100
AcDbLine
 10
115.7036062212588
 20
72.85109272422904
 30
0.0
 11
115.7036062212588
 21
79.85109272422903
 31
0.0
  0
SPLINE
  5
167
330
6C
100
AcDbEntity
  8
Visible (ISO)
100
AcDbSpline
210
0.0
220
0.0
230
1.0
 70
     8
 71
     3
 72
    22
 73
    18
 74
     0
 42
0.0000000001
 43
0.0000000001
 40
0.080169667649563
 40
0.080169667649563
 40
0.080169667649563
 40
0.080169667649563
 40
0.1449225509834109
 40
0.1449225509834109
 40
0.2230755465214004
 40
0.2230755465214004
 40
0.2985369780978444
 40
0.2985369780978444
 40
0.3739984096742883
 40
0.3739984096742883
 40
0.4494598412507325
 40
0.4494598412507325
 40
0.5249212728271763
 40
0.5249212728271763
 40
0.6030742683651658
 40
0.6030742683651658
 40
0.6678271516990139
 40
0.6678271516990139
 40
0.6678271516990139
 40
0.6678271516990139
 10
116.6055300099055
 20
61.85109272422907
 30
0.0
 10
116.7039081468354
 20
62.05006927883399
 30
0.0
 10
116.8418024039911
 20
62.22718404886993
 30
0.0
 10
117.1752992938094
 20
62.54185086609062
 30
0.0
 10
117.430399303512
 20
62.702731077494
 30
0.0
 10
117.8864282227036
 20
62.90589695025722
 30
0.0
 10
118.1449147554189
 20
62.98493856714133
 30
0.0
 10
118.6777654554477
 20
63.08593498580203
 30
0.0
 10
118.9520681160038
 20
63.10831407174401
 30
0.0
 10
119.4551443265133
 20
63.10831407174401
 30
0.0
 10
119.7294469870694
 20
63.08593498580203
 30
0.0
 10
120.2622976870982
 20
62.98493856714133
 30
0.0
 10
120.5207842198135
 20
62.90589695025722
 30
0.0
 10
120.9768131390051
 20
62.702731077494
 30
0.0
 10
121.2319131487077
 20
62.54185086609062
 30
0.0
 10
121.565410038526
 20
62.22718404886993
 30
0.0
 10
121.7033042956817
 20
62.05006927883399
 30
0.0
 10
121.8016824326116
 20
61.85109272422907
 30
0.0
  0
LINE
  5
168
330
6C
100
AcDbEntity
  8
Visible (ISO)
100
AcDbLine
 10
116.6055300099054
 20
61.85109272422907
 30
0.0
 11
121.8016824326116
 21
61.85109272422907
 31
0.0
  0
LINE
  5
169
330
6C
100
AcDbEntity
  8
Visible (ISO)
100
AcDbLine
 10
112.2036062212592
 20
61.85109272422907
 30
0.0
 11
112.4954022887597
 21
61.85109272422907
 31
0.0
  0
LINE
  5
16A
330
6C
100
AcDbEntity
  8
Visible (ISO)
100
AcDbLine
 10
125.9118101537573
 20
61.85109272422907
 30
0.0
 11
126.203606221258
 21
61.85109272422907
 31
0.0
  0
LINE
  5
16B
330
6C
100
AcDbEntity
  8
Visible (ISO)
100
AcDbLine
 10
113.703606221259
 20
77.85109272422904
 30
0.0
 11
115.7036062212588
 21
77.85109272422904
 31
0.0
  0
LINE
  5
16C
330
6C
100
AcDbEntity
  8
Visible (ISO)
100
AcDbLine
 10
122.7036062212583
 20
77.85109272422904
 30
0.0
 11
124.7036062212581
 21
77.85109272422904
 31
0.0
  0
LINE
  5
16D
330
6C
100
AcDbEntity
  8
Visible (ISO)
100
AcDbLine
 10
111.7536062212592
 20
69.85109272422905
 30
0.0
 11
113.2470190958855
 21
69.85109272422905
 31
0.0
  0
LINE
  5
16E
330
6C
100
AcDbEntity
  8
Visible (ISO)
100
AcDbLine
 10
125.1601933466316
 20
69.85109272422905
 30
0.0
 11
126.6536062212579
 21
69.85109272422905
 31
0.0
  0
LINE
  5
16F
330
6C
100
AcDbEntity
  8
Visible (ISO)
100
AcDbLine
 10
124.7036062212581
 20
77.85109272422904
 30
0.0
 11
126.6536062212579
 21
69.85109272422905
 31
0.0
  0
LINE
  5
170
330
6C
100
AcDbEntity
  8
Visible (ISO)
100
AcDbLine
 10
113.703606221259
 20
77.85109272422904
 30
0.0
 11
111.7536062212592
 21
69.85109272422905
 31
0.0
  0
LINE
  5
171
330
6C
100
AcDbEntity
  8
Visible (ISO)
100
AcDbLine
 10
112.2036062212592
 20
61.85109272422907
 30
0.0
 11
111.7536062212592
 21
69.85109272422905
 31
0.0
  0
LINE
  5
172
330
6C
100
AcDbEntity
  8
Visible (ISO)
100
AcDbLine
 10
126.203606221258
 20
61.85109272422907
 30
0.0
 11
126.6536062212579
 21
69.85109272422905
 31
0.0
  0
LINE
  5
173
330
6C
100
AcDbEntity
  8
Visible (ISO)
100
AcDbLine
 10
122.7036062212585
 20
78.65109272422902
 30
0.0
 11
124.2036062212585
 21
78.65109272422903
 31
0.0
  0
LINE
  5
174
330
6C
100
AcDbEntity
  8
Visible Narrow (ISO)
100
AcDbLine
 10
124.7036062212585
 20
78.15109272422903
 30
0.0
 11
122.7036062212585
 21
78.15109272422901
 31
0.0
  0
LINE
  5
175
330
6C
100
AcDbEntity
  8
Visible (ISO)
100
AcDbLine
 10
114.2036062212586
 20
78.65109272422903
 30
0.0
 11
115.7036062212586
 21
78.65109272422902
 31
0.0
  0
LINE
  5
176
330
6C
100
AcDbEntity
  8
Visible Narrow (ISO)
100
AcDbLine
 10
115.7036062212585
 20
78.15109272422901
 30
0.0
 11
113.7036062212586
 21
78.15109272422903
 31
0.0
  0
ARC
  5
177
330
6C
100
AcDbEntity
  8
Visible (ISO)
100
AcDbCircle
 10
124.2036062212585
 20
78.15109272422903
 30
0.0
 40
0.5
100
AcDbArc
 50
0.0
 51
90.0
  0
ARC
  5
178
330
6C
100
AcDbEntity
  8
Visible (ISO)
100
AcDbCircle
 10
114.2036062212586
 20
78.15109272422903
 30
0.0
 40
0.5
100
AcDbArc
 50
90.0
 51
180.0
  0
LINE
  5
179
330
6C
100
AcDbEntity
  8
Visible (ISO)
100
AcDbLine
 10
124.7036062212585
 20
77.85109272422904
 30
0.0
 11
122.7036062212585
 21
77.851092724229
 31
0.0
  0
LINE
  5
17A
330
6C
100
AcDbEntity
  8
Visible (ISO)
100
AcDbLine
 10
115.7036062212585
 20
77.851092724229
 30
0.0
 11
113.7036062212586
 21
77.85109272422904
 31
0.0
  0
LINE
  5
17B
330
6C
100
AcDbEntity
  8
Visible (ISO)
100
AcDbLine
 10
124.7036062212585
 20
78.15109272422903
 30
0.0
 11
124.7036062212585
 21
77.85109272422904
 31
0.0
  0
LINE
  5
17C
330
6C
100
AcDbEntity
  8
Visible (ISO)
100
AcDbLine
 10
113.7036062212586
 20
78.15109272422903
 30
0.0
 11
113.7036062212586
 21
77.85109272422904
 31
0.0
  0
SPLINE
  5
17D
330
6C
100
AcDbEntity
  8
Visible (ISO)
100
AcDbSpline
210
0.0
220
0.0
230
1.0
 70
    12
 71
     2
 72
     6
 73
     3
 74
     0
 42
0.0000000001
 43
0.0000000001
 40
0.0906100100638159
 40
0.0906100100638159
 40
0.0906100100638159
 40
1.118728652180965
 40
1.118728652180965
 40
1.118728652180965
 10
106.8000792754063
 20
56.25857001234088
 30
0.0
 41
1.030578586555894
 10
108.216745942073
 20
58.71230865639681
 30
0.0
 41
1.190009648738219
 10
106.8000792754063
 20
61.16604730045271
 30
0.0
 41
1.030578586555894
  0
SPLINE
  5
17E
330
6C
100
AcDbEntity
  8
Visible (ISO)
100
AcDbSpline
210
0.0
220
0.0
230
1.0
 70
    12
 71
     2
 72
     6
 73
     3
 74
     0
 42
0.0000000001
 43
0.0000000001
 40
0.0906100100638158
 40
0.0906100100638158
 40
0.0906100100638158
 40
1.118728652180965
 40
1.118728652180965
 40
1.118728652180965
 10
106.8000792754063
 20
46.4436154361172
 30
0.0
 41
1.030578586555894
 10
108.216745942073
 20
51.35109272422905
 30
0.0
 41
1.190009648738221
 10
106.8000792754063
 20
56.25857001234088
 30
0.0
 41
1.030578586555894
  0
SPLINE
  5
17F
330
6C
100
AcDbEntity
  8
Visible (ISO)
100
AcDbSpline
210
0.0
220
0.0
230
1.0
 70
    12
 71
     2
 72
     6
 73
     3
 74
     0
 42
0.0000000001
 43
0.0000000001
 40
0.0906100100638164
 40
0.0906100100638164
 40
0.0906100100638164
 40
1.118728652180965
 40
1.118728652180965
 40
1.118728652180965
 10
106.8000792754063
 20
41.53613814800536
 30
0.0
 41
1.030578586555894
 10
108.2167459420729
 20
43.98987679206128
 30
0.0
 41
1.19000964873822
 10
106.8000792754063
 20
46.4436154361172
 30
0.0
 41
1.030578586555894
  0
LINE
  5
180
330
6C
100
AcDbEntity
  8
Visible (ISO)
100
AcDbLine
 10
107.7036062212585
 20
43.101092724229
 30
0.0
 11
106.8000792754063
 21
41.53613814800536
 31
0.0
  0
LINE
  5
181
330
6C
100
AcDbEntity
  8
Visible (ISO)
100
AcDbLine
 10
107.7036062212585
 20
59.60109272422908
 30
0.0
 11
106.8000792754063
 21
61.16604730045271
 31
0.0
  0
LINE
  5
182
330
6C
100
AcDbEntity
  8
Visible (ISO)
100
AcDbLine
 10
106.8000792754063
 20
46.4436154361172
 30
0.0
 11
95.6071331671108
 21
46.44361543611719
 31
0.0
  0
LINE
  5
183
330
6C
100
AcDbEntity
  8
Visible (ISO)
100
AcDbLine
 10
106.8000792754063
 20
41.53613814800536
 30
0.0
 11
95.6071331671108
 21
41.53613814800535
 31
0.0
  0
LINE
  5
184
330
6C
100
AcDbEntity
  8
Visible (ISO)
100
AcDbLine
 10
106.8000792754063
 20
56.25857001234088
 30
0.0
 11
95.6071331671108
 21
56.25857001234088
 31
0.0
  0
LINE
  5
185
330
6C
100
AcDbEntity
  8
Visible (ISO)
100
AcDbLine
 10
106.8000792754063
 20
61.16604730045271
 30
0.0
 11
95.6071331671108
 21
61.16604730045271
 31
0.0
  0
SPLINE
  5
186
330
6C
100
AcDbEntity
  8
Visible (ISO)
100
AcDbSpline
210
0.0
220
0.0
230
1.0
 70
    12
 71
     2
 72
     6
 73
     3
 74
     0
 42
0.0000000001
 43
0.0000000001
 40
0.0906100100638165
 40
0.0906100100638165
 40
0.0906100100638165
 40
1.118728652180968
 40
1.118728652180968
 40
1.118728652180968
 10
95.6071331671108
 20
46.44361543611719
 30
0.0
 41
1.030578586555894
 10
94.19046650044416
 20
43.98987679206125
 30
0.0
 41
1.19000964873822
 10
95.6071331671108
 20
41.53613814800535
 30
0.0
 41
1.030578586555894
  0
SPLINE
  5
187
330
6C
100
AcDbEntity
  8
Visible (ISO)
100
AcDbSpline
210
0.0
220
0.0
230
1.0
 70
    12
 71
     2
 72
     6
 73
     3
 74
     0
 42
0.0000000001
 43
0.0000000001
 40
0.0906100100638162
 40
0.0906100100638162
 40
0.0906100100638162
 40
1.118728652180968
 40
1.118728652180968
 40
1.118728652180968
 10
95.6071331671108
 20
56.25857001234088
 30
0.0
 41
1.030578586555894
 10
94.19046650044416
 20
51.35109272422901
 30
0.0
 41
1.19000964873822
 10
95.6071331671108
 20
46.44361543611719
 30
0.0
 41
1.030578586555894
  0
SPLINE
  5
188
330
6C
100
AcDbEntity
  8
Visible (ISO)
100
AcDbSpline
210
0.0
220
0.0
230
1.0
 70
    12
 71
     2
 72
     6
 73
     3
 74
     0
 42
0.0000000001
 43
0.0000000001
 40
0.0906100100638159
 40
0.0906100100638159
 40
0.0906100100638159
 40
1.118728652180965
 40
1.118728652180965
 40
1.118728652180965
 10
95.6071331671108
 20
61.16604730045271
 30
0.0
 41
1.030578586555894
 10
94.19046650044416
 20
58.71230865639677
 30
0.0
 41
1.190009648738221
 10
95.6071331671108
 20
56.25857001234088
 30
0.0
 41
1.030578586555894
  0
LINE
  5
189
330
6C
100
AcDbEntity
  8
Visible (ISO)
100
AcDbLine
 10
94.70360622125857
 20
59.60109272422906
 30
0.0
 11
94.70360622125857
 21
43.10109272422899
 31
0.0
  0
LINE
  5
18A
330
6C
100
AcDbEntity
  8
Visible (ISO)
100
AcDbLine
 10
94.70360622125857
 20
59.60109272422906
 30
0.0
 11
95.6071331671108
 21
61.16604730045271
 31
0.0
  0
LINE
  5
18B
330
6C
100
AcDbEntity
  8
Visible (ISO)
100
AcDbLine
 10
94.70360622125857
 20
43.10109272422899
 30
0.0
 11
95.6071331671108
 21
41.53613814800535
 31
0.0
  0
SPLINE
  5
18C
330
6C
100
AcDbEntity
  8
Visible (ISO)
100
AcDbSpline
210
0.0
220
0.0
230
1.0
 70
    28
 71
     2
 72
     6
 73
     3
 74
     0
 42
0.0000000001
 43
0.0000000001
 40
0.0906100100638155
 40
0.0906100100638155
 40
0.0906100100638155
 40
0.3520946063717683
 40
0.3520946063717683
 40
0.3520946063717683
 10
119.2036062212585
 20
41.53613814800542
 30
0.0
 41
1.030578586555894
 10
118.0027216959193
 20
42.22946915197566
 30
0.0
 41
1.071127182044687
 10
116.926038085594
 20
42.85109272422906
 30
0.0
 41
1.091050077953888
  0
SPLINE
  5
18D
330
6C
100
AcDbEntity
  8
Visible (ISO)
100
AcDbSpline
210
0.0
220
0.0
230
1.0
 70
    28
 71
     2
 72
     6
 73
     3
 74
     0
 42
0.0000000001
 43
0.0000000001
 40
0.8572440558730139
 40
0.8572440558730139
 40
0.8572440558730139
 40
1.118728652180965
 40
1.118728652180965
 40
1.118728652180965
 10
121.481174356923
 20
42.85109272422906
 30
0.0
 41
1.091050077953887
 10
120.4044907465978
 20
42.22946915197566
 30
0.0
 41
1.071127182044685
 10
119.2036062212585
 20
41.53613814800542
 30
0.0
 41
1.030578586555894
  0
LINE
  5
18E
330
6C
100
AcDbEntity
  8
Visible (ISO)
100
AcDbLine
 10
143.2036062213046
 20
126.9799436264882
 30
0.0
 11
143.2036062213046
 21
139.9799436264882
 31
0.0
  0
LINE
  5
18F
330
6C
100
AcDbEntity
  8
Visible (ISO)
100
AcDbLine
 10
143.7036062213046
 20
139.4799436264884
 30
0.0
 11
143.7036062213046
 21
127.4799436264882
 31
0.0
  0
LINE
  5
190
330
6C
100
AcDbEntity
  8
Visible (ISO)
100
AcDbLine
 10
143.7036062213046
 20
127.4799436264882
 30
0.0
 11
143.2036062213046
 21
126.9799436264882
 31
0.0
  0
LINE
  5
191
330
6C
100
AcDbEntity
  8
Visible (ISO)
100
AcDbLine
 10
143.7036062213046
 20
139.4799436264884
 30
0.0
 11
143.2036062213046
 21
139.9799436264882
 31
0.0
  0
SPLINE
  5
192
330
6C
100
AcDbEntity
  8
Visible (ISO)
100
AcDbSpline
210
0.0
220
0.0
230
1.0
 70
    12
 71
     2
 72
     6
 73
     3
 74
     0
 42
0.0000000001
 43
0.0000000001
 40
0.4256073096284686
 40
0.4256073096284686
 40
0.4256073096284686
 40
0.8365524254088844
 40
0.8365524254088844
 40
0.8365524254088844
 10
130.2705935194125
 20
126.0701374615487
 30
0.0
 41
1.045691116018839
 10
130.7036062213047
 20
127.7167970122931
 30
0.0
 41
1.044904085362823
 10
130.7036062213047
 20
129.2299436264904
 30
0.0
 41
1.0
  0
SPLINE
  5
193
330
6C
100
AcDbEntity
  8
Visible (ISO)
100
AcDbSpline
210
0.0
220
0.0
230
1.0
 70
    12
 71
     2
 72
     6
 73
     3
 74
     0
 42
0.0000000001
 43
0.0000000001
 40
0.4256073096284702
 40
0.4256073096284702
 40
0.4256073096284702
 40
0.8365524254088839
 40
0.8365524254088839
 40
0.8365524254088839
 10
130.2705935194125
 20
134.5701374615499
 30
0.0
 41
1.04569111601883
 10
130.7036062213047
 20
136.2167970122935
 30
0.0
 41
1.044904085362817
 10
130.7036062213047
 20
137.7299436264904
 30
0.0
 41
1.0
  0
LINE
  5
194
330
6C
100
AcDbEntity
  8
Visible (ISO)
100
AcDbLine
 10
130.2705935194125
 20
134.5701374615499
 30
0.0
 11
130.2705935194125
 21
132.389749791432
 31
0.0
  0
SPLINE
  5
195
330
6C
100
AcDbEntity
  8
Visible (ISO)
100
AcDbSpline
210
0.0
220
0.0
230
1.0
 70
    12
 71
     2
 72
     6
 73
     3
 74
     0
 42
0.0000000001
 43
0.0000000001
 40
0.8365524254088844
 40
0.8365524254088844
 40
0.8365524254088844
 40
1.2474975411893
 40
1.2474975411893
 40
1.2474975411893
 10
130.7036062213047
 20
129.2299436264904
 30
0.0
 41
1.0
 10
130.7036062213047
 20
130.7430902406879
 30
0.0
 41
1.044904085362819
 10
130.2705935194125
 20
132.389749791432
 30
0.0
 41
1.045691116018834
  0
SPLINE
  5
196
330
6C
100
AcDbEntity
  8
Visible (ISO)
100
AcDbSpline
210
0.0
220
0.0
230
1.0
 70
    12
 71
     2
 72
     6
 73
     3
 74
     0
 42
0.0000000001
 43
0.0000000001
 40
0.8365524254088839
 40
0.8365524254088839
 40
0.8365524254088839
 40
1.247497541189297
 40
1.247497541189297
 40
1.247497541189297
 10
130.7036062213047
 20
137.7299436264904
 30
0.0
 41
1.0
 10
130.7036062213047
 20
139.2430902406874
 30
0.0
 41
1.044904085362814
 10
130.2705935194125
 20
140.889749791431
 30
0.0
 41
1.04569111601883
  0
LINE
  5
197
330
6C
100
AcDbEntity
  8
Visible (ISO)
100
AcDbLine
 10
125.6366189231969
 20
126.0701374615487
 30
0.0
 11
130.2705935194125
 21
126.0701374615487
 31
0.0
  0
LINE
  5
198
330
6C
100
AcDbEntity
  8
Visible (ISO)
100
AcDbLine
 10
125.6366189231969
 20
125.542689693296
 30
0.0
 11
125.6366189231969
 21
126.0701374615487
 31
0.0
  0
ELLIPSE
  5
199
330
6C
100
AcDbEntity
  8
Visible (ISO)
100
AcDbEllipse
 10
122.8942051445462
 20
133.4799436264884
 30
0.0
 11
0.0
 21
-9.25
 31
0.0
210
0.0
220
0.0
230
1.0
 40
0.577350269189626
 41
0.4471887452263418
 42
0.5392744123179991
  0
LINE
  5
19A
330
6C
100
AcDbEntity
  8
Visible (ISO)
100
AcDbLine
 10
130.2705935194125
 20
132.389749791432
 30
0.0
 11
126.5734079419752
 21
132.389749791432
 31
0.0
  0
SPLINE
  5
19B
330
6C
100
AcDbEntity
  8
Visible (ISO)
100
AcDbSpline
210
0.0
220
0.0
230
1.0
 70
    12
 71
     2
 72
     6
 73
     3
 74
     0
 42
0.0000000001
 43
0.0000000001
 40
0.8123858579521067
 40
0.8123858579521067
 40
0.8123858579521067
 40
1.197529924693542
 40
1.197529924693542
 40
1.197529924693542
 10
125.2048313973387
 20
129.0654451967097
 30
0.0
 41
1.004365595477415
 10
125.2261977817895
 20
127.6308858861852
 30
0.0
 41
1.042884084947768
 10
125.6366189231969
 20
126.0701374615487
 30
0.0
 41
1.041774167103256
  0
LINE
  5
19C
330
6C
100
AcDbEntity
  8
Visible (ISO)
100
AcDbLine
 10
126.5734079419752
 20
134.5701374615499
 30
0.0
 11
130.2705935194125
 21
134.5701374615499
 31
0.0
  0
LINE
  5
19D
330
6C
100
AcDbEntity
  8
Visible (ISO)
100
AcDbLine
 10
130.2705935194125
 20
140.889749791431
 30
0.0
 11
125.6528486110741
 21
140.889749791431
 31
0.0
  0
SPLINE
  5
19E
330
6C
100
AcDbEntity
  8
Visible (ISO)
100
AcDbSpline
210
0.0
220
0.0
230
1.0
 70
    12
 71
     2
 72
     6
 73
     3
 74
     0
 42
0.0000000001
 43
0.0000000001
 40
0.3932061578396785
 40
0.3932061578396785
 40
0.3932061578396785
 40
0.7699378181404222
 40
0.7699378181404222
 40
0.7699378181404222
 10
125.6188647229275
 20
140.8216117274474
 30
0.0
 41
1.041803747226504
 10
125.225747966345
 20
139.2988003313577
 30
0.0
 41
1.042042755126312
 10
125.2048313973387
 20
137.8944420562711
 30
0.0
 41
1.004365595477415
  0
LINE
  5
19F
330
6C
100
AcDbEntity
  8
Visible (ISO)
100
AcDbLine
 10
125.2036062213047
 20
125.9799436264894
 30
0.0
 11
125.2036062213047
 21
129.0637801331401
 31
0.0
  0
LINE
  5
1A0
330
6C
100
AcDbEntity
  8
Visible (ISO)
100
AcDbLine
 10
125.2036062213047
 20
137.8961071198407
 30
0.0
 11
125.2036062213047
 21
139.47994362649
 31
0.0
  0
SPLINE
  5
1A1
330
6C
100
AcDbEntity
  8
Visible (ISO)
100
AcDbSpline
210
0.0
220
0.0
230
1.0
 70
    12
 71
     2
 72
     6
 73
     3
 74
     0
 42
0.0000000001
 43
0.0000000001
 40
-1.486263498190694
 40
-1.486263498190694
 40
-1.486263498190694
 40
-1.36702465746637
 40
-1.36702465746637
 40
-1.36702465746637
 10
125.2036062213434
 20
125.9799436264492
 30
0.0
 41
1.0
 10
125.4139801180198
 20
125.7613166598725
 30
0.0
 41
1.0
 10
125.6366189231969
 20
125.542689693296
 30
0.0
 41
1.0
  0
LINE
  5
1A2
330
6C
100
AcDbEntity
  8
Visible (ISO)
100
AcDbLine
 10
130.2705935194125
 20
126.0701374615487
 30
0.0
 11
130.2705935194125
 21
124.9799436264894
 31
0.0
  0
SPLINE
  5
1A3
330
6C
100
AcDbEntity
  8
Visible (ISO)
100
AcDbSpline
210
0.0
220
0.0
230
1.0
 70
    28
 71
     2
 72
     6
 73
     3
 74
     0
 42
0.0000000001
 43
0.0000000001
 40
0.8365524254088846
 40
0.8365524254088846
 40
0.8365524254088846
 40
1.2474975411893
 40
1.2474975411893
 40
1.2474975411893
 10
130.7036062213047
 20
124.9799436264884
 30
0.0
 41
1.0
 10
130.7036062213047
 20
124.9799436264887
 30
0.0
 41
1.044904085362809
 10
130.2705935194125
 20
124.9799436264894
 30
0.0
 41
1.045691116018822
  0
LINE
  5
1A4
330
6C
100
AcDbEntity
  8
Visible (ISO)
100
AcDbLine
 10
130.7036062213047
 20
124.9799436264882
 30
0.0
 11
130.7036062213047
 21
129.2299436264904
 31
0.0
  0
LINE
  5
1A5
330
6C
100
AcDbEntity
  8
Visible (ISO)
100
AcDbLine
 10
130.7036062213047
 20
129.2299436264904
 30
0.0
 11
130.7036062213047
 21
137.7299436264904
 31
0.0
  0
SPLINE
  5
1A6
330
6C
100
AcDbEntity
  8
Visible (ISO)
100
AcDbSpline
210
0.0
220
0.0
230
1.0
 70
    28
 71
     2
 72
     6
 73
     3
 74
     0
 42
0.0000000001
 43
0.0000000001
 40
0.4256073096284699
 40
0.4256073096284699
 40
0.4256073096284699
 40
0.8365524254088839
 40
0.8365524254088839
 40
0.8365524254088839
 10
130.2705935194125
 20
141.9799436264893
 30
0.0
 41
1.045691116018829
 10
130.7036062213047
 20
141.9799436264886
 30
0.0
 41
1.044904085362813
 10
130.7036062213047
 20
141.9799436264884
 30
0.0
 41
1.0
  0
LINE
  5
1A7
330
6C
100
AcDbEntity
  8
Visible (ISO)
100
AcDbLine
 10
130.2705935194125
 20
141.9799436264893
 30
0.0
 11
130.2705935194125
 21
140.889749791431
 31
0.0
  0
LINE
  5
1A8
330
6C
100
AcDbEntity
  8
Visible (ISO)
100
AcDbLine
 10
130.7036062213047
 20
137.7299436264904
 30
0.0
 11
130.7036062213047
 21
141.9799436264882
 31
0.0
  0
LINE
  5
1A9
330
6C
100
AcDbEntity
  8
Visible (ISO)
100
AcDbLine
 10
130.2705935194125
 20
124.9799436264894
 30
0.0
 11
124.1584850344966
 21
124.9799436264894
 31
0.0
  0
LINE
  5
1AA
330
6C
100
AcDbEntity
  8
Visible (ISO)
100
AcDbLine
 10
114.2487274081127
 20
124.9799436264894
 30
0.0
 11
108.1366189231969
 21
124.9799436264894
 31
0.0
  0
LINE
  5
1AB
330
6C
100
AcDbEntity
  8
Visible (ISO)
100
AcDbLine
 10
108.1366189231969
 20
126.0701374615487
 30
0.0
 11
112.7705935194124
 21
126.0701374615487
 31
0.0
  0
LINE
  5
1AC
330
6C
100
AcDbEntity
  8
Visible (ISO)
100
AcDbLine
 10
108.1366189231969
 20
124.9799436264894
 30
0.0
 11
108.1366189231969
 21
126.0701374615487
 31
0.0
  0
LINE
  5
1AD
330
6C
100
AcDbEntity
  8
Visible (ISO)
100
AcDbLine
 10
108.1366189231969
 20
140.889749791431
 30
0.0
 11
108.1366189231969
 21
141.9799436264894
 31
0.0
  0
LINE
  5
1AE
330
6C
100
AcDbEntity
  8
Visible (ISO)
100
AcDbLine
 10
108.1366189231969
 20
132.389749791432
 30
0.0
 11
108.1366189231969
 21
134.5701374615499
 31
0.0
  0
LINE
  5
1AF
330
6C
100
AcDbEntity
  8
Visible (ISO)
100
AcDbLine
 10
112.7543638315352
 20
140.889749791431
 30
0.0
 11
108.1366189231969
 21
140.889749791431
 31
0.0
  0
LINE
  5
1B0
330
6C
100
AcDbEntity
  8
Visible (ISO)
100
AcDbLine
 10
108.1366189231969
 20
141.9799436264893
 30
0.0
 11
111.5265299549125
 21
141.9799436264893
 31
0.0
  0
LINE
  5
1B1
330
6C
100
AcDbEntity
  8
Visible (ISO)
100
AcDbLine
 10
111.833804500634
 20
132.389749791432
 30
0.0
 11
108.1366189231969
 21
132.389749791432
 31
0.0
  0
LINE
  5
1B2
330
6C
100
AcDbEntity
  8
Visible (ISO)
100
AcDbLine
 10
108.1366189231969
 20
134.5701374615499
 30
0.0
 11
111.833804500634
 21
134.5701374615499
 31
0.0
  0
LINE
  5
1B3
330
6C
100
AcDbEntity
  8
Visible (ISO)
100
AcDbLine
 10
126.8806824876967
 20
141.9799436264893
 30
0.0
 11
130.2705935194125
 21
141.9799436264893
 31
0.0
  0
SPLINE
  5
1B4
330
6C
100
AcDbEntity
  8
Visible (ISO)
100
AcDbSpline
210
0.0
220
0.0
230
1.0
 70
    28
 71
     2
 72
     6
 73
     3
 74
     0
 42
0.0000000001
 43
0.0000000001
 40
0.4226777092670462
 40
0.4226777092670462
 40
0.4226777092670462
 40
0.8332926396892185
 40
0.8332926396892185
 40
0.8332926396892185
 10
108.1366189231969
 20
124.9799436264894
 30
0.0
 41
1.045413293158438
 10
107.7036062213047
 20
124.9799436264887
 30
0.0
 41
1.044765269262242
 10
107.7036062213047
 20
124.9799436264884
 30
0.0
 41
1.0
  0
SPLINE
  5
1B5
330
6C
100
AcDbEntity
  8
Visible (ISO)
100
AcDbSpline
210
0.0
220
0.0
230
1.0
 70
    28
 71
     2
 72
     6
 73
     3
 74
     0
 42
0.0000000001
 43
0.0000000001
 40
0.8332926396892174
 40
0.8332926396892174
 40
0.8332926396892174
 40
1.243907570111385
 40
1.243907570111385
 40
1.243907570111385
 10
107.7036062213047
 20
141.9799436264884
 30
0.0
 41
1.0
 10
107.7036062213047
 20
141.9799436264886
 30
0.0
 41
1.044765269262236
 10
108.1366189231969
 20
141.9799436264893
 30
0.0
 41
1.045413293158431
  0
LINE
  5
1B6
330
6C
100
AcDbEntity
  8
Visible (ISO)
100
AcDbLine
 10
107.7036062213047
 20
141.9799436264882
 30
0.0
 11
107.7036062213047
 21
137.7299436264904
 31
0.0
  0
SPLINE
  5
1B7
330
6C
100
AcDbEntity
  8
Visible (ISO)
100
AcDbSpline
210
0.0
220
0.0
230
1.0
 70
    12
 71
     2
 72
     6
 73
     3
 74
     0
 42
0.0000000001
 43
0.0000000001
 40
0.4226777092670477
 40
0.4226777092670477
 40
0.4226777092670477
 40
0.8332926396892176
 40
0.8332926396892176
 40
0.8332926396892176
 10
108.1366189231969
 20
140.889749791431
 30
0.0
 41
1.045413293158433
 10
107.7036062213047
 20
139.2430902406874
 30
0.0
 41
1.044765269262237
 10
107.7036062213047
 20
137.7299436264904
 30
0.0
 41
1.0
  0
SPLINE
  5
1B8
330
6C
100
AcDbEntity
  8
Visible (ISO)
100
AcDbSpline
210
0.0
220
0.0
230
1.0
 70
    12
 71
     2
 72
     6
 73
     3
 74
     0
 42
0.0000000001
 43
0.0000000001
 40
0.8332926396892176
 40
0.8332926396892176
 40
0.8332926396892176
 40
1.243907570111385
 40
1.243907570111385
 40
1.243907570111385
 10
107.7036062213047
 20
137.7299436264904
 30
0.0
 41
1.0
 10
107.7036062213047
 20
136.2167970122935
 30
0.0
 41
1.044765269262236
 10
108.1366189231969
 20
134.5701374615499
 30
0.0
 41
1.045413293158431
  0
LINE
  5
1B9
330
6C
100
AcDbEntity
  8
Visible (ISO)
100
AcDbLine
 10
107.7036062213047
 20
137.7299436264904
 30
0.0
 11
107.7036062213047
 21
129.2299436264904
 31
0.0
  0
SPLINE
  5
1BA
330
6C
100
AcDbEntity
  8
Visible (ISO)
100
AcDbSpline
210
0.0
220
0.0
230
1.0
 70
    12
 71
     2
 72
     6
 73
     3
 74
     0
 42
0.0000000001
 43
0.0000000001
 40
0.4226777092670467
 40
0.4226777092670467
 40
0.4226777092670467
 40
0.8332926396892183
 40
0.8332926396892183
 40
0.8332926396892183
 10
108.1366189231969
 20
132.389749791432
 30
0.0
 41
1.045413293158434
 10
107.7036062213047
 20
130.7430902406879
 30
0.0
 41
1.044765269262239
 10
107.7036062213047
 20
129.2299436264904
 30
0.0
 41
1.0
  0
SPLINE
  5
1BB
330
6C
100
AcDbEntity
  8
Visible (ISO)
100
AcDbSpline
210
0.0
220
0.0
230
1.0
 70
    12
 71
     2
 72
     6
 73
     3
 74
     0
 42
0.0000000001
 43
0.0000000001
 40
0.8332926396892183
 40
0.8332926396892183
 40
0.8332926396892183
 40
1.243907570111389
 40
1.243907570111389
 40
1.243907570111389
 10
107.7036062213047
 20
129.2299436264904
 30
0.0
 41
1.0
 10
107.7036062213047
 20
127.7167970122931
 30
0.0
 41
1.044765269262239
 10
108.1366189231969
 20
126.0701374615487
 30
0.0
 41
1.045413293158434
  0
LINE
  5
1BC
330
6C
100
AcDbEntity
  8
Visible (ISO)
100
AcDbLine
 10
107.7036062213047
 20
129.2299436264904
 30
0.0
 11
107.7036062213047
 21
124.9799436264884
 31
0.0
  0
LINE
  5
1BD
330
6C
100
AcDbEntity
  8
Visible (ISO)
100
AcDbLine
 10
113.2036062213045
 20
125.1395299676834
 30
0.0
 11
114.2141733182839
 21
125.1395299676834
 31
0.0
  0
LINE
  5
1BE
330
6C
100
AcDbEntity
  8
Visible (ISO)
100
AcDbLine
 10
124.1930391243254
 20
125.1395299676834
 30
0.0
 11
125.2036062213047
 21
125.1395299676834
 31
0.0
  0
LINE
  5
1BF
330
6C
100
AcDbEntity
  8
Visible (ISO)
100
AcDbLine
 10
113.2036062213045
 20
125.9799436264894
 30
0.0
 11
114.0252577547498
 21
125.9799436264894
 31
0.0
  0
LINE
  5
1C0
330
6C
100
AcDbEntity
  8
Visible (ISO)
100
AcDbLine
 10
124.3819546878595
 20
125.9799436264894
 30
0.0
 11
125.2036062213047
 21
125.9799436264894
 31
0.0
  0
LINE
  5
1C1
330
6C
100
AcDbEntity
  8
Visible (ISO)
100
AcDbLine
 10
125.2036062213047
 20
125.1395299676834
 30
0.0
 11
125.2036062213047
 21
125.9799436264894
 31
0.0
  0
LINE
  5
1C2
330
6C
100
AcDbEntity
  8
Visible (ISO)
100
AcDbLine
 10
113.2036062213045
 20
125.1395299676834
 30
0.0
 11
113.2036062213045
 21
125.9799436264894
 31
0.0
  0
ELLIPSE
  5
1C3
330
6C
100
AcDbEntity
  8
Visible (ISO)
100
AcDbEllipse
 10
115.5130072980632
 20
133.4799436264884
 30
0.0
 11
0.0
 21
9.25
 31
0.0
210
0.0
220
0.0
230
1.0
 40
0.577350269189626
 41
2.602318241271794
 42
2.694403908363451
  0
LINE
  5
1C4
330
6C
100
AcDbEntity
  8
Visible (ISO)
100
AcDbLine
 10
112.7705935194124
 20
126.0701374615487
 30
0.0
 11
112.7705935194124
 21
125.542689693296
 31
0.0
  0
SPLINE
  5
1C5
330
6C
100
AcDbEntity
  8
Visible (ISO)
100
AcDbSpline
210
0.0
220
0.0
230
1.0
 70
    12
 71
     2
 72
     6
 73
     3
 74
     0
 42
0.0000000001
 43
0.0000000001
 40
0.8123858579521044
 40
0.8123858579521044
 40
0.8123858579521044
 40
1.189117518252846
 40
1.189117518252846
 40
1.189117518252846
 10
113.2023810452706
 20
137.8944420562711
 30
0.0
 41
1.004365595477415
 10
113.1814644762643
 20
139.2988003313577
 30
0.0
 41
1.042042755126312
 10
112.7883477196817
 20
140.8216117274474
 30
0.0
 41
1.041803747226504
  0
SPLINE
  5
1C6
330
6C
100
AcDbEntity
  8
Visible (ISO)
100
AcDbSpline
210
0.0
220
0.0
230
1.0
 70
    12
 71
     2
 72
     6
 73
     3
 74
     0
 42
0.0000000001
 43
0.0000000001
 40
0.3847937513989829
 40
0.3847937513989829
 40
0.3847937513989829
 40
0.7699378181404203
 40
0.7699378181404203
 40
0.7699378181404203
 10
112.7705935194124
 20
126.0701374615487
 30
0.0
 41
1.041774167103256
 10
113.1810146608198
 20
127.6308858861852
 30
0.0
 41
1.042884084947768
 10
113.2023810452706
 20
129.0654451967097
 30
0.0
 41
1.004365595477415
  0
LINE
  5
1C7
330
6C
100
AcDbEntity
  8
Visible (ISO)
100
AcDbLine
 10
113.2036062213045
 20
137.8961071198407
 30
0.0
 11
113.2036062213045
 21
139.47994362649
 31
0.0
  0
LINE
  5
1C8
330
6C
100
AcDbEntity
  8
Visible (ISO)
100
AcDbLine
 10
113.2036062213045
 20
125.9799436264894
 30
0.0
 11
113.2036062213045
 21
129.0637801331401
 31
0.0
  0
SPLINE
  5
1C9
330
6C
100
AcDbEntity
  8
Visible (ISO)
100
AcDbSpline
210
0.0
220
0.0
230
1.0
 70
    12
 71
     2
 72
     6
 73
     3
 74
     0
 42
0.0000000001
 43
0.0000000001
 40
-1.486263498190694
 40
-1.486263498190694
 40
-1.486263498190694
 40
-1.36702465746637
 40
-1.36702465746637
 40
-1.36702465746637
 10
113.203606221266
 20
125.9799436264492
 30
0.0
 41
1.0
 10
112.9932323245895
 20
125.7613166598725
 30
0.0
 41
1.0
 10
112.7705935194124
 20
125.542689693296
 30
0.0
 41
1.0
  0
ELLIPSE
  5
1CA
330
6C
100
AcDbEntity
  8
Visible (ISO)
100
AcDbEllipse
 10
119.2036062213047
 20
150.4799436264882
 30
0.0
 11
0.0
 21
14.72243186433292
 31
0.0
210
0.0
220
0.0
230
1.0
 40
0.5773502691897253
 41
3.996844707048501
 42
4.002960670239064
  0
LINE
  5
1CB
330
6C
100
AcDbEntity
  8
Visible (ISO)
100
AcDbLine
 10
127.7036062213045
 20
147.9799436264882
 30
0.0
 11
110.7036062213047
 21
147.9799436264882
 31
0.0
  0
SPLINE
  5
1CC
330
6C
100
AcDbEntity
  8
Visible (ISO)
100
AcDbSpline
210
0.0
220
0.0
230
1.0
 70
     8
 71
     3
 72
     8
 73
     4
 74
     0
 42
0.0000000001
 43
0.0000000001
 40
0.8292463199719302
 40
0.8292463199719302
 40
0.8292463199719302
 40
0.8292463199719302
 40
1.069319888959278
 40
1.069319888959278
 40
1.069319888959278
 40
1.069319888959278
 10
112.7543638315352
 20
140.889749791431
 30
0.0
 10
112.2883436114546
 20
141.2953578857496
 30
0.0
 10
111.8624343285753
 20
141.6765597706171
 30
0.0
 10
111.5265299549125
 20
141.9799436264893
 30
0.0
  0
ELLIPSE
  5
1CD
330
6C
100
AcDbEntity
  8
Visible (ISO)
100
AcDbEllipse
 10
119.2036062213047
 20
150.4799436264882
 30
0.0
 11
0.0
 21
14.72243186433292
 31
0.0
210
0.0
220
0.0
230
1.0
 40
0.5773502691897253
 41
2.280224636940519
 42
2.286340600131083
  0
SPLINE
  5
1CE
330
6C
100
AcDbEntity
  8
Visible (ISO)
100
AcDbSpline
210
0.0
220
0.0
230
1.0
 70
     8
 71
     3
 72
    10
 73
     6
 74
     0
 42
0.0000000001
 43
0.0000000001
 40
2.358463870327546
 40
2.358463870327546
 40
2.358463870327546
 40
2.358463870327546
 40
2.381073897766034
 40
2.381073897766034
 40
2.502243251613869
 40
2.502243251613869
 40
2.502243251613869
 40
2.502243251613869
 10
112.7883477196817
 20
140.8216117274474
 30
0.0
 10
112.8108486515614
 20
140.753010309641
 30
0.0
 10
112.833052924482
 20
140.6847650925833
 30
0.0
 10
112.9721888486323
 20
140.2535924391392
 30
0.0
 10
113.0897629890962
 20
139.8731283969327
 30
0.0
 10
113.2036062213045
 20
139.47994362649
 30
0.0
  0
LINE
  5
1CF
330
6C
100
AcDbEntity
  8
Visible (ISO)
100
AcDbLine
 10
113.2036062213045
 20
139.47994362649
 30
0.0
 11
113.9356607014649
 21
138.74788914633
 31
0.0
  0
LINE
  5
1D0
330
6C
100
AcDbEntity
  8
Visible (ISO)
100
AcDbLine
 10
124.4715517411444
 20
138.74788914633
 30
0.0
 11
125.2036062213047
 21
139.47994362649
 31
0.0
  0
SPLINE
  5
1D1
330
6C
100
AcDbEntity
  8
Visible (ISO)
100
AcDbSpline
210
0.0
220
0.0
230
1.0
 70
     8
 71
     3
 72
    10
 73
     6
 74
     0
 42
0.0000000001
 43
0.0000000001
 40
3.664699947043588
 40
3.664699947043588
 40
3.664699947043588
 40
3.664699947043588
 40
3.785869300891423
 40
3.785869300891423
 40
3.808479328329911
 40
3.808479328329911
 40
3.808479328329911
 40
3.808479328329911
 10
125.2036062213047
 20
139.47994362649
 30
0.0
 10
125.3174494535132
 20
139.8731283969327
 30
0.0
 10
125.435023593977
 20
140.2535924391392
 30
0.0
 10
125.5741595181274
 20
140.6847650925833
 30
0.0
 10
125.5963637910479
 20
140.753010309641
 30
0.0
 10
125.6188647229276
 20
140.8216117274474
 30
0.0
  0
SPLINE
  5
1D2
330
6C
100
AcDbEntity
  8
Visible (ISO)
100
AcDbSpline
210
0.0
220
0.0
230
1.0
 70
     8
 71
     3
 72
     8
 73
     4
 74
     0
 42
0.0000000001
 43
0.0000000001
 40
4.714232720745108
 40
4.714232720745108
 40
4.714232720745108
 40
4.714232720745108
 40
4.954306289732459
 40
4.954306289732459
 40
4.954306289732459
 40
4.954306289732459
 10
126.8806824876967
 20
141.9799436264893
 30
0.0
 10
126.5448363134543
 20
141.6766122507912
 30
0.0
 10
126.1189350750095
 20
141.2954161058062
 30
0.0
 10
125.6528486110741
 20
140.889749791431
 30
0.0
  0
LINE
  5
1D3
330
6C
100
AcDbEntity
  8
Visible (ISO)
100
AcDbLine
 10
110.7036062213047
 20
141.9799436264884
 30
0.0
 11
110.7036062213047
 21
147.9799436264882
 31
0.0
  0
LINE
  5
1D4
330
6C
100
AcDbEntity
  8
Visible (ISO)
100
AcDbLine
 10
127.7036062213045
 20
141.9799436264884
 30
0.0
 11
127.7036062213045
 21
147.9799436264882
 31
0.0
  0
LINE
  5
1D5
330
6C
100
AcDbEntity
  8
Visible (ISO)
100
AcDbLine
 10
143.2036062213046
 20
126.9799436264882
 30
0.0
 11
130.7036062213047
 21
126.9799436264882
 31
0.0
  0
LINE
  5
1D6
330
6C
100
AcDbEntity
  8
Visible (ISO)
100
AcDbLine
 10
143.2036062213046
 20
139.9799436264882
 30
0.0
 11
130.7036062213047
 21
139.9799436264882
 31
0.0
  0
LINE
  5
1D7
330
6C
100
AcDbEntity
  8
Visible (ISO)
100
AcDbLine
 10
127.2036062213047
 20
148.4799436264882
 30
0.0
 11
127.7036062213045
 21
147.9799436264882
 31
0.0
  0
LINE
  5
1D8
330
6C
100
AcDbEntity
  8
Visible (ISO)
100
AcDbLine
 10
111.2036062213045
 20
148.4799436264882
 30
0.0
 11
110.7036062213047
 21
147.9799436264882
 31
0.0
  0
LINE
  5
1D9
330
6C
100
AcDbEntity
  8
Visible (ISO)
100
AcDbLine
 10
122.4753054853596
 20
113.4799436264979
 30
0.0
 11
121.7844088568718
 21
120.0633739728942
 31
0.0
  0
LINE
  5
1DA
330
6C
100
AcDbEntity
  8
Visible Narrow (ISO)
100
AcDbLine
 10
121.7844088568718
 20
120.0633739728942
 30
0.0
 11
116.6228035857375
 21
120.0633739728942
 31
0.0
  0
LINE
  5
1DB
330
6C
100
AcDbEntity
  8
Visible (ISO)
100
AcDbLine
 10
116.6228035857375
 20
120.0633739728942
 30
0.0
 11
115.9319069572497
 21
113.479943626498
 31
0.0
  0
LINE
  5
1DC
330
6C
100
AcDbEntity
  8
Visible (ISO)
100
AcDbLine
 10
115.9319069572497
 20
113.4799436264986
 30
0.0
 11
122.4753054853596
 21
113.4799436264985
 31
0.0
  0
LINE
  5
1DD
330
6C
100
AcDbEntity
  8
Visible (ISO)
100
AcDbLine
 10
122.7036062213044
 20
93.47994362650029
 30
0.0
 11
115.7036062213049
 21
93.47994362650029
 31
0.0
  0
LINE
  5
1DE
330
6C
100
AcDbEntity
  8
Visible (ISO)
100
AcDbLine
 10
122.7036062213044
 20
111.304506764962
 30
0.0
 11
122.7036062213044
 21
93.47994362650029
 31
0.0
  0
LINE
  5
1DF
330
6C
100
AcDbEntity
  8
Visible (ISO)
100
AcDbLine
 10
122.4753054853596
 20
113.4799436264985
 30
0.0
 11
122.7036062213044
 21
111.304506764962
 31
0.0
  0
LINE
  5
1E0
330
6C
100
AcDbEntity
  8
Visible (ISO)
100
AcDbLine
 10
115.7036062213049
 20
111.304506764962
 30
0.0
 11
115.9319069572497
 21
113.4799436264986
 31
0.0
  0
LINE
  5
1E1
330
6C
100
AcDbEntity
  8
Visible (ISO)
100
AcDbLine
 10
115.7036062213049
 20
93.47994362650029
 30
0.0
 11
115.7036062213049
 21
111.304506764962
 31
0.0
  0
ARC
  5
1E2
330
6C
100
AcDbEntity
  8
Visible (ISO)
100
AcDbCircle
 10
50.7036062213102
 20
111.3045067649594
 30
0.0
 40
64.99999999999471
100
AcDbArc
 50
0.0
 51
16.50009499227152
  0
ARC
  5
1E3
330
6C
100
AcDbEntity
  8
Visible (ISO)
100
AcDbCircle
 10
187.7036062212991
 20
111.3045067649592
 30
0.0
 40
64.99999999999478
100
AcDbArc
 50
163.4999050077284
 51
180.0
  0
SPLINE
  5
1E4
330
6C
100
AcDbEntity
  8
Visible (ISO)
100
AcDbSpline
210
0.0
220
0.0
230
1.0
 70
     8
 71
     3
 72
    10
 73
     6
 74
     0
 42
0.0000000001
 43
0.0000000001
 40
0.8843322889545374
 40
0.8843322889545374
 40
0.8843322889545374
 40
0.8843322889545374
 40
0.9081515042319823
 40
0.9081515042319823
 40
0.9259725475370494
 40
0.9259725475370494
 40
0.9259725475370494
 40
0.9259725475370494
 10
120.9246207021308
 20
128.2561414521425
 30
0.0
 10
120.8882477076173
 20
128.2270535531393
 30
0.0
 10
120.84897067119
 20
128.1982122972623
 30
0.0
 10
120.7756027311889
 20
128.1488206529517
 30
0.0
 10
120.7405644550127
 20
128.1269746515049
 30
0.0
 10
120.7026945781849
 20
128.1049773605849
 30
0.0
  0
SPLINE
  5
1E5
330
6C
100
AcDbEntity
  8
Visible (ISO)
100
AcDbSpline
210
0.0
220
0.0
230
1.0
 70
     8
 71
     3
 72
    10
 73
     6
 74
     0
 42
0.0000000001
 43
0.0000000001
 40
1.26072965346429
 40
1.26072965346429
 40
1.26072965346429
 40
1.26072965346429
 40
1.278550696769362
 40
1.278550696769362
 40
1.302369912046807
 40
1.302369912046807
 40
1.302369912046807
 40
1.302369912046807
 10
117.7045178644245
 20
128.1049773605849
 30
0.0
 10
117.6666479875966
 20
128.1269746515049
 30
0.0
 10
117.6316097114204
 20
128.1488206529517
 30
0.0
 10
117.5582417714192
 20
128.1982122972623
 30
0.0
 10
117.518964734992
 20
128.2270535531395
 30
0.0
 10
117.4825917404785
 20
128.2561414521425
 30
0.0
  0
LINE
  5
1E6
330
6C
100
AcDbEntity
  8
Visible (ISO)
100
AcDbLine
 10
120.9246207021308
 20
128.2561414521425
 30
0.0
 11
121.7844088568718
 21
120.0633739728942
 31
0.0
  0
LINE
  5
1E7
330
6C
100
AcDbEntity
  8
Visible (ISO)
100
AcDbLine
 10
116.6228035857375
 20
120.0633739728942
 30
0.0
 11
117.4825917404785
 21
128.2561414521424
 31
0.0
  0
ARC
  5
1E8
330
6C
100
AcDbEntity
  8
Visible (ISO)
100
AcDbCircle
 10
119.2036062213047
 20
133.479943626494
 30
0.0
 40
7.207531252864155
100
AcDbArc
 50
285.3041237151069
 51
328.9797515566903
  0
ARC
  5
1E9
330
6C
100
AcDbEntity
  8
Visible (ISO)
100
AcDbCircle
 10
119.2036062213047
 20
133.479943626494
 30
0.0
 40
7.207531252864155
100
AcDbArc
 50
211.0202484433095
 51
254.6958762848929
  0
ARC
  5
1EA
330
6C
100
AcDbEntity
  8
Visible (ISO)
100
AcDbCircle
 10
119.2036062213047
 20
133.4799436264937
 30
0.0
 40
7.449999999999352
100
AcDbArc
 50
323.0863788866291
 51
216.9136211133707
  0
ARC
  5
1EB
330
6C
100
AcDbEntity
  8
Visible (ISO)
100
AcDbCircle
 10
118.2036062213047
 20
132.4799436264963
 30
0.0
 40
1.999999999999993
100
AcDbArc
 50
180.0
 51
270.0
  0
LINE
  5
1EC
330
6C
100
AcDbEntity
  8
Visible (ISO)
100
AcDbLine
 10
118.2036062213047
 20
130.4799436264962
 30
0.0
 11
121.7036062213047
 21
130.4799436264963
 31
0.0
  0
LINE
  5
1ED
330
6C
100
AcDbEntity
  8
Visible (ISO)
100
AcDbLine
 10
121.7036062213047
 20
130.4799436264962
 30
0.0
 11
121.7036062213047
 21
129.9799436264962
 31
0.0
  0
LINE
  5
1EE
330
6C
100
AcDbEntity
  8
Visible (ISO)
100
AcDbLine
 10
121.7036062213047
 20
129.9799436264962
 30
0.0
 11
122.7036062213047
 21
130.9799436264962
 31
0.0
  0
LINE
  5
1EF
330
6C
100
AcDbEntity
  8
Visible (ISO)
100
AcDbLine
 10
122.7036062213047
 20
130.9799436264962
 30
0.0
 11
121.7036062213047
 21
131.9799436264962
 31
0.0
  0
LINE
  5
1F0
330
6C
100
AcDbEntity
  8
Visible (ISO)
100
AcDbLine
 10
121.7036062213047
 20
131.9799436264962
 30
0.0
 11
121.7036062213047
 21
131.4799436264962
 31
0.0
  0
LINE
  5
1F1
330
6C
100
AcDbEntity
  8
Visible (ISO)
100
AcDbLine
 10
121.7036062213047
 20
131.4799436264962
 30
0.0
 11
118.7036062213047
 21
131.4799436264962
 31
0.0
  0
ARC
  5
1F2
330
6C
100
AcDbEntity
  8
Visible (ISO)
100
AcDbCircle
 10
118.7036062213047
 20
132.9799436264962
 30
0.0
 40
1.499999999999995
100
AcDbArc
 50
180.0
 51
270.0
  0
LINE
  5
1F3
330
6C
100
AcDbEntity
  8
Visible (ISO)
100
AcDbLine
 10
117.2036062213047
 20
132.9799436264962
 30
0.0
 11
117.2036062213047
 21
135.9799436264962
 31
0.0
  0
LINE
  5
1F4
330
6C
100
AcDbEntity
  8
Visible (ISO)
100
AcDbLine
 10
117.2036062213047
 20
135.9799436264962
 30
0.0
 11
117.7036062213047
 21
135.9799436264962
 31
0.0
  0
LINE
  5
1F5
330
6C
100
AcDbEntity
  8
Visible (ISO)
100
AcDbLine
 10
117.7036062213047
 20
135.9799436264962
 30
0.0
 11
116.7036062213047
 21
136.9799436264962
 31
0.0
  0
LINE
  5
1F6
330
6C
100
AcDbEntity
  8
Visible (ISO)
100
AcDbLine
 10
116.7036062213047
 20
136.9799436264962
 30
0.0
 11
115.7036062213047
 21
135.9799436264962
 31
0.0
  0
LINE
  5
1F7
330
6C
100
AcDbEntity
  8
Visible (ISO)
100
AcDbLine
 10
115.7036062213047
 20
135.9799436264962
 30
0.0
 11
116.2036062213047
 21
135.9799436264962
 31
0.0
  0
LINE
  5
1F8
330
6C
100
AcDbEntity
  8
Visible (ISO)
100
AcDbLine
 10
116.2036062213047
 20
135.9799436264962
 30
0.0
 11
116.2036062213047
 21
132.4799436264963
 31
0.0
  0
ARC
  5
1F9
330
6C
100
AcDbEntity
  8
Visible Narrow (ISO)
100
AcDbCircle
 10
119.2036062213047
 20
133.4799436264962
 30
0.0
 40
4.999999999999986
100
AcDbArc
 50
281.5369590328153
 51
78.46304096718461
  0
SPLINE
  5
1FA
330
6C
100
AcDbEntity
  8
Visible (ISO)
100
AcDbSpline
210
0.0
220
0.0
230
1.0
 70
     8
 71
     3
 72
    18
 73
    14
 74
     0
 42
0.0000000001
 43
0.0000000001
 40
-0.0894071042414384
 40
-0.0894071042414384
 40
-0.0894071042414384
 40
-0.0894071042414384
 40
-0.0890024393096829
 40
-0.0890024393096829
 40
-0.071331341192769
 40
-0.071331341192769
 40
-0.054286520760514
 40
-0.054286520760514
 40
-0.033079826196916
 40
-0.033079826196916
 40
-0.0157603010710298
 40
-0.0157603010710298
 40
0.0
 40
0.0
 40
0.0
 40
0.0
 10
120.2036062213047
 20
128.58096414093
 30
0.0
 10
120.204658569032
 20
128.5801049026086
 30
0.0
 10
120.2057110289944
 20
128.5792457987044
 30
0.0
 10
120.2527271155806
 20
128.5408775098919
 30
0.0
 10
120.2989951954835
 20
128.5035582033414
 30
0.0
 10
120.3877599596161
 20
128.4327226610891
 30
0.0
 10
120.430496920453
 20
128.3989870945632
 30
0.0
 10
120.520914403621
 20
128.3282445232996
 30
0.0
 10
120.567267564177
 20
128.2924437160446
 30
0.0
 10
120.6369363325725
 20
128.2390260003554
 30
0.0
 10
120.6624720197744
 20
128.2196112540525
 30
0.0
 10
120.6953298822475
 20
128.1946876924152
 30
0.0
 10
120.7036062213045
 20
128.1884410043669
 30
0.0
 10
120.7036062213045
 20
128.1884410043669
 30
0.0
  0
ARC
  5
1FB
330
6C
100
AcDbEntity
  8
Visible (ISO)
100
AcDbCircle
 10
119.2036062213047
 20
133.4799436264962
 30
0.0
 40
5.499999999999983
100
AcDbArc
 50
285.8266201318723
 51
74.17337986812781
  0
SPLINE
  5
1FC
330
6C
100
AcDbEntity
  8
Visible (ISO)
100
AcDbSpline
210
0.0
220
0.0
230
1.0
 70
     8
 71
     3
 72
    18
 73
    14
 74
     0
 42
0.0000000001
 43
0.0000000001
 40
-0.0896419378859127
 40
-0.0896419378859127
 40
-0.0896419378859127
 40
-0.0896419378859127
 40
-0.0737683962096255
 40
-0.0737683962096255
 40
-0.0563244271724696
 40
-0.0563244271724696
 40
-0.0349653586842182
 40
-0.0349653586842182
 40
-0.0177980681434567
 40
-0.0177980681434567
 40
0.0
 40
0.0
 40
0.0004075725222773
 40
0.0004075725222773
 40
0.0004075725222773
 40
0.0004075725222773
 10
120.7036062213047
 20
138.7714462486252
 30
0.0
 10
120.7036062213047
 20
138.7714462486254
 30
0.0
 10
120.6953298822475
 20
138.765199560577
 30
0.0
 10
120.6624720197744
 20
138.7402759989397
 30
0.0
 10
120.6369363325725
 20
138.720861252637
 30
0.0
 10
120.567267564177
 20
138.6674435369478
 30
0.0
 10
120.520914403621
 20
138.6316427296929
 30
0.0
 10
120.430496920453
 20
138.5609001584292
 30
0.0
 10
120.3877599596161
 20
138.5271645919033
 30
0.0
 10
120.2989951954837
 20
138.4563290496511
 30
0.0
 10
120.2527271155815
 20
138.4190097431014
 30
0.0
 10
120.2057110289944
 20
138.3806414542881
 30
0.0
 10
120.2046585690321
 20
138.3797823503841
 30
0.0
 10
120.2036062213047
 20
138.3789231120626
 30
0.0
  0
LINE
  5
1FD
330
6C
100
AcDbEntity
  8
Visible Narrow (ISO)
100
AcDbLine
 10
120.7036062213047
 20
128.0716167133001
 30
0.0
 11
120.2036062213047
 21
128.0716167133004
 31
0.0
  0
LINE
  5
1FE
330
6C
100
AcDbEntity
  8
Visible (ISO)
100
AcDbLine
 10
120.7036062213047
 20
128.0716167133001
 30
0.0
 11
120.7036062213047
 21
128.1884410043669
 31
0.0
  0
LINE
  5
1FF
330
6C
100
AcDbEntity
  8
Visible Narrow (ISO)
100
AcDbLine
 10
120.2036062213047
 20
128.58096414093
 30
0.0
 11
120.2036062213047
 21
128.0716167133004
 31
0.0
  0
LINE
  5
200
330
6C
100
AcDbEntity
  8
Visible Narrow (ISO)
100
AcDbLine
 10
120.2036062213047
 20
138.8882705396922
 30
0.0
 11
120.7036062213047
 21
138.888270539692
 31
0.0
  0
LINE
  5
201
330
6C
100
AcDbEntity
  8
Visible Narrow (ISO)
100
AcDbLine
 10
120.2036062213047
 20
138.8882705396922
 30
0.0
 11
120.2036062213047
 21
138.3789231120626
 31
0.0
  0
LINE
  5
202
330
6C
100
AcDbEntity
  8
Visible (ISO)
100
AcDbLine
 10
120.7036062213047
 20
138.7714462486252
 30
0.0
 11
120.7036062213047
 21
138.888270539692
 31
0.0
  0
LINE
  5
203
330
6C
100
AcDbEntity
  8
Visible Narrow (ISO)
100
AcDbLine
 10
120.2945153122138
 20
139.3799366227097
 30
0.0
 11
120.2036062213047
 21
138.8882705396922
 31
0.0
  0
ARC
  5
204
330
6C
100
AcDbEntity
  8
Visible (ISO)
100
AcDbCircle
 10
119.2036062213047
 20
133.4799436264962
 30
0.0
 40
5.999999999999943
100
AcDbArc
 50
79.52431830361006
 51
100.4756816963898
  0
LINE
  5
205
330
6C
100
AcDbEntity
  8
Visible Narrow (ISO)
100
AcDbLine
 10
118.2036062213047
 20
138.8882705396922
 30
0.0
 11
118.1126971303956
 21
139.3799366227097
 31
0.0
  0
ARC
  5
206
330
6C
100
AcDbEntity
  8
Visible Narrow (ISO)
100
AcDbCircle
 10
119.2036062213047
 20
133.4799436264962
 30
0.0
 40
5.499999999999978
100
AcDbArc
 50
79.52431830361014
 51
100.4756816963897
  0
ARC
  5
207
330
6C
100
AcDbEntity
  8
Visible (ISO)
100
AcDbCircle
 10
120.2036062213047
 20
138.888270539692
 30
0.0
 40
0.4999999999999976
100
AcDbArc
 50
0.0
 51
79.52431830361145
  0
LINE
  5
208
330
6C
100
AcDbEntity
  8
Visible Narrow (ISO)
100
AcDbLine
 10
118.2036062213047
 20
128.0716167133004
 30
0.0
 11
117.7036062213047
 21
128.0716167133001
 31
0.0
  0
LINE
  5
209
330
6C
100
AcDbEntity
  8
Visible Narrow (ISO)
100
AcDbLine
 10
118.2036062213047
 20
128.0716167133004
 30
0.0
 11
118.2036062213047
 21
128.58096414093
 31
0.0
  0
SPLINE
  5
20A
330
6C
100
AcDbEntity
  8
Visible (ISO)
100
AcDbSpline
210
0.0
220
0.0
230
1.0
 70
     8
 71
     3
 72
    18
 73
    14
 74
     0
 42
0.0000000001
 43
0.0000000001
 40
-0.0004075725222822
 40
-0.0004075725222822
 40
-0.0004075725222822
 40
-0.0004075725222822
 40
0.0
 40
0.0
 40
0.0177980681435137
 40
0.0177980681435137
 40
0.0349653586843403
 40
0.0349653586843403
 40
0.0563244271726714
 40
0.0563244271726714
 40
0.0737683962098895
 40
0.0737683962098895
 40
0.0896419378862371
 40
0.0896419378862371
 40
0.0896419378862371
 40
0.0896419378862371
 10
118.2036062213047
 20
128.58096414093
 30
0.0
 10
118.2025538735771
 20
128.5801049026086
 30
0.0
 10
118.201501413615
 20
128.5792457987044
 30
0.0
 10
118.1544853270275
 20
128.5408775098909
 30
0.0
 10
118.1082172471256
 20
128.5035582033414
 30
0.0
 10
118.0194524829932
 20
128.4327226610891
 30
0.0
 10
117.9767155221564
 20
128.3989870945632
 30
0.0
 10
117.8862980389883
 20
128.3282445232996
 30
0.0
 10
117.8399448784323
 20
128.2924437160446
 30
0.0
 10
117.7702761100367
 20
128.2390260003554
 30
0.0
 10
117.7447404228349
 20
128.2196112540525
 30
0.0
 10
117.7118825603618
 20
128.1946876924152
 30
0.0
 10
117.7036062213047
 20
128.1884410043669
 30
0.0
 10
117.7036062213047
 20
128.1884410043669
 30
0.0
  0
LINE
  5
20B
330
6C
100
AcDbEntity
  8
Visible (ISO)
100
AcDbLine
 10
117.7036062213047
 20
128.1884410043669
 30
0.0
 11
117.7036062213047
 21
128.0716167133001
 31
0.0
  0
ARC
  5
20C
330
6C
100
AcDbEntity
  8
Visible Narrow (ISO)
100
AcDbCircle
 10
119.2036062213047
 20
133.4799436264962
 30
0.0
 40
4.999999999999986
100
AcDbArc
 50
101.5369590328153
 51
258.4630409671845
  0
SPLINE
  5
20D
330
6C
100
AcDbEntity
  8
Visible (ISO)
100
AcDbSpline
210
0.0
220
0.0
230
1.0
 70
     8
 71
     3
 72
    18
 73
    14
 74
     0
 42
0.0000000001
 43
0.0000000001
 40
-0.0894071042413794
 40
-0.0894071042413794
 40
-0.0894071042413794
 40
-0.0894071042413794
 40
-0.0890024393096068
 40
-0.0890024393096068
 40
-0.0713313411927872
 40
-0.0713313411927872
 40
-0.054286520760529
 40
-0.054286520760529
 40
-0.0330798261969246
 40
-0.0330798261969246
 40
-0.0157603010710319
 40
-0.0157603010710319
 40
0.0
 40
0.0
 40
0.0
 40
0.0
 10
118.2036062213047
 20
138.3789231120626
 30
0.0
 10
118.2025538735771
 20
138.3797823503841
 30
0.0
 10
118.201501413615
 20
138.3806414542881
 30
0.0
 10
118.1544853270272
 20
138.4190097431018
 30
0.0
 10
118.1082172471255
 20
138.4563290496512
 30
0.0
 10
118.0194524829932
 20
138.5271645919033
 30
0.0
 10
117.9767155221564
 20
138.5609001584292
 30
0.0
 10
117.8862980389883
 20
138.6316427296929
 30
0.0
 10
117.8399448784323
 20
138.6674435369478
 30
0.0
 10
117.7702761100367
 20
138.720861252637
 30
0.0
 10
117.7447404228349
 20
138.7402759989397
 30
0.0
 10
117.7118825603618
 20
138.765199560577
 30
0.0
 10
117.7036062213047
 20
138.7714462486254
 30
0.0
 10
117.7036062213047
 20
138.7714462486252
 30
0.0
  0
ARC
  5
20E
330
6C
100
AcDbEntity
  8
Visible (ISO)
100
AcDbCircle
 10
119.2036062213047
 20
133.4799436264962
 30
0.0
 40
5.499999999999985
100
AcDbArc
 50
105.8266201318723
 51
254.1733798681277
  0
LINE
  5
20F
330
6C
100
AcDbEntity
  8
Visible Narrow (ISO)
100
AcDbLine
 10
117.7036062213047
 20
138.888270539692
 30
0.0
 11
118.2036062213047
 21
138.8882705396922
 31
0.0
  0
LINE
  5
210
330
6C
100
AcDbEntity
  8
Visible (ISO)
100
AcDbLine
 10
117.7036062213047
 20
138.888270539692
 30
0.0
 11
117.7036062213047
 21
138.7714462486252
 31
0.0
  0
LINE
  5
211
330
6C
100
AcDbEntity
  8
Visible Narrow (ISO)
100
AcDbLine
 10
118.2036062213047
 20
138.3789231120626
 30
0.0
 11
118.2036062213047
 21
138.8882705396922
 31
0.0
  0
ARC
  5
212
330
6C
100
AcDbEntity
  8
Visible (ISO)
100
AcDbCircle
 10
118.2036062213047
 20
138.888270539692
 30
0.0
 40
0.5000000000000009
100
AcDbArc
 50
100.4756816963904
 51
180.0
  0
LINE
  5
213
330
6C
100
AcDbEntity
  8
Visible Narrow (ISO)
100
AcDbLine
 10
118.1126971303956
 20
127.5799506302824
 30
0.0
 11
118.2036062213047
 21
128.0716167133004
 31
0.0
  0
ARC
  5
214
330
6C
100
AcDbEntity
  8
Visible (ISO)
100
AcDbCircle
 10
119.2036062213047
 20
133.479943626496
 30
0.0
 40
5.999999999999957
100
AcDbArc
 50
259.52431830361
 51
280.4756816963898
  0
LINE
  5
215
330
6C
100
AcDbEntity
  8
Visible Narrow (ISO)
100
AcDbLine
 10
120.2036062213047
 20
128.0716167133004
 30
0.0
 11
120.2945153122138
 21
127.5799506302824
 31
0.0
  0
ARC
  5
216
330
6C
100
AcDbEntity
  8
Visible Narrow (ISO)
100
AcDbCircle
 10
119.2036062213047
 20
133.4799436264962
 30
0.0
 40
5.499999999999985
100
AcDbArc
 50
259.5243183036101
 51
280.4756816963898
  0
ARC
  5
217
330
6C
100
AcDbEntity
  8
Visible (ISO)
100
AcDbCircle
 10
118.2036062213047
 20
128.0716167133001
 30
0.0
 40
0.4999999999999992
100
AcDbArc
 50
180.0
 51
259.5243183036096
  0
ARC
  5
218
330
6C
100
AcDbEntity
  8
Visible (ISO)
100
AcDbCircle
 10
120.2036062213047
 20
128.0716167133001
 30
0.0
 40
0.4999999999999973
100
AcDbArc
 50
280.4756816963905
 51
0.0
  0
SPLINE
  5
219
330
6C
100
AcDbEntity
  8
Visible (ISO)
100
AcDbSpline
210
0.0
220
0.0
230
1.0
 70
    12
 71
     2
 72
     6
 73
     3
 74
     0
 42
0.0000000001
 43
0.0000000001
 40
0.0906100100638158
 40
0.0906100100638158
 40
0.0906100100638158
 40
1.118728652180965
 40
1.118728652180965
 40
1.118728652180965
 10
106.8000792754524
 20
133.4799436264911
 30
0.0
 41
1.030578586555894
 10
108.2167459421191
 20
137.7299436264904
 30
0.0
 41
1.190009648738221
 10
106.8000792754524
 20
141.9799436264898
 30
0.0
 41
1.030578586555894
  0
SPLINE
  5
21A
330
6C
100
AcDbEntity
  8
Visible (ISO)
100
AcDbSpline
210
0.0
220
0.0
230
1.0
 70
    12
 71
     2
 72
     6
 73
     3
 74
     0
 42
0.0000000001
 43
0.0000000001
 40
0.0906100100638159
 40
0.0906100100638159
 40
0.0906100100638159
 40
1.118728652180965
 40
1.118728652180965
 40
1.118728652180965
 10
106.8000792754524
 20
124.9799436264898
 30
0.0
 41
1.030578586555894
 10
108.2167459421191
 20
129.2299436264904
 30
0.0
 41
1.190009648738219
 10
106.8000792754524
 20
133.4799436264911
 30
0.0
 41
1.030578586555894
  0
SPLINE
  5
21B
330
6C
100
AcDbEntity
  8
Visible (ISO)
100
AcDbSpline
210
0.0
220
0.0
230
1.0
 70
    28
 71
     2
 72
     6
 73
     3
 74
     0
 42
0.0000000001
 43
0.0000000001
 40
0.6046693311223929
 40
0.6046693311223929
 40
0.6046693311223929
 40
1.118728652180965
 40
1.118728652180965
 40
1.118728652180965
 10
107.5592686540072
 20
124.9799436264882
 30
0.0
 41
1.110294117647057
 10
107.5592686540072
 20
124.9799436264889
 30
0.0
 41
1.110294117647057
 10
106.8000792754524
 20
124.9799436264898
 30
0.0
 41
1.030578586555894
  0
SPLINE
  5
21C
330
6C
100
AcDbEntity
  8
Visible (ISO)
100
AcDbSpline
210
0.0
220
0.0
230
1.0
 70
    28
 71
     2
 72
     6
 73
     3
 74
     0
 42
0.0000000001
 43
0.0000000001
 40
0.0906100100638158
 40
0.0906100100638158
 40
0.0906100100638158
 40
0.6046693311223921
 40
0.6046693311223921
 40
0.6046693311223921
 10
106.8000792754524
 20
141.9799436264898
 30
0.0
 41
1.030578586555894
 10
107.5592686540072
 20
141.9799436264889
 30
0.0
 41
1.110294117647057
 10
107.5592686540072
 20
141.9799436264884
 30
0.0
 41
1.110294117647057
  0
LINE
  5
21D
330
6C
100
AcDbEntity
  8
Visible (ISO)
100
AcDbLine
 10
107.7036062213047
 20
125.2299436264882
 30
0.0
 11
107.5592686540072
 21
124.9799436264882
 31
0.0
  0
LINE
  5
21E
330
6C
100
AcDbEntity
  8
Visible (ISO)
100
AcDbLine
 10
107.7036062213047
 20
141.7299436264884
 30
0.0
 11
107.5592686540072
 21
141.9799436264884
 31
0.0
  0
LINE
  5
21F
330
6C
100
AcDbEntity
  8
Visible (ISO)
100
AcDbLine
 10
106.8000792754524
 20
124.9799436264898
 30
0.0
 11
95.60713316715693
 21
124.9799436264898
 31
0.0
  0
LINE
  5
220
330
6C
100
AcDbEntity
  8
Visible (ISO)
100
AcDbLine
 10
106.8000792754524
 20
133.4799436264911
 30
0.0
 11
95.60713316715693
 21
133.4799436264911
 31
0.0
  0
LINE
  5
221
330
6C
100
AcDbEntity
  8
Visible (ISO)
100
AcDbLine
 10
106.8000792754524
 20
141.9799436264898
 30
0.0
 11
95.60713316715693
 21
141.9799436264898
 31
0.0
  0
SPLINE
  5
222
330
6C
100
AcDbEntity
  8
Visible (ISO)
100
AcDbSpline
210
0.0
220
0.0
230
1.0
 70
    28
 71
     2
 72
     6
 73
     3
 74
     0
 42
0.0000000001
 43
0.0000000001
 40
0.0906100100638162
 40
0.0906100100638162
 40
0.0906100100638162
 40
0.604669331122391
 40
0.604669331122391
 40
0.604669331122391
 10
95.60713316715693
 20
124.9799436264898
 30
0.0
 41
1.030578586555894
 10
94.84794378860206
 20
124.9799436264889
 30
0.0
 41
1.110294117647057
 10
94.84794378860206
 20
124.9799436264882
 30
0.0
 41
1.110294117647057
  0
SPLINE
  5
223
330
6C
100
AcDbEntity
  8
Visible (ISO)
100
AcDbSpline
210
0.0
220
0.0
230
1.0
 70
    12
 71
     2
 72
     6
 73
     3
 74
     0
 42
0.0000000001
 43
0.0000000001
 40
0.0906100100638159
 40
0.0906100100638159
 40
0.0906100100638159
 40
1.118728652180965
 40
1.118728652180965
 40
1.118728652180965
 10
95.60713316715693
 20
133.4799436264911
 30
0.0
 41
1.030578586555894
 10
94.19046650049029
 20
129.2299436264904
 30
0.0
 41
1.190009648738221
 10
95.60713316715693
 20
124.9799436264898
 30
0.0
 41
1.030578586555894
  0
SPLINE
  5
224
330
6C
100
AcDbEntity
  8
Visible (ISO)
100
AcDbSpline
210
0.0
220
0.0
230
1.0
 70
    12
 71
     2
 72
     6
 73
     3
 74
     0
 42
0.0000000001
 43
0.0000000001
 40
0.0906100100638164
 40
0.0906100100638164
 40
0.0906100100638164
 40
1.118728652180965
 40
1.118728652180965
 40
1.118728652180965
 10
95.60713316715693
 20
141.9799436264898
 30
0.0
 41
1.030578586555894
 10
94.19046650049029
 20
137.7299436264904
 30
0.0
 41
1.19000964873822
 10
95.60713316715693
 20
133.4799436264911
 30
0.0
 41
1.030578586555894
  0
SPLINE
  5
225
330
6C
100
AcDbEntity
  8
Visible (ISO)
100
AcDbSpline
210
0.0
220
0.0
230
1.0
 70
    28
 71
     2
 72
     6
 73
     3
 74
     0
 42
0.0000000001
 43
0.0000000001
 40
0.6046693311223918
 40
0.6046693311223918
 40
0.6046693311223918
 40
1.118728652180965
 40
1.118728652180965
 40
1.118728652180965
 10
94.84794378860206
 20
141.9799436264884
 30
0.0
 41
1.110294117647057
 10
94.84794378860206
 20
141.9799436264889
 30
0.0
 41
1.110294117647057
 10
95.60713316715693
 20
141.9799436264898
 30
0.0
 41
1.030578586555894
  0
LINE
  5
226
330
6C
100
AcDbEntity
  8
Visible (ISO)
100
AcDbLine
 10
94.70360622130469
 20
141.7299436264884
 30
0.0
 11
94.70360622130469
 21
125.2299436264882
 31
0.0
  0
LINE
  5
227
330
6C
100
AcDbEntity
  8
Visible (ISO)
100
AcDbLine
 10
94.70360622130469
 20
141.7299436264884
 30
0.0
 11
94.84794378860206
 21
141.9799436264884
 31
0.0
  0
LINE
  5
228
330
6C
100
AcDbEntity
  8
Visible (ISO)
100
AcDbLine
 10
94.70360622130469
 20
125.2299436264882
 30
0.0
 11
94.84794378860206
 21
124.9799436264882
 31
0.0
  0
LINE
  5
229
330
6C
100
AcDbEntity
  8
Visible (ISO)
100
AcDbLine
 10
123.2036062213045
 20
168.4799436264882
 30
0.0
 11
115.2036062213045
 21
168.4799436264882
 31
0.0
  0
LINE
  5
22A
330
6C
100
AcDbEntity
  8
Visible (ISO)
100
AcDbLine
 10
114.3793298372955
 20
167.0522550499053
 30
0.0
 11
124.0278826053138
 21
167.0522550499053
 31
0.0
  0
LINE
  5
22B
330
6C
100
AcDbEntity
  8
Visible (ISO)
100
AcDbLine
 10
123.2036062213045
 20
168.4799436264882
 30
0.0
 11
124.0278826053138
 21
167.0522550499053
 31
0.0
  0
LINE
  5
22C
330
6C
100
AcDbEntity
  8
Visible (ISO)
100
AcDbLine
 10
115.2036062213045
 20
168.4799436264882
 30
0.0
 11
114.3793298372955
 21
167.0522550499053
 31
0.0
  0
LINE
  5
22D
330
6C
100
AcDbEntity
  8
Visible (ISO)
100
AcDbLine
 10
110.9536062213047
 20
148.4799436264882
 30
0.0
 11
127.4536062213047
 21
148.4799436264882
 31
0.0
  0
SPLINE
  5
22E
330
6C
100
AcDbEntity
  8
Visible (ISO)
100
AcDbSpline
210
0.0
220
0.0
230
1.0
 70
    28
 71
     2
 72
     6
 73
     3
 74
     0
 42
0.0000000001
 43
0.0000000001
 40
0.0906100100638152
 40
0.0906100100638152
 40
0.0906100100638152
 40
0.6046693311223919
 40
0.6046693311223919
 40
0.6046693311223919
 10
127.7036062213046
 20
149.3834705723419
 30
0.0
 41
1.030578586555894
 10
127.7036062213045
 20
148.6242811937863
 30
0.0
 41
1.110294117647057
 10
127.7036062213045
 20
148.6242811937856
 30
0.0
 41
1.110294117647057
  0
SPLINE
  5
22F
330
6C
100
AcDbEntity
  8
Visible (ISO)
100
AcDbSpline
210
0.0
220
0.0
230
1.0
 70
    12
 71
     2
 72
     6
 73
     3
 74
     0
 42
0.0000000001
 43
0.0000000001
 40
0.0906100100638154
 40
0.0906100100638154
 40
0.0906100100638154
 40
1.118728652180965
 40
1.118728652180965
 40
1.118728652180965
 10
119.2036062213047
 20
149.3834705723434
 30
0.0
 41
1.030578586555894
 10
123.4536062213047
 20
147.966803905676
 30
0.0
 41
1.190009648738221
 10
127.7036062213046
 20
149.3834705723419
 30
0.0
 41
1.030578586555894
  0
SPLINE
  5
230
330
6C
100
AcDbEntity
  8
Visible (ISO)
100
AcDbSpline
210
0.0
220
0.0
230
1.0
 70
    12
 71
     2
 72
     6
 73
     3
 74
     0
 42
0.0000000001
 43
0.0000000001
 40
0.0906100100638166
 40
0.0906100100638166
 40
0.0906100100638166
 40
1.118728652180968
 40
1.118728652180968
 40
1.118728652180968
 10
110.7036062213047
 20
149.3834705723419
 30
0.0
 41
1.030578586555894
 10
114.9536062213047
 20
147.966803905676
 30
0.0
 41
1.190009648738221
 10
119.2036062213047
 20
149.3834705723434
 30
0.0
 41
1.030578586555894
  0
SPLINE
  5
231
330
6C
100
AcDbEntity
  8
Visible (ISO)
100
AcDbSpline
210
0.0
220
0.0
230
1.0
 70
    28
 71
     2
 72
     6
 73
     3
 74
     0
 42
0.0000000001
 43
0.0000000001
 40
0.6046693311223935
 40
0.6046693311223935
 40
0.6046693311223935
 40
1.118728652180965
 40
1.118728652180965
 40
1.118728652180965
 10
110.7036062213047
 20
148.6242811937856
 30
0.0
 41
1.110294117647057
 10
110.7036062213047
 20
148.6242811937863
 30
0.0
 41
1.110294117647057
 10
110.7036062213047
 20
149.3834705723419
 30
0.0
 41
1.030578586555894
  0
LINE
  5
232
330
6C
100
AcDbEntity
  8
Visible (ISO)
100
AcDbLine
 10
110.9536062213047
 20
148.4799436264882
 30
0.0
 11
110.7036062213047
 21
148.6242811937856
 31
0.0
  0
LINE
  5
233
330
6C
100
AcDbEntity
  8
Visible (ISO)
100
AcDbLine
 10
127.4536062213047
 20
148.4799436264882
 30
0.0
 11
127.7036062213045
 21
148.6242811937856
 31
0.0
  0
LINE
  5
234
330
6C
100
AcDbEntity
  8
Visible (ISO)
100
AcDbLine
 10
110.7036062213047
 20
149.3834705723419
 30
0.0
 11
110.7036062213047
 21
157.5764166806376
 31
0.0
  0
LINE
  5
235
330
6C
100
AcDbEntity
  8
Visible (ISO)
100
AcDbLine
 10
119.2036062213047
 20
149.3834705723434
 30
0.0
 11
119.2036062213047
 21
157.5764166806389
 31
0.0
  0
LINE
  5
236
330
6C
100
AcDbEntity
  8
Visible (ISO)
100
AcDbLine
 10
127.7036062213046
 20
149.3834705723419
 30
0.0
 11
127.7036062213045
 21
157.5764166806375
 31
0.0
  0
SPLINE
  5
237
330
6C
100
AcDbEntity
  8
Visible (ISO)
100
AcDbSpline
210
0.0
220
0.0
230
1.0
 70
    28
 71
     2
 72
     6
 73
     3
 74
     0
 42
0.0000000001
 43
0.0000000001
 40
0.0906100100638165
 40
0.0906100100638165
 40
0.0906100100638165
 40
0.6046693311223909
 40
0.6046693311223909
 40
0.6046693311223909
 10
110.7036062213047
 20
157.5764166806376
 30
0.0
 41
1.030578586555894
 10
110.7036062213047
 20
158.3356060591915
 30
0.0
 41
1.110294117647054
 10
110.7036062213047
 20
158.3356060591908
 30
0.0
 41
1.110294117647057
  0
SPLINE
  5
238
330
6C
100
AcDbEntity
  8
Visible (ISO)
100
AcDbSpline
210
0.0
220
0.0
230
1.0
 70
    12
 71
     2
 72
     6
 73
     3
 74
     0
 42
0.0000000001
 43
0.0000000001
 40
0.0906100100638156
 40
0.0906100100638156
 40
0.0906100100638156
 40
1.118728652180965
 40
1.118728652180965
 40
1.118728652180965
 10
119.2036062213047
 20
157.5764166806389
 30
0.0
 41
1.030578586555894
 10
114.9536062213047
 20
158.9930833473049
 30
0.0
 41
1.190009648738221
 10
110.7036062213047
 20
157.5764166806376
 30
0.0
 41
1.030578586555894
  0
SPLINE
  5
239
330
6C
100
AcDbEntity
  8
Visible (ISO)
100
AcDbSpline
210
0.0
220
0.0
230
1.0
 70
    12
 71
     2
 72
     6
 73
     3
 74
     0
 42
0.0000000001
 43
0.0000000001
 40
0.0906100100638148
 40
0.0906100100638148
 40
0.0906100100638148
 40
1.118728652180965
 40
1.118728652180965
 40
1.118728652180965
 10
127.7036062213046
 20
157.5764166806375
 30
0.0
 41
1.030578586555894
 10
123.4536062213047
 20
158.9930833473049
 30
0.0
 41
1.190009648738221
 10
119.2036062213047
 20
157.5764166806389
 30
0.0
 41
1.030578586555894
  0
SPLINE
  5
23A
330
6C
100
AcDbEntity
  8
Visible (ISO)
100
AcDbSpline
210
0.0
220
0.0
230
1.0
 70
    28
 71
     2
 72
     6
 73
     3
 74
     0
 42
0.0000000001
 43
0.0000000001
 40
0.6046693311223899
 40
0.6046693311223899
 40
0.6046693311223899
 40
1.118728652180965
 40
1.118728652180965
 40
1.118728652180965
 10
127.7036062213045
 20
158.3356060591909
 30
0.0
 41
1.110294117647057
 10
127.7036062213045
 20
158.3356060591915
 30
0.0
 41
1.110294117647057
 10
127.7036062213046
 20
157.5764166806375
 30
0.0
 41
1.030578586555894
  0
LINE
  5
23B
330
6C
100
AcDbEntity
  8
Visible (ISO)
100
AcDbLine
 10
127.4536062213047
 20
158.4799436264884
 30
0.0
 11
110.9536062213047
 21
158.4799436264884
 31
0.0
  0
LINE
  5
23C
330
6C
100
AcDbEntity
  8
Visible (ISO)
100
AcDbLine
 10
127.4536062213047
 20
158.4799436264884
 30
0.0
 11
127.7036062213045
 21
158.3356060591909
 31
0.0
  0
LINE
  5
23D
330
6C
100
AcDbEntity
  8
Visible (ISO)
100
AcDbLine
 10
110.9536062213047
 20
158.4799436264884
 30
0.0
 11
110.7036062213047
 21
158.3356060591909
 31
0.0
  0
LINE
  5
23E
330
6C
100
AcDbEntity
  8
Visible (ISO)
100
AcDbLine
 10
124.0278826053138
 20
167.0522550499053
 30
0.0
 11
124.1618249713047
 21
158.4799436264884
 31
0.0
  0
LINE
  5
23F
330
6C
100
AcDbEntity
  8
Visible (ISO)
100
AcDbLine
 10
114.3793298372955
 20
167.0522550499053
 30
0.0
 11
114.2453874713047
 21
158.4799436264884
 31
0.0
  0
LINE
  5
240
330
6C
100
AcDbEntity
  8
Visible Narrow (ISO)
100
AcDbLine
 10
123.5807540527813
 20
158.4799436264884
 30
0.0
 11
123.4306485664895
 21
168.0866947491584
 31
0.0
  0
LINE
  5
241
330
6C
100
AcDbEntity
  8
Visible Narrow (ISO)
100
AcDbLine
 10
114.9765638761197
 20
168.0866947491582
 30
0.0
 11
114.826458389828
 21
158.4799436264884
 31
0.0
  0
CIRCLE
  5
242
330
6C
100
AcDbEntity
  8
Visible (ISO)
100
AcDbCircle
 10
197.7985606040287
 20
51.35109272422905
 30
0.0
 40
3.0
  0
CIRCLE
  5
243
330
6C
100
AcDbEntity
  8
Visible (ISO)
100
AcDbCircle
 10
197.7985606040314
 20
51.35109272422905
 30
0.0
 40
4.241970446886518
  0
CIRCLE
  5
244
330
6C
100
AcDbEntity
  8
Visible (ISO)
100
AcDbCircle
 10
197.7985606040318
 20
51.35109272422905
 30
0.0
 40
5.0
  0
CIRCLE
  5
245
330
6C
100
AcDbEntity
  8
Visible (ISO)
100
AcDbCircle
 10
197.7985606040288
 20
51.35109272422905
 30
0.0
 40
3.970499999999995
  0
CIRCLE
  5
246
330
6C
100
AcDbEntity
  8
Visible (ISO)
100
AcDbCircle
 10
197.7985606040316
 20
51.35109272422905
 30
0.0
 40
6.5
  0
CIRCLE
  5
247
330
6C
100
AcDbEntity
  8
Visible (ISO)
100
AcDbCircle
 10
197.7985606040318
 20
51.35109272422905
 30
0.0
 40
6.0
  0
SPLINE
  5
248
330
6C
100
AcDbEntity
  8
Visible (ISO)
100
AcDbSpline
210
0.0
220
0.0
230
1.0
 70
    28
 71
     2
 72
     6
 73
     3
 74
     0
 42
0.0000000001
 43
0.0000000001
 40
0.4256073096284686
 40
0.4256073096284686
 40
0.4256073096284686
 40
0.8365524254088846
 40
0.8365524254088846
 40
0.8365524254088846
 10
189.2985606040278
 20
47.70246284439743
 30
0.0
 41
1.045691116018826
 10
189.298560604028
 20
49.60386151416884
 30
0.0
 41
1.044904085362813
 10
189.298560604028
 20
51.35109272422905
 30
0.0
 41
1.0
  0
ARC
  5
249
330
6C
100
AcDbEntity
  8
Visible (ISO)
100
AcDbCircle
 10
197.7985606040276
 20
51.35109272422901
 30
0.0
 40
9.24999999999992
100
AcDbArc
 50
203.2314565050076
 51
216.7685434949927
  0
ARC
  5
24A
330
6C
100
AcDbEntity
  8
Visible (ISO)
100
AcDbCircle
 10
197.7985606040279
 20
51.35109272422905
 30
0.0
 40
8.499999999999987
100
AcDbArc
 50
180.0
 51
240.0
  0
ARC
  5
24B
330
6C
100
AcDbEntity
  8
Visible (ISO)
100
AcDbCircle
 10
197.7985606040276
 20
51.35109272422909
 30
0.0
 40
9.249999999999916
100
AcDbArc
 50
143.2314565050073
 51
156.7685434949924
  0
SPLINE
  5
24C
330
6C
100
AcDbEntity
  8
Visible (ISO)
100
AcDbSpline
210
0.0
220
0.0
230
1.0
 70
    28
 71
     2
 72
     6
 73
     3
 74
     0
 42
0.0000000001
 43
0.0000000001
 40
0.8365524254088846
 40
0.8365524254088846
 40
0.8365524254088846
 40
1.2474975411893
 40
1.2474975411893
 40
1.2474975411893
 10
189.298560604028
 20
51.35109272422905
 30
0.0
 41
1.0
 10
189.298560604028
 20
53.09832393428925
 30
0.0
 41
1.044904085362809
 10
189.2985606040278
 20
54.99972260406067
 30
0.0
 41
1.045691116018822
  0
ARC
  5
24D
330
6C
100
AcDbEntity
  8
Visible (ISO)
100
AcDbCircle
 10
197.7985606040279
 20
51.35109272422905
 30
0.0
 40
8.499999999999996
100
AcDbArc
 50
120.0
 51
180.0
  0
ARC
  5
24E
330
6C
100
AcDbEntity
  8
Visible (ISO)
100
AcDbCircle
 10
197.7985606040279
 20
51.35109272422905
 30
0.0
 40
8.499999999999996
100
AcDbArc
 50
60.0
 51
120.0
  0
SPLINE
  5
24F
330
6C
100
AcDbEntity
  8
Visible (ISO)
100
AcDbSpline
210
0.0
220
0.0
230
1.0
 70
    28
 71
     2
 72
     6
 73
     3
 74
     0
 42
0.0000000001
 43
0.0000000001
 40
0.4256073096284699
 40
0.4256073096284699
 40
0.4256073096284699
 40
0.8365524254088839
 40
0.8365524254088839
 40
0.8365524254088839
 10
206.2985606040278
 20
54.99972260406065
 30
0.0
 41
1.045691116018829
 10
206.298560604028
 20
53.09832393428925
 30
0.0
 41
1.044904085362813
 10
206.298560604028
 20
51.35109272422904
 30
0.0
 41
1.0
  0
ARC
  5
250
330
6C
100
AcDbEntity
  8
Visible (ISO)
100
AcDbCircle
 10
197.7985606040278
 20
51.35109272422904
 30
0.0
 40
9.250000000000015
100
AcDbArc
 50
23.23145650500752
 51
36.76854349499267
  0
ARC
  5
251
330
6C
100
AcDbEntity
  8
Visible (ISO)
100
AcDbCircle
 10
197.7985606040279
 20
51.35109272422905
 30
0.0
 40
8.499999999999987
100
AcDbArc
 50
0.0
 51
60.0
  0
SPLINE
  5
252
330
6C
100
AcDbEntity
  8
Visible (ISO)
100
AcDbSpline
210
0.0
220
0.0
230
1.0
 70
    28
 71
     2
 72
     6
 73
     3
 74
     0
 42
0.0000000001
 43
0.0000000001
 40
0.8365524254088839
 40
0.8365524254088839
 40
0.8365524254088839
 40
1.247497541189297
 40
1.247497541189297
 40
1.247497541189297
 10
206.298560604028
 20
51.35109272422904
 30
0.0
 41
1.0
 10
206.298560604028
 20
49.60386151416881
 30
0.0
 41
1.044904085362817
 10
206.2985606040278
 20
47.70246284439743
 30
0.0
 41
1.04569111601883
  0
ARC
  5
253
330
6C
100
AcDbEntity
  8
Visible (ISO)
100
AcDbCircle
 10
197.7985606040279
 20
51.35109272422905
 30
0.0
 40
8.499999999999996
100
AcDbArc
 50
300.0
 51
0.0
  0
ARC
  5
254
330
6C
100
AcDbEntity
  8
Visible (ISO)
100
AcDbCircle
 10
197.7985606040276
 20
51.35109272422912
 30
0.0
 40
9.250000000000159
100
AcDbArc
 50
323.2314565050078
 51
336.7685434949923
  0
ARC
  5
255
330
6C
100
AcDbEntity
  8
Visible (ISO)
100
AcDbCircle
 10
197.7985606040279
 20
51.35109272422905
 30
0.0
 40
8.499999999999996
100
AcDbArc
 50
240.0
 51
300.0
  0
SPLINE
  5
256
330
6C
100
AcDbEntity
  8
Visible (ISO)
100
AcDbSpline
210
0.0
220
0.0
230
1.0
 70
    28
 71
     2
 72
     6
 73
     3
 74
     0
 42
0.0000000001
 43
0.0000000001
 40
0.8365524254088846
 40
0.8365524254088846
 40
0.8365524254088846
 40
1.2474975411893
 40
1.2474975411893
 40
1.2474975411893
 10
193.5485606040279
 20
43.98987679206132
 30
0.0
 41
1.0
 10
192.0354139898307
 20
44.86349239709142
 30
0.0
 41
1.044904085362819
 10
190.3887544390867
 20
45.81419173197714
 30
0.0
 41
1.045691116018833
  0
SPLINE
  5
257
330
6C
100
AcDbEntity
  8
Visible (ISO)
100
AcDbSpline
210
0.0
220
0.0
230
1.0
 70
    28
 71
     2
 72
     6
 73
     3
 74
     0
 42
0.0000000001
 43
0.0000000001
 40
0.4256073096284686
 40
0.4256073096284686
 40
0.4256073096284686
 40
0.8365524254088844
 40
0.8365524254088844
 40
0.8365524254088844
 10
190.3887544390867
 20
56.88799371648097
 30
0.0
 41
1.045691116018839
 10
192.0354139898307
 20
57.83869305136665
 30
0.0
 41
1.044904085362823
 10
193.5485606040279
 20
58.71230865639677
 30
0.0
 41
1.0
  0
SPLINE
  5
258
330
6C
100
AcDbEntity
  8
Visible (ISO)
100
AcDbSpline
210
0.0
220
0.0
230
1.0
 70
    28
 71
     2
 72
     6
 73
     3
 74
     0
 42
0.0000000001
 43
0.0000000001
 40
0.4256073096284702
 40
0.4256073096284702
 40
0.4256073096284702
 40
0.8365524254088839
 40
0.8365524254088839
 40
0.8365524254088839
 10
198.8887544390866
 20
60.53662359631258
 30
0.0
 41
1.04569111601883
 10
200.5354139898308
 20
59.5859242614269
 30
0.0
 41
1.044904085362817
 10
202.048560604028
 20
58.71230865639677
 30
0.0
 41
1.0
  0
ARC
  5
259
330
6C
100
AcDbEntity
  8
Visible (ISO)
100
AcDbCircle
 10
197.7985606040278
 20
51.35109272422901
 30
0.0
 40
9.250000000000023
100
AcDbArc
 50
83.23145650500768
 51
96.76854349499231
  0
SPLINE
  5
25A
330
6C
100
AcDbEntity
  8
Visible (ISO)
100
AcDbSpline
210
0.0
220
0.0
230
1.0
 70
    28
 71
     2
 72
     6
 73
     3
 74
     0
 42
0.0000000001
 43
0.0000000001
 40
0.8365524254088844
 40
0.8365524254088844
 40
0.8365524254088844
 40
1.2474975411893
 40
1.2474975411893
 40
1.2474975411893
 10
193.5485606040279
 20
58.71230865639677
 30
0.0
 41
1.0
 10
195.0617072182252
 20
59.5859242614269
 30
0.0
 41
1.044904085362819
 10
196.7083667689689
 20
60.53662359631259
 30
0.0
 41
1.045691116018834
  0
SPLINE
  5
25B
330
6C
100
AcDbEntity
  8
Visible (ISO)
100
AcDbSpline
210
0.0
220
0.0
230
1.0
 70
    28
 71
     2
 72
     6
 73
     3
 74
     0
 42
0.0000000001
 43
0.0000000001
 40
0.8365524254088839
 40
0.8365524254088839
 40
0.8365524254088839
 40
1.247497541189297
 40
1.247497541189297
 40
1.247497541189297
 10
202.048560604028
 20
58.71230865639677
 30
0.0
 41
1.0
 10
203.5617072182251
 20
57.83869305136665
 30
0.0
 41
1.044904085362814
 10
205.2083667689689
 20
56.88799371648098
 30
0.0
 41
1.04569111601883
  0
SPLINE
  5
25C
330
6C
100
AcDbEntity
  8
Visible (ISO)
100
AcDbSpline
210
0.0
220
0.0
230
1.0
 70
    28
 71
     2
 72
     6
 73
     3
 74
     0
 42
0.0000000001
 43
0.0000000001
 40
0.4256073096284691
 40
0.4256073096284691
 40
0.4256073096284691
 40
0.8365524254088837
 40
0.8365524254088837
 40
0.8365524254088837
 10
205.2083667689689
 20
45.81419173197711
 30
0.0
 41
1.045691116018833
 10
203.5617072182251
 20
44.86349239709142
 30
0.0
 41
1.044904085362819
 10
202.048560604028
 20
43.98987679206132
 30
0.0
 41
1.0
  0
SPLINE
  5
25D
330
6C
100
AcDbEntity
  8
Visible (ISO)
100
AcDbSpline
210
0.0
220
0.0
230
1.0
 70
    28
 71
     2
 72
     6
 73
     3
 74
     0
 42
0.0000000001
 43
0.0000000001
 40
0.8365524254088837
 40
0.8365524254088837
 40
0.8365524254088837
 40
1.247497541189299
 40
1.247497541189299
 40
1.247497541189299
 10
202.048560604028
 20
43.98987679206132
 30
0.0
 41
1.0
 10
200.5354139898307
 20
43.11626118703119
 30
0.0
 41
1.044904085362823
 10
198.8887544390868
 20
42.16556185214551
 30
0.0
 41
1.045691116018837
  0
SPLINE
  5
25E
330
6C
100
AcDbEntity
  8
Visible (ISO)
100
AcDbSpline
210
0.0
220
0.0
230
1.0
 70
    28
 71
     2
 72
     6
 73
     3
 74
     0
 42
0.0000000001
 43
0.0000000001
 40
0.4256073096284692
 40
0.4256073096284692
 40
0.4256073096284692
 40
0.8365524254088846
 40
0.8365524254088846
 40
0.8365524254088846
 10
196.708366768969
 20
42.16556185214551
 30
0.0
 41
1.045691116018834
 10
195.0617072182251
 20
43.11626118703119
 30
0.0
 41
1.044904085362819
 10
193.5485606040279
 20
43.98987679206132
 30
0.0
 41
1.0
  0
ARC
  5
25F
330
6C
100
AcDbEntity
  8
Visible (ISO)
100
AcDbCircle
 10
197.7985606040278
 20
51.35109272422905
 30
0.0
 40
9.25
100
AcDbArc
 50
263.2314565050076
 51
276.7685434949923
  0
LINE
  5
260
330
6C
100
AcDbEntity
  8
Visible (ISO)
100
AcDbLine
 10
212.2985606040245
 20
42.85109272422904
 30
0.0
 11
212.2985606040245
 21
59.85109272422906
 31
0.0
  0
SPLINE
  5
261
330
6C
100
AcDbEntity
  8
Visible (ISO)
100
AcDbSpline
210
0.0
220
0.0
230
1.0
 70
     8
 71
     3
 72
    10
 73
     6
 74
     0
 42
0.0000000001
 43
0.0000000001
 40
0.4684177548466585
 40
0.4684177548466585
 40
0.4684177548466585
 40
0.4684177548466585
 40
0.6993240282055356
 40
0.6993240282055356
 40
0.9303035210404576
 40
0.9303035210404576
 40
0.9303035210607802
 40
0.9303035210607802
 10
201.9709715807894
 20
58.75710469840235
 30
0.0
 10
202.4765504222507
 20
59.0419388880328
 30
0.0
 10
202.927274280408
 20
59.33178391122079
 30
0.0
 10
203.5389498661735
 20
59.73797309451907
 30
0.0
 10
203.6985606040248
 20
59.85109272422906
 30
0.0
 10
203.6985606040246
 20
59.85109272422906
 30
0.0
  0
LINE
  5
262
330
6C
100
AcDbEntity
  8
Visible (ISO)
100
AcDbLine
 10
203.6985606040246
 20
59.85109272422906
 30
0.0
 11
212.2985606040245
 21
59.85109272422906
 31
0.0
  0
LINE
  5
263
330
6C
100
AcDbEntity
  8
Visible (ISO)
100
AcDbLine
 10
200.0761287396891
 20
42.85109272422904
 30
0.0
 11
212.2985606040245
 21
42.85109272422904
 31
0.0
  0
LINE
  5
264
330
6C
100
AcDbEntity
  8
Visible (ISO)
100
AcDbLine
 10
212.7985606040245
 20
43.35109272422903
 30
0.0
 11
212.2985606040245
 21
42.85109272422904
 31
0.0
  0
LINE
  5
265
330
6C
100
AcDbEntity
  8
Visible (ISO)
100
AcDbLine
 10
212.7985606040245
 20
59.35109272422906
 30
0.0
 11
212.2985606040245
 21
59.85109272422906
 31
0.0
  0
LINE
  5
266
330
6C
100
AcDbEntity
  8
Visible (ISO)
100
AcDbLine
 10
191.8985606040245
 20
57.75968071223388
 30
0.0
 11
191.8985606040245
 21
61.85109272422907
 31
0.0
  0
LINE
  5
267
330
6C
100
AcDbEntity
  8
Visible (ISO)
100
AcDbLine
 10
203.6985606040246
 20
59.85109272422906
 30
0.0
 11
203.6985606040246
 21
61.85109272422907
 31
0.0
  0
CIRCLE
  5
268
330
6C
100
AcDbEntity
  8
Visible Narrow (ISO)
100
AcDbCircle
 10
197.7985606040317
 20
51.35109272422905
 30
0.0
 40
4.856517398564164
  0
ARC
  5
269
330
6C
100
AcDbEntity
  8
Visible (ISO)
100
AcDbCircle
 10
183.7985606040266
 20
77.87004824760676
 30
0.0
 40
5.999999999999985
100
AcDbArc
 50
180.0
 51
275.5801667844739
  0
LINE
  5
26A
330
6C
100
AcDbEntity
  8
Visible (ISO)
100
AcDbLine
 10
177.7985606040273
 20
77.8700482476067
 30
0.0
 11
177.7985606040273
 21
79.85109272422903
 31
0.0
  0
ARC
  5
26B
330
6C
100
AcDbEntity
  8
Visible (ISO)
100
AcDbCircle
 10
183.4096070397608
 20
81.85109272422906
 30
0.0
 40
9.999999999999976
100
AcDbArc
 50
275.5801667844739
 51
336.4218215217958
  0
LINE
  5
26C
330
6C
100
AcDbEntity
  8
Visible (ISO)
100
AcDbLine
 10
175.6231237424909
 20
79.85109272422903
 30
0.0
 11
157.7985606040291
 21
79.85109272422903
 31
0.0
  0
LINE
  5
26D
330
6C
100
AcDbEntity
  8
Visible (ISO)
100
AcDbLine
 10
177.7985606040273
 20
79.85109272422903
 30
0.0
 11
175.6231237424909
 21
79.85109272422903
 31
0.0
  0
ARC
  5
26E
330
6C
100
AcDbEntity
  8
Visible (ISO)
100
AcDbCircle
 10
162.7985606040287
 20
72.85109272422906
 30
0.0
 40
4.999999999999983
100
AcDbArc
 50
180.0
 51
270.0
  0
LINE
  5
26F
330
6C
100
AcDbEntity
  8
Visible (ISO)
100
AcDbLine
 10
162.7985606040287
 20
67.85109272422906
 30
0.0
 11
170.798560604028
 21
67.85109272422906
 31
0.0
  0
ARC
  5
270
330
6C
100
AcDbEntity
  8
Visible (ISO)
100
AcDbCircle
 10
170.9064164951282
 20
22.85109272422547
 30
0.0
 40
45.00012925418731
100
AcDbArc
 50
83.98346803219579
 51
90.13732612271864
  0
SPLINE
  5
271
330
6C
100
AcDbEntity
  8
Visible (ISO)
100
AcDbSpline
210
0.0
220
0.0
230
1.0
 70
     8
 71
     3
 72
    14
 73
    10
 74
     0
 42
0.0000000001
 43
0.0000000001
 40
1.926793397172414
 40
1.926793397172414
 40
1.926793397172414
 40
1.926793397172414
 40
1.976560793808679
 40
1.976560793808679
 40
2.130659566433751
 40
2.130659566433751
 40
2.28132205146695
 40
2.28132205146695
 40
2.334003023765768
 40
2.334003023765768
 40
2.334003023765768
 40
2.334003023765768
 10
188.4732742145891
 20
64.71144647573622
 30
0.0
 10
188.6394197638055
 20
64.66635470500746
 30
0.0
 10
188.8035557828155
 20
64.61023210693515
 30
0.0
 10
189.458038560455
 20
64.33767903912187
 30
0.0
 10
189.9096198283149
 20
64.02702900981035
 30
0.0
 10
190.6154658906113
 20
63.31489335756671
 30
0.0
 10
190.9200561126123
 20
62.86854550735172
 30
0.0
 10
191.1934337957218
 20
62.20670108086764
 30
0.0
 10
191.2523657088906
 20
62.03000478377096
 30
0.0
 10
191.2985606040266
 20
61.85109272422907
 30
0.0
  0
LINE
  5
272
330
6C
100
AcDbEntity
  8
Visible (ISO)
100
AcDbLine
 10
182.693041113591
 20
66.28019717040288
 30
0.0
 11
188.4732742145891
 21
64.71144647573622
 31
0.0
  0
SPLINE
  5
273
330
6C
100
AcDbEntity
  8
Visible (ISO)
100
AcDbSpline
210
0.0
220
0.0
230
1.0
 70
     8
 71
     3
 72
    10
 73
     6
 74
     0
 42
0.0000000001
 43
0.0000000001
 40
4.585290746366443
 40
4.585290746366443
 40
4.585290746366443
 40
4.585290746366443
 40
4.831732503296846
 40
4.831732503296846
 40
5.274628023622251
 40
5.274628023622251
 40
5.274628023622251
 40
5.274628023622251
 10
175.6231237424909
 20
67.60334747899999
 30
0.0
 10
176.4925783429249
 20
67.5117104690305
 30
0.0
 10
177.3562651740743
 20
67.39499929258754
 30
0.0
 10
179.7442120566809
 20
67.00222620136276
 30
0.0
 10
181.246324091461
 20
66.67283502666174
 30
0.0
 10
182.6930411135911
 20
66.28019717040288
 30
0.0
  0
LINE
  5
274
330
6C
100
AcDbEntity
  8
Visible Narrow (ISO)
100
AcDbLine
 10
175.6231237424909
 20
70.8458363022197
 30
0.0
 11
175.6231237424909
 21
67.60334747899999
 31
0.0
  0
LINE
  5
275
330
6C
100
AcDbEntity
  8
Visible (ISO)
100
AcDbLine
 10
157.7985606040291
 20
72.85109272422906
 30
0.0
 11
157.7985606040291
 21
79.85109272422903
 31
0.0
  0
SPLINE
  5
276
330
6C
100
AcDbEntity
  8
Visible (ISO)
100
AcDbSpline
210
0.0
220
0.0
230
1.0
 70
     8
 71
     3
 72
    10
 73
     6
 74
     0
 42
0.0000000001
 43
0.0000000001
 40
1.75851045369192
 40
1.75851045369192
 40
1.75851045369192
 40
1.75851045369192
 40
1.769985036102441
 40
1.769985036102441
 40
1.77528265148158
 40
1.77528265148158
 40
1.77528265148158
 40
1.77528265148158
 10
195.6426153535995
 20
61.85109272422909
 30
0.0
 10
195.6790046542995
 20
61.85109272422909
 30
0.0
 10
195.7152938999278
 20
61.85738149083167
 30
0.0
 10
195.7667797819905
 20
61.87464874265135
 30
0.0
 10
195.7828180005314
 20
61.88127247254628
 30
0.0
 10
195.7985606040266
 20
61.88890964802908
 30
0.0
  0
LINE
  5
277
330
6C
100
AcDbEntity
  8
Visible (ISO)
100
AcDbLine
 10
195.7917612461096
 20
61.85109272422907
 30
0.0
 11
195.6426153536016
 21
61.85109272422907
 31
0.0
  0
SPLINE
  5
278
330
6C
100
AcDbEntity
  8
Visible (ISO)
100
AcDbSpline
210
0.0
220
0.0
230
1.0
 70
     8
 71
     3
 72
     8
 73
     4
 74
     0
 42
0.0000000001
 43
0.0000000001
 40
-0.0038487373741095
 40
-0.0038487373741095
 40
-0.0038487373741095
 40
-0.0038487373741095
 40
0.0
 40
0.0
 40
0.0
 40
0.0
 10
195.7985606040266
 20
61.88890964802904
 30
0.0
 10
195.7962945903961
 20
61.8763039278278
 30
0.0
 10
195.7940281377534
 20
61.86369828566046
 30
0.0
 10
195.7917612461096
 20
61.85109272422907
 30
0.0
  0
SPLINE
  5
279
330
6C
100
AcDbEntity
  8
Visible (ISO)
100
AcDbSpline
210
0.0
220
0.0
230
1.0
 70
     8
 71
     3
 72
    22
 73
    18
 74
     0
 42
0.0000000001
 43
0.0000000001
 40
0.9432407987623507
 40
0.9432407987623507
 40
0.9432407987623507
 40
0.9432407987623507
 40
1.171120556264495
 40
1.171120556264495
 40
1.366307315641912
 40
1.366307315641912
 40
1.561494075019328
 40
1.561494075019328
 40
1.637053099534583
 40
1.637053099534583
 40
1.712612124049838
 40
1.712612124049838
 40
1.735561288870879
 40
1.735561288870879
 40
1.7470358712814
 40
1.7470358712814
 40
1.75851045369192
 40
1.75851045369192
 40
1.75851045369192
 40
1.75851045369192
 10
193.3240137199462
 20
69.85109272422906
 30
0.0
 10
193.4466978573251
 20
69.03466883423977
 30
0.0
 10
193.5765301475692
 20
68.22505904178917
 30
0.0
 10
193.8382938116146
 20
66.74753309926114
 30
0.0
 10
193.9669686994158
 20
66.07612214235672
 30
0.0
 10
194.2538447672867
 20
64.76343381571928
 30
0.0
 10
194.4094883067791
 20
64.12154503951242
 30
0.0
 10
194.6808598177948
 20
63.26482310779013
 30
0.0
 10
194.7707116339488
 20
63.00476009641529
 30
0.0
 10
194.9831478846484
 20
62.50580421847185
 30
0.0
 10
195.1015399860939
 20
62.26495738510129
 30
0.0
 10
195.3094834260611
 20
62.01952532644082
 30
0.0
 10
195.3677070056962
 20
61.96178903930192
 30
0.0
 10
195.4651691616819
 20
61.89833633820249
 30
0.0
 10
195.4993886065057
 20
61.88100803119264
 30
0.0
 10
195.5699156238807
 20
61.85738149083189
 30
0.0
 10
195.6062260528995
 20
61.85109272422909
 30
0.0
 10
195.6426153535995
 20
61.85109272422909
 30
0.0
  0
SPLINE
  5
27A
330
6C
100
AcDbEntity
  8
Visible (ISO)
100
AcDbSpline
210
0.0
220
0.0
230
1.0
 70
     8
 71
     3
 72
    10
 73
     6
 74
     0
 42
0.0000000001
 43
0.0000000001
 40
1.5278493950117
 40
1.5278493950117
 40
1.5278493950117
 40
1.5278493950117
 40
1.623235420363269
 40
1.623235420363269
 40
1.651542757804969
 40
1.651542757804969
 40
1.651542757804969
 40
1.651542757804969
 10
194.0842244757293
 20
70.8458363022197
 30
0.0
 10
193.8612448825569
 20
70.60662943772982
 30
0.0
 10
193.6588349954076
 20
70.341979532533
 30
0.0
 10
193.4272274161388
 20
70.00734630961531
 30
0.0
 10
193.375199156632
 20
69.92969798377408
 30
0.0
 10
193.3240137199462
 20
69.85109272422906
 30
0.0
  0
LINE
  5
27B
330
6C
100
AcDbEntity
  8
Visible (ISO)
100
AcDbLine
 10
175.6231237424909
 20
70.8458363022197
 30
0.0
 11
194.0842244757293
 21
70.8458363022197
 31
0.0
  0
LINE
  5
27C
330
6C
100
AcDbEntity
  8
Visible (ISO)
100
AcDbLine
 10
195.6426153535995
 20
61.85109272422907
 30
0.0
 11
191.2985606040268
 21
61.85109272422907
 31
0.0
  0
LINE
  5
27D
330
6C
100
AcDbEntity
  8
Visible (ISO)
100
AcDbLine
 10
175.6231237424909
 20
70.8458363022197
 30
0.0
 11
175.6231237424909
 21
79.85109272422903
 31
0.0
  0
SPLINE
  5
27E
330
6C
100
AcDbEntity
  8
Visible (ISO)
100
AcDbSpline
210
0.0
220
0.0
230
1.0
 70
    12
 71
     2
 72
     6
 73
     3
 74
     0
 42
0.0000000001
 43
0.0000000001
 40
0.0
 40
0.0
 40
0.0
 40
0.735020748025817
 40
0.735020748025817
 40
0.735020748025817
 10
192.5747584296714
 20
77.85109272422906
 30
0.0
 41
1.0
 10
191.8267954726896
 20
74.8358563843699
 30
0.0
 41
1.010647833931205
 10
190.8466197657086
 20
70.8458363022197
 30
0.0
 41
1.002310889209607
  0
LINE
  5
27F
330
6C
100
AcDbEntity
  8
Visible (ISO)
100
AcDbLine
 10
190.7985606040251
 20
61.85109272422907
 30
0.0
 11
191.2985606040258
 21
61.85109272422907
 31
0.0
  0
LINE
  5
280
330
6C
100
AcDbEntity
  8
Visible (ISO)
100
AcDbLine
 10
190.7985606040251
 20
61.85109272422907
 30
0.0
 11
190.7278419032275
 21
63.10831407174401
 31
0.0
  0
LINE
  5
281
330
6C
100
AcDbEntity
  8
Visible (ISO)
100
AcDbLine
 10
195.7985606040266
 20
61.85109272422907
 30
0.0
 11
195.7917612461096
 21
61.85109272422907
 31
0.0
  0
SPLINE
  5
282
330
6C
100
AcDbEntity
  8
Visible (ISO)
100
AcDbSpline
210
0.0
220
0.0
230
1.0
 70
    28
 71
     2
 72
     6
 73
     3
 74
     0
 42
0.0000000001
 43
0.0000000001
 40
0.7974519034631254
 40
0.7974519034631254
 40
0.7974519034631254
 40
0.8013696042749975
 40
0.8013696042749975
 40
0.8013696042749975
 10
195.7985606040266
 20
61.88890964802908
 30
0.0
 41
1.000005114022332
 10
195.7985606040266
 20
61.86999805830184
 30
0.0
 41
1.000002569573184
 10
195.7985606040266
 20
61.85109272422907
 30
0.0
 41
1.0
  0
LINE
  5
283
330
6C
100
AcDbEntity
  8
Visible (ISO)
100
AcDbLine
 10
195.7985606040266
 20
61.85109272422907
 30
0.0
 11
204.7985606040239
 21
61.85109272422907
 31
0.0
  0
LINE
  5
284
330
6C
100
AcDbEntity
  8
Visible (ISO)
100
AcDbLine
 10
192.5747584296714
 20
77.85109272422906
 30
0.0
 11
203.0900632261536
 21
77.85109272422906
 31
0.0
  0
LINE
  5
285
330
6C
100
AcDbEntity
  8
Visible (ISO)
100
AcDbLine
 10
193.3240137199463
 20
69.85109272422906
 30
0.0
 11
205.248560604024
 21
69.85109272422906
 31
0.0
  0
LINE
  5
286
330
6C
100
AcDbEntity
  8
Visible (ISO)
100
AcDbLine
 10
203.298560604024
 20
77.85109272422906
 30
0.0
 11
205.248560604024
 21
69.85109272422906
 31
0.0
  0
LINE
  5
287
330
6C
100
AcDbEntity
  8
Visible (ISO)
100
AcDbLine
 10
204.7985606040239
 20
61.85109272422907
 30
0.0
 11
205.248560604024
 21
69.85109272422906
 31
0.0
  0
LINE
  5
288
330
6C
100
AcDbEntity
  8
Visible (ISO)
100
AcDbLine
 10
192.5070579818962
 20
77.85109272422906
 30
0.0
 11
192.5747584296714
 21
77.85109272422906
 31
0.0
  0
LINE
  5
289
330
6C
100
AcDbEntity
  8
Visible (ISO)
100
AcDbLine
 10
192.298560604025
 20
77.85109272422906
 30
0.0
 11
192.0439262410315
 21
76.80643892733266
 31
0.0
  0
LINE
  5
28A
330
6C
100
AcDbEntity
  8
Visible (ISO)
100
AcDbLine
 10
194.2985606040252
 20
78.661092724229
 30
0.0
 11
195.2985606040255
 21
78.661092724229
 31
0.0
  0
LINE
  5
28B
330
6C
100
AcDbEntity
  8
Visible (ISO)
100
AcDbLine
 10
195.2985606040255
 20
78.661092724229
 30
0.0
 11
196.2985606040252
 21
78.661092724229
 31
0.0
  0
LINE
  5
28C
330
6C
100
AcDbEntity
  8
Visible (ISO)
100
AcDbLine
 10
196.298560604024
 20
78.661092724229
 30
0.0
 11
197.2985606040239
 21
78.661092724229
 31
0.0
  0
LINE
  5
28D
330
6C
100
AcDbEntity
  8
Visible (ISO)
100
AcDbLine
 10
197.2985606040239
 20
78.661092724229
 30
0.0
 11
200.298560604024
 21
78.66109272422903
 31
0.0
  0
LINE
  5
28E
330
6C
100
AcDbEntity
  8
Visible (ISO)
100
AcDbLine
 10
200.298560604024
 20
78.66109272422903
 30
0.0
 11
201.2985606040237
 21
78.66109272422907
 31
0.0
  0
LINE
  5
28F
330
6C
100
AcDbEntity
  8
Visible (ISO)
100
AcDbLine
 10
196.2985606040252
 20
78.65109272422902
 30
0.0
 11
196.2985606040252
 21
78.661092724229
 31
0.0
  0
LINE
  5
290
330
6C
100
AcDbEntity
  8
Visible (ISO)
100
AcDbLine
 10
195.2985606040255
 20
78.65109272422902
 30
0.0
 11
195.2985606040255
 21
78.661092724229
 31
0.0
  0
LINE
  5
291
330
6C
100
AcDbEntity
  8
Visible (ISO)
100
AcDbLine
 10
194.2985606040252
 20
78.65109272422902
 30
0.0
 11
194.2985606040252
 21
78.661092724229
 31
0.0
  0
LINE
  5
292
330
6C
100
AcDbEntity
  8
Visible (ISO)
100
AcDbLine
 10
201.2985606040237
 20
78.65109272422905
 30
0.0
 11
201.2985606040237
 21
78.66109272422907
 31
0.0
  0
LINE
  5
293
330
6C
100
AcDbEntity
  8
Visible (ISO)
100
AcDbLine
 10
200.298560604024
 20
78.65109272422905
 30
0.0
 11
200.298560604024
 21
78.66109272422903
 31
0.0
  0
LINE
  5
294
330
6C
100
AcDbEntity
  8
Visible Narrow (ISO)
100
AcDbLine
 10
197.2985606040239
 20
78.65109272422905
 30
0.0
 11
197.2985606040239
 21
78.661092724229
 31
0.0
  0
LINE
  5
295
330
6C
100
AcDbEntity
  8
Visible (ISO)
100
AcDbLine
 10
192.8995811184584
 20
78.65109272422902
 30
0.0
 11
202.6975400895911
 21
78.65109272422905
 31
0.0
  0
SPLINE
  5
296
330
6C
100
AcDbEntity
  8
Visible (ISO)
100
AcDbSpline
210
0.0
220
0.0
230
1.0
 70
     8
 71
     3
 72
    18
 73
    14
 74
     0
 42
0.0000000001
 43
0.0000000001
 40
-0.0894071042414384
 40
-0.0894071042414384
 40
-0.0894071042414384
 40
-0.0894071042414384
 40
-0.0890024393096829
 40
-0.0890024393096829
 40
-0.071331341192769
 40
-0.071331341192769
 40
-0.054286520760514
 40
-0.054286520760514
 40
-0.033079826196916
 40
-0.033079826196916
 40
-0.0157603010710298
 40
-0.0157603010710298
 40
0.0
 40
0.0
 40
0.0
 40
0.0
 10
192.8995811184584
 20
78.65109272422902
 30
0.0
 10
192.8987218801371
 20
78.65109272422902
 30
0.0
 10
192.8978627762328
 20
78.6510894019219
 30
0.0
 10
192.8594944874203
 20
78.65079250218818
 30
0.0
 10
192.8221751808699
 20
78.64416235931853
 30
0.0
 10
192.7513396386178
 20
78.61815779646223
 30
0.0
 10
192.7176040720918
 20
78.59919165180194
 30
0.0
 10
192.6468615008283
 20
78.54203076643812
 30
0.0
 10
192.6110606935732
 20
78.50024897651788
 30
0.0
 10
192.5576429778841
 20
78.40604273787787
 30
0.0
 10
192.5382282315813
 20
78.35751398808063
 30
0.0
 10
192.5133046699441
 20
78.25516357340411
 30
0.0
 10
192.5070579818957
 20
78.20362706113247
 30
0.0
 10
192.5070579818957
 20
78.15109272422901
 30
0.0
  0
LINE
  5
297
330
6C
100
AcDbEntity
  8
Visible Narrow (ISO)
100
AcDbLine
 10
203.090063226154
 20
78.15109272422905
 30
0.0
 11
192.5070579818957
 21
78.15109272422901
 31
0.0
  0
SPLINE
  5
298
330
6C
100
AcDbEntity
  8
Visible (ISO)
100
AcDbSpline
210
0.0
220
0.0
230
1.0
 70
     8
 71
     3
 72
    18
 73
    14
 74
     0
 42
0.0000000001
 43
0.0000000001
 40
-0.0896419378859127
 40
-0.0896419378859127
 40
-0.0896419378859127
 40
-0.0896419378859127
 40
-0.0737683962096255
 40
-0.0737683962096255
 40
-0.0563244271724696
 40
-0.0563244271724696
 40
-0.0349653586842182
 40
-0.0349653586842182
 40
-0.0177980681434567
 40
-0.0177980681434567
 40
0.0
 40
0.0
 40
0.0004075725222773
 40
0.0004075725222773
 40
0.0004075725222773
 40
0.0004075725222773
 10
203.0900632261541
 20
78.15109272422905
 30
0.0
 10
203.0900632261541
 20
78.20362706113249
 30
0.0
 10
203.0838165381058
 20
78.25516357340416
 30
0.0
 10
203.0588929764685
 20
78.35751398808068
 30
0.0
 10
203.0394782301657
 20
78.40604273787789
 30
0.0
 10
202.9860605144765
 20
78.50024897651792
 30
0.0
 10
202.9502597072215
 20
78.54203076643816
 30
0.0
 10
202.8795171359578
 20
78.59919165180198
 30
0.0
 10
202.8457815694319
 20
78.61815779646223
 30
0.0
 10
202.7749460271798
 20
78.64416235931853
 30
0.0
 10
202.73762672063
 20
78.65079250218821
 30
0.0
 10
202.6992584318167
 20
78.65108940192192
 30
0.0
 10
202.6983993279126
 20
78.65109272422905
 30
0.0
 10
202.6975400895911
 20
78.65109272422905
 30
0.0
  0
LINE
  5
299
330
6C
100
AcDbEntity
  8
Visible Narrow (ISO)
100
AcDbLine
 10
192.3902336908289
 20
78.15109272422901
 30
0.0
 11
192.3902336908288
 21
78.65109272422902
 31
0.0
  0
LINE
  5
29A
330
6C
100
AcDbEntity
  8
Visible Narrow (ISO)
100
AcDbLine
 10
192.3902336908289
 20
78.15109272422901
 30
0.0
 11
192.5070579818957
 21
78.15109272422901
 31
0.0
  0
LINE
  5
29B
330
6C
100
AcDbEntity
  8
Visible (ISO)
100
AcDbLine
 10
192.8995811184584
 20
78.65109272422902
 30
0.0
 11
192.3902336908288
 21
78.65109272422902
 31
0.0
  0
LINE
  5
29C
330
6C
100
AcDbEntity
  8
Visible Narrow (ISO)
100
AcDbLine
 10
203.2068875172207
 20
78.65109272422905
 30
0.0
 11
203.2068875172208
 21
78.15109272422905
 31
0.0
  0
LINE
  5
29D
330
6C
100
AcDbEntity
  8
Visible (ISO)
100
AcDbLine
 10
203.2068875172207
 20
78.65109272422905
 30
0.0
 11
202.6975400895911
 21
78.65109272422905
 31
0.0
  0
LINE
  5
29E
330
6C
100
AcDbEntity
  8
Visible Narrow (ISO)
100
AcDbLine
 10
203.0900632261541
 20
78.15109272422905
 30
0.0
 11
203.2068875172208
 21
78.15109272422905
 31
0.0
  0
ELLIPSE
  5
29F
330
6C
100
AcDbEntity
  8
Visible Narrow (ISO)
100
AcDbEllipse
 10
203.2068875172207
 20
78.15109272422905
 30
0.0
 11
-0.0000000000000016
 21
0.5
 31
0.0
210
0.0
220
0.0
230
1.0
 40
0.9833321660356846
 41
4.712388980384687
 42
6.28318530717958
  0
LINE
  5
2A0
330
6C
100
AcDbEntity
  8
Visible Narrow (ISO)
100
AcDbLine
 10
203.7985606040245
 20
78.15109272422905
 30
0.0
 11
203.6985536002386
 21
78.15109272422905
 31
0.0
  0
LINE
  5
2A1
330
6C
100
AcDbEntity
  8
Visible (ISO)
100
AcDbLine
 10
203.2068875172207
 20
78.65109272422905
 30
0.0
 11
203.2985606040244
 21
78.65109272422905
 31
0.0
  0
LINE
  5
2A2
330
6C
100
AcDbEntity
  8
Visible Narrow (ISO)
100
AcDbLine
 10
203.6985536002386
 20
78.15109272422905
 30
0.0
 11
203.2068875172208
 21
78.15109272422905
 31
0.0
  0
LINE
  5
2A3
330
6C
100
AcDbEntity
  8
Visible Narrow (ISO)
100
AcDbLine
 10
191.898567607811
 20
78.15109272422901
 30
0.0
 11
191.7985606040245
 21
78.15109272422901
 31
0.0
  0
ELLIPSE
  5
2A4
330
6C
100
AcDbEntity
  8
Visible Narrow (ISO)
100
AcDbEllipse
 10
192.3902336908288
 20
78.15109272422901
 30
0.0
 11
-0.0000000000000016
 21
0.5
 31
0.0
210
0.0
220
0.0
230
1.0
 40
0.9833321660355768
 41
0.0
 42
1.570796326794893
  0
LINE
  5
2A5
330
6C
100
AcDbEntity
  8
Visible (ISO)
100
AcDbLine
 10
192.2985606040245
 20
78.65109272422902
 30
0.0
 11
192.3902336908288
 21
78.65109272422902
 31
0.0
  0
LINE
  5
2A6
330
6C
100
AcDbEntity
  8
Visible Narrow (ISO)
100
AcDbLine
 10
192.3902336908289
 20
78.15109272422901
 30
0.0
 11
191.898567607811
 21
78.15109272422901
 31
0.0
  0
ARC
  5
2A7
330
6C
100
AcDbEntity
  8
Visible (ISO)
100
AcDbCircle
 10
203.2985606040244
 20
78.15109272422905
 30
0.0
 40
0.5
100
AcDbArc
 50
0.0
 51
90.0
  0
ARC
  5
2A8
330
6C
100
AcDbEntity
  8
Visible (ISO)
100
AcDbCircle
 10
192.2985606040245
 20
78.15109272422901
 30
0.0
 40
0.5
100
AcDbArc
 50
90.0
 51
180.0
  0
LINE
  5
2A9
330
6C
100
AcDbEntity
  8
Visible Narrow (ISO)
100
AcDbLine
 10
203.2068875172208
 20
78.15109272422905
 30
0.0
 11
203.2068875172208
 21
77.85109272422906
 31
0.0
  0
LINE
  5
2AA
330
6C
100
AcDbEntity
  8
Visible (ISO)
100
AcDbLine
 10
203.6985536002386
 20
77.85109272422906
 30
0.0
 11
203.2068875172208
 21
77.85109272422906
 31
0.0
  0
LINE
  5
2AB
330
6C
100
AcDbEntity
  8
Visible Narrow (ISO)
100
AcDbLine
 10
203.6985536002386
 20
78.15109272422905
 30
0.0
 11
203.6985536002386
 21
77.85109272422906
 31
0.0
  0
LINE
  5
2AC
330
6C
100
AcDbEntity
  8
Visible (ISO)
100
AcDbLine
 10
203.0900632261541
 20
78.15109272422905
 30
0.0
 11
203.0900632261541
 21
77.85109272422906
 31
0.0
  0
LINE
  5
2AD
330
6C
100
AcDbEntity
  8
Visible (ISO)
100
AcDbLine
 10
203.0900632261541
 20
77.85109272422906
 30
0.0
 11
203.2068875172208
 21
77.85109272422906
 31
0.0
  0
LINE
  5
2AE
330
6C
100
AcDbEntity
  8
Visible (ISO)
100
AcDbLine
 10
192.5070579818957
 20
78.15109272422901
 30
0.0
 11
192.5070579818957
 21
77.851092724229
 31
0.0
  0
LINE
  5
2AF
330
6C
100
AcDbEntity
  8
Visible (ISO)
100
AcDbLine
 10
203.090063226154
 20
77.85109272422906
 30
0.0
 11
192.5070579818957
 21
77.851092724229
 31
0.0
  0
LINE
  5
2B0
330
6C
100
AcDbEntity
  8
Visible Narrow (ISO)
100
AcDbLine
 10
192.3902336908289
 20
78.15109272422901
 30
0.0
 11
192.3902336908289
 21
77.851092724229
 31
0.0
  0
LINE
  5
2B1
330
6C
100
AcDbEntity
  8
Visible (ISO)
100
AcDbLine
 10
192.3902336908289
 20
77.851092724229
 30
0.0
 11
192.5070579818957
 21
77.851092724229
 31
0.0
  0
LINE
  5
2B2
330
6C
100
AcDbEntity
  8
Visible Narrow (ISO)
100
AcDbLine
 10
191.898567607811
 20
78.15109272422901
 30
0.0
 11
191.898567607811
 21
77.851092724229
 31
0.0
  0
LINE
  5
2B3
330
6C
100
AcDbEntity
  8
Visible (ISO)
100
AcDbLine
 10
192.3902336908289
 20
77.851092724229
 30
0.0
 11
191.898567607811
 21
77.851092724229
 31
0.0
  0
LINE
  5
2B4
330
6C
100
AcDbEntity
  8
Visible (ISO)
100
AcDbLine
 10
191.898567607811
 20
77.851092724229
 30
0.0
 11
191.7985606040245
 21
77.851092724229
 31
0.0
  0
LINE
  5
2B5
330
6C
100
AcDbEntity
  8
Visible (ISO)
100
AcDbLine
 10
203.7985606040244
 20
77.85109272422906
 30
0.0
 11
203.6985536002386
 21
77.85109272422906
 31
0.0
  0
LINE
  5
2B6
330
6C
100
AcDbEntity
  8
Visible (ISO)
100
AcDbLine
 10
191.7985606040245
 20
78.15109272422901
 30
0.0
 11
191.7985606040245
 21
77.851092724229
 31
0.0
  0
LINE
  5
2B7
330
6C
100
AcDbEntity
  8
Visible (ISO)
100
AcDbLine
 10
203.7985606040245
 20
78.15109272422905
 30
0.0
 11
203.7985606040245
 21
77.85109272422906
 31
0.0
  0
SPLINE
  5
2B8
330
6C
100
AcDbEntity
  8
Visible (ISO)
100
AcDbSpline
210
0.0
220
0.0
230
1.0
 70
    28
 71
     2
 72
     6
 73
     3
 74
     0
 42
0.0000000001
 43
0.0000000001
 40
0.0906100100638159
 40
0.0906100100638159
 40
0.0906100100638159
 40
0.2103098933030545
 40
0.2103098933030545
 40
0.2103098933030545
 10
189.2985606040209
 20
56.25857001234089
 30
0.0
 41
1.030578586555894
 10
189.8598104579139
 20
56.58260776656864
 30
0.0
 41
1.049140529454464
 10
190.3887544390798
 20
56.887993716481
 30
0.0
 41
1.06338028169014
  0
SPLINE
  5
2B9
330
6C
100
AcDbEntity
  8
Visible (ISO)
100
AcDbSpline
210
0.0
220
0.0
230
1.0
 70
    28
 71
     2
 72
     6
 73
     3
 74
     0
 42
0.0000000001
 43
0.0000000001
 40
0.0906100100638158
 40
0.0906100100638158
 40
0.0906100100638158
 40
0.2103098933030556
 40
0.2103098933030556
 40
0.2103098933030556
 10
189.2985606040209
 20
46.4436154361172
 30
0.0
 41
1.030578586555894
 10
189.2985606040209
 20
47.0916909445727
 30
0.0
 41
1.049140529454464
 10
189.298560604021
 20
47.70246284439743
 30
0.0
 41
1.06338028169014
  0
SPLINE
  5
2BA
330
6C
100
AcDbEntity
  8
Visible (ISO)
100
AcDbSpline
210
0.0
220
0.0
230
1.0
 70
    28
 71
     2
 72
     6
 73
     3
 74
     0
 42
0.0000000001
 43
0.0000000001
 40
0.99902876894173
 40
0.99902876894173
 40
0.99902876894173
 40
1.118728652180965
 40
1.118728652180965
 40
1.118728652180965
 10
189.298560604021
 20
54.99972260406067
 30
0.0
 41
1.06338028169014
 10
189.2985606040209
 20
55.61049450388541
 30
0.0
 41
1.049140529454464
 10
189.2985606040209
 20
56.25857001234089
 30
0.0
 41
1.030578586555894
  0
SPLINE
  5
2BB
330
6C
100
AcDbEntity
  8
Visible (ISO)
100
AcDbSpline
210
0.0
220
0.0
230
1.0
 70
    28
 71
     2
 72
     6
 73
     3
 74
     0
 42
0.0000000001
 43
0.0000000001
 40
0.0906100100638164
 40
0.0906100100638164
 40
0.0906100100638164
 40
0.2103098933030564
 40
0.2103098933030564
 40
0.2103098933030564
 10
197.7985606040209
 20
41.53613814800536
 30
0.0
 41
1.030578586555894
 10
197.2373107501279
 20
41.8601759022331
 30
0.0
 41
1.049140529454464
 10
196.7083667689621
 20
42.16556185214546
 30
0.0
 41
1.06338028169014
  0
SPLINE
  5
2BC
330
6C
100
AcDbEntity
  8
Visible (ISO)
100
AcDbSpline
210
0.0
220
0.0
230
1.0
 70
    28
 71
     2
 72
     6
 73
     3
 74
     0
 42
0.0000000001
 43
0.0000000001
 40
0.9990287689417307
 40
0.9990287689417307
 40
0.9990287689417307
 40
1.118728652180965
 40
1.118728652180965
 40
1.118728652180965
 10
190.3887544390798
 20
45.81419173197709
 30
0.0
 41
1.06338028169014
 10
189.8598104579139
 20
46.11957768188946
 30
0.0
 41
1.049140529454464
 10
189.2985606040209
 20
46.4436154361172
 30
0.0
 41
1.030578586555894
  0
SPLINE
  5
2BD
330
6C
100
AcDbEntity
  8
Visible (ISO)
100
AcDbSpline
210
0.0
220
0.0
230
1.0
 70
    28
 71
     2
 72
     6
 73
     3
 74
     0
 42
0.0000000001
 43
0.0000000001
 40
0.9990287689417296
 40
0.9990287689417296
 40
0.9990287689417296
 40
1.118728652180965
 40
1.118728652180965
 40
1.118728652180965
 10
198.8887544390799
 20
42.16556185214545
 30
0.0
 41
1.06338028169014
 10
198.3598104579139
 20
41.8601759022331
 30
0.0
 41
1.049140529454464
 10
197.7985606040209
 20
41.53613814800536
 30
0.0
 41
1.030578586555894
  0
LINE
  5
2BE
330
6C
100
AcDbEntity
  8
Visible (ISO)
100
AcDbLine
 10
232.7985606040245
 20
47.35109272422905
 30
0.0
 11
232.7985606040245
 21
55.35109272422904
 31
0.0
  0
LINE
  5
2BF
330
6C
100
AcDbEntity
  8
Visible (ISO)
100
AcDbLine
 10
231.3708720274416
 20
56.17536910823814
 30
0.0
 11
231.3708720274416
 21
46.52681634021994
 31
0.0
  0
LINE
  5
2C0
330
6C
100
AcDbEntity
  8
Visible (ISO)
100
AcDbLine
 10
232.7985606040245
 20
47.35109272422906
 30
0.0
 11
231.3708720274416
 21
46.52681634021994
 31
0.0
  0
LINE
  5
2C1
330
6C
100
AcDbEntity
  8
Visible (ISO)
100
AcDbLine
 10
232.7985606040245
 20
55.35109272422904
 30
0.0
 11
231.3708720274416
 21
56.17536910823814
 31
0.0
  0
LINE
  5
2C2
330
6C
100
AcDbEntity
  8
Visible (ISO)
100
AcDbLine
 10
212.7985606040245
 20
59.60109272422904
 30
0.0
 11
212.7985606040245
 21
43.10109272422907
 31
0.0
  0
SPLINE
  5
2C3
330
6C
100
AcDbEntity
  8
Visible (ISO)
100
AcDbSpline
210
0.0
220
0.0
230
1.0
 70
    12
 71
     2
 72
     6
 73
     3
 74
     0
 42
0.0000000001
 43
0.0000000001
 40
0.0906100100638152
 40
0.0906100100638152
 40
0.0906100100638152
 40
1.118728652180965
 40
1.118728652180965
 40
1.118728652180965
 10
213.7020875498793
 20
56.25857001234088
 30
0.0
 41
1.030578586555894
 10
212.2854208832127
 20
51.35109272422905
 30
0.0
 41
1.190009648738219
 10
213.7020875498793
 20
46.44361543611725
 30
0.0
 41
1.030578586555894
  0
SPLINE
  5
2C4
330
6C
100
AcDbEntity
  8
Visible (ISO)
100
AcDbSpline
210
0.0
220
0.0
230
1.0
 70
    12
 71
     2
 72
     6
 73
     3
 74
     0
 42
0.0000000001
 43
0.0000000001
 40
0.0906100100638154
 40
0.0906100100638154
 40
0.0906100100638154
 40
1.118728652180965
 40
1.118728652180965
 40
1.118728652180965
 10
213.7020875498768
 20
61.16604730045267
 30
0.0
 41
1.030578586555894
 10
212.2854208832114
 20
58.71230865639677
 30
0.0
 41
1.190009648738221
 10
213.7020875498793
 20
56.25857001234088
 30
0.0
 41
1.030578586555894
  0
SPLINE
  5
2C5
330
6C
100
AcDbEntity
  8
Visible (ISO)
100
AcDbSpline
210
0.0
220
0.0
230
1.0
 70
    12
 71
     2
 72
     6
 73
     3
 74
     0
 42
0.0000000001
 43
0.0000000001
 40
0.0906100100638153
 40
0.0906100100638153
 40
0.0906100100638153
 40
1.118728652180965
 40
1.118728652180965
 40
1.118728652180965
 10
213.7020875498793
 20
46.44361543611725
 30
0.0
 41
1.030578586555894
 10
212.2854208832114
 20
43.98987679206133
 30
0.0
 41
1.190009648738219
 10
213.7020875498768
 20
41.53613814800542
 30
0.0
 41
1.030578586555894
  0
LINE
  5
2C6
330
6C
100
AcDbEntity
  8
Visible (ISO)
100
AcDbLine
 10
212.7985606040245
 20
59.60109272422904
 30
0.0
 11
213.7020875498768
 21
61.16604730045267
 31
0.0
  0
LINE
  5
2C7
330
6C
100
AcDbEntity
  8
Visible (ISO)
100
AcDbLine
 10
212.7985606040245
 20
43.10109272422907
 30
0.0
 11
213.7020875498768
 21
41.53613814800542
 31
0.0
  0
LINE
  5
2C8
330
6C
100
AcDbEntity
  8
Visible (ISO)
100
AcDbLine
 10
213.7020875498768
 20
61.16604730045267
 30
0.0
 11
221.8950336581723
 21
61.16604730045267
 31
0.0
  0
LINE
  5
2C9
330
6C
100
AcDbEntity
  8
Visible (ISO)
100
AcDbLine
 10
213.7020875498793
 20
56.25857001234088
 30
0.0
 11
221.8950336581747
 21
56.25857001234088
 31
0.0
  0
LINE
  5
2CA
330
6C
100
AcDbEntity
  8
Visible (ISO)
100
AcDbLine
 10
213.7020875498793
 20
46.44361543611725
 30
0.0
 11
221.8950336581747
 21
46.44361543611725
 31
0.0
  0
LINE
  5
2CB
330
6C
100
AcDbEntity
  8
Visible (ISO)
100
AcDbLine
 10
213.7020875498768
 20
41.53613814800542
 30
0.0
 11
221.8950336581723
 21
41.53613814800542
 31
0.0
  0
SPLINE
  5
2CC
330
6C
100
AcDbEntity
  8
Visible (ISO)
100
AcDbSpline
210
0.0
220
0.0
230
1.0
 70
    12
 71
     2
 72
     6
 73
     3
 74
     0
 42
0.0000000001
 43
0.0000000001
 40
0.0906100100638148
 40
0.0906100100638148
 40
0.0906100100638148
 40
1.118728652180965
 40
1.118728652180965
 40
1.118728652180965
 10
221.8950336581747
 20
56.25857001234088
 30
0.0
 41
1.030578586555894
 10
223.3117003248404
 20
58.71230865639677
 30
0.0
 41
1.190009648738221
 10
221.8950336581723
 20
61.16604730045267
 30
0.0
 41
1.030578586555894
  0
SPLINE
  5
2CD
330
6C
100
AcDbEntity
  8
Visible (ISO)
100
AcDbSpline
210
0.0
220
0.0
230
1.0
 70
    12
 71
     2
 72
     6
 73
     3
 74
     0
 42
0.0000000001
 43
0.0000000001
 40
0.0906100100638154
 40
0.0906100100638154
 40
0.0906100100638154
 40
1.118728652180965
 40
1.118728652180965
 40
1.118728652180965
 10
221.8950336581747
 20
46.44361543611725
 30
0.0
 41
1.030578586555894
 10
223.3117003248414
 20
51.35109272422905
 30
0.0
 41
1.190009648738221
 10
221.8950336581747
 20
56.25857001234088
 30
0.0
 41
1.030578586555894
  0
SPLINE
  5
2CE
330
6C
100
AcDbEntity
  8
Visible (ISO)
100
AcDbSpline
210
0.0
220
0.0
230
1.0
 70
    12
 71
     2
 72
     6
 73
     3
 74
     0
 42
0.0000000001
 43
0.0000000001
 40
0.0906100100638158
 40
0.0906100100638158
 40
0.0906100100638158
 40
1.118728652180965
 40
1.118728652180965
 40
1.118728652180965
 10
221.8950336581723
 20
41.53613814800542
 30
0.0
 41
1.030578586555894
 10
223.3117003248402
 20
43.98987679206133
 30
0.0
 41
1.190009648738221
 10
221.8950336581747
 20
46.44361543611725
 30
0.0
 41
1.030578586555894
  0
LINE
  5
2CF
330
6C
100
AcDbEntity
  8
Visible (ISO)
100
AcDbLine
 10
222.7985606040245
 20
43.10109272422907
 30
0.0
 11
222.7985606040245
 21
59.60109272422904
 31
0.0
  0
LINE
  5
2D0
330
6C
100
AcDbEntity
  8
Visible (ISO)
100
AcDbLine
 10
222.7985606040245
 20
43.10109272422905
 30
0.0
 11
221.8950336581723
 21
41.53613814800542
 31
0.0
  0
LINE
  5
2D1
330
6C
100
AcDbEntity
  8
Visible (ISO)
100
AcDbLine
 10
222.7985606040245
 20
59.60109272422904
 30
0.0
 11
221.8950336581723
 21
61.16604730045267
 31
0.0
  0
LINE
  5
2D2
330
6C
100
AcDbEntity
  8
Visible (ISO)
100
AcDbLine
 10
231.3708720274416
 20
46.52681634021994
 30
0.0
 11
222.7985606040245
 21
46.39287397422903
 31
0.0
  0
LINE
  5
2D3
330
6C
100
AcDbEntity
  8
Visible (ISO)
100
AcDbLine
 10
231.3708720274416
 20
56.17536910823814
 30
0.0
 11
222.7985606040245
 21
56.30931147422904
 31
0.0
  0
LINE
  5
2D4
330
6C
100
AcDbEntity
  8
Visible Narrow (ISO)
100
AcDbLine
 10
222.7985606040245
 20
46.97394489275235
 30
0.0
 11
232.4053117266946
 21
47.12405037904408
 31
0.0
  0
LINE
  5
2D5
330
6C
100
AcDbEntity
  8
Visible Narrow (ISO)
100
AcDbLine
 10
232.4053117266945
 20
55.57813506941403
 30
0.0
 11
222.7985606040245
 21
55.72824055570574
 31
0.0
  0
LINE
  5
2D6
330
6C
100
AcDbEntity
  8
Overlay (ISO)
 48
4.204243183135986
100
AcDbLine
 10
143.2036062213046
 20
136.9799436264899
 30
0.0
 11
143.2036062213046
 21
139.9799436264882
 31
0.0
  0
LINE
  5
2D7
330
6C
100
AcDbEntity
  8
Overlay (ISO)
 48
4.204243183135986
100
AcDbLine
 10
143.2036062213046
 20
126.9799436264882
 30
0.0
 11
143.2036062213046
 21
129.9799436264899
 31
0.0
  0
LINE
  5
2D8
330
6C
100
AcDbEntity
  8
Overlay (ISO)
 48
3.670881271362303
100
AcDbLine
 10
143.7036062213046
 20
129.9799436264898
 30
0.0
 11
143.7036062213046
 21
127.4799436264882
 31
0.0
  0
LINE
  5
2D9
330
6C
100
AcDbEntity
  8
Overlay (ISO)
 48
3.670881271362303
100
AcDbLine
 10
143.7036062213046
 20
139.4799436264884
 30
0.0
 11
143.7036062213046
 21
136.9799436264898
 31
0.0
  0
LINE
  5
2DA
330
6C
100
AcDbEntity
  8
Overlay (ISO)
 48
0.4562745988368988
100
AcDbLine
 10
143.7036062213046
 20
127.4799436264882
 30
0.0
 11
143.2036062213046
 21
126.9799436264882
 31
0.0
  0
LINE
  5
2DB
330
6C
100
AcDbEntity
  8
Overlay (ISO)
 48
0.4562745988368988
100
AcDbLine
 10
143.7036062213046
 20
139.4799436264884
 30
0.0
 11
143.2036062213046
 21
139.9799436264882
 31
0.0
  0
SPLINE
  5
2DC
330
6C
100
AcDbEntity
  8
Overlay (ISO)
 48
2.277396440505981
100
AcDbSpline
210
0.0
220
0.0
230
1.0
 70
    12
 71
     2
 72
     6
 73
     3
 74
     0
 42
0.0000000001
 43
0.0000000001
 40
0.4256073096284686
 40
0.4256073096284686
 40
0.4256073096284686
 40
0.8192657815317236
 40
0.8192657815317236
 40
0.8192657815317236
 10
130.2705935194125
 20
126.0701374615487
 30
0.0
 41
1.045691116018839
 10
130.6853781495605
 20
127.6474793495594
 30
0.0
 41
1.04493719226238
 10
130.702807943682
 20
129.0971644275621
 30
0.0
 41
1.003699766927024
  0
SPLINE
  5
2DD
330
6C
100
AcDbEntity
  8
Overlay (ISO)
 48
2.277396440505981
100
AcDbSpline
210
0.0
220
0.0
230
1.0
 70
    12
 71
     2
 72
     6
 73
     3
 74
     0
 42
0.0000000001
 43
0.0000000001
 40
0.853839069286044
 40
0.853839069286044
 40
0.853839069286044
 40
1.247497541189297
 40
1.247497541189297
 40
1.247497541189297
 10
130.702807943682
 20
137.8627228254187
 30
0.0
 41
1.003699766927024
 10
130.6853781495605
 20
139.312407903421
 30
0.0
 41
1.044937192262372
 10
130.2705935194125
 20
140.889749791431
 30
0.0
 41
1.04569111601883
  0
LINE
  5
2DE
330
6C
100
AcDbEntity
  8
Overlay (ISO)
 48
2.990718841552734
100
AcDbLine
 10
125.6366189231969
 20
126.0701374615487
 30
0.0
 11
130.2705935194125
 21
126.0701374615487
 31
0.0
  0
LINE
  5
2DF
330
6C
100
AcDbEntity
  8
Overlay (ISO)
 48
0.611578106880188
100
AcDbLine
 10
125.6366189231969
 20
125.542689693296
 30
0.0
 11
125.6366189231969
 21
126.0701374615487
 31
0.0
  0
ELLIPSE
  5
2E0
330
6C
100
AcDbEntity
  8
Overlay (ISO)
 48
0.6166242957115175
100
AcDbEllipse
 10
122.8942051445462
 20
133.4799436264884
 30
0.0
 11
0.0
 21
-9.25
 31
0.0
210
0.0
220
0.0
230
1.0
 40
0.577350269189626
 41
0.4471887452263418
 42
0.5392744123179991
  0
SPLINE
  5
2E1
330
6C
100
AcDbEntity
  8
Overlay (ISO)
 48
1.42379868030548
100
AcDbSpline
210
0.0
220
0.0
230
1.0
 70
    12
 71
     2
 72
     6
 73
     3
 74
     0
 42
0.0000000001
 43
0.0000000001
 40
0.9570977237668156
 40
0.9570977237668156
 40
0.9570977237668156
 40
1.197529924693542
 40
1.197529924693542
 40
1.197529924693542
 10
125.27679463967
 20
127.9538874054406
 30
0.0
 41
1.027716443952529
 10
125.3803046171053
 20
127.0448488228408
 30
0.0
 41
1.042467050658394
 10
125.6366189231969
 20
126.0701374615487
 30
0.0
 41
1.041774167103256
  0
LINE
  5
2E2
330
6C
100
AcDbEntity
  8
Overlay (ISO)
 48
2.980243921279905
100
AcDbLine
 10
130.2705935194125
 20
140.889749791431
 30
0.0
 11
125.6528486110741
 21
140.889749791431
 31
0.0
  0
SPLINE
  5
2E3
330
6C
100
AcDbEntity
  8
Overlay (ISO)
 48
1.371741294860839
100
AcDbSpline
210
0.0
220
0.0
230
1.0
 70
    12
 71
     2
 72
     6
 73
     3
 74
     0
 42
0.0000000001
 43
0.0000000001
 40
0.3932061578396785
 40
0.3932061578396785
 40
0.3932061578396785
 40
0.625225952325711
 40
0.625225952325711
 40
0.625225952325711
 10
125.6188647229275
 20
140.8216117274474
 30
0.0
 41
1.041803747226504
 10
125.3767324163234
 20
139.8836668810775
 30
0.0
 41
1.041950946333024
 10
125.27679463967
 20
139.0059998475399
 30
0.0
 41
1.027716443952529
  0
LINE
  5
2E4
330
6C
100
AcDbEntity
  8
Overlay (ISO)
 48
2.030720949172973
100
AcDbLine
 10
125.2036062213047
 20
125.9799436264894
 30
0.0
 11
125.2036062213047
 21
127.9351280225226
 31
0.0
  0
LINE
  5
2E5
330
6C
100
AcDbEntity
  8
Overlay (ISO)
 48
0.4004427790641786
100
AcDbLine
 10
125.2036062213047
 20
139.0247592304579
 30
0.0
 11
125.2036062213047
 21
139.47994362649
 31
0.0
  0
SPLINE
  5
2E6
330
6C
100
AcDbEntity
  8
Overlay (ISO)
 48
0.6260591745376587
100
AcDbSpline
210
0.0
220
0.0
230
1.0
 70
    12
 71
     2
 72
     6
 73
     3
 74
     0
 42
0.0000000001
 43
0.0000000001
 40
-1.486263498190694
 40
-1.486263498190694
 40
-1.486263498190694
 40
-1.36702465746637
 40
-1.36702465746637
 40
-1.36702465746637
 10
125.2036062213434
 20
125.9799436264492
 30
0.0
 41
1.0
 10
125.4139801180198
 20
125.7613166598725
 30
0.0
 41
1.0
 10
125.6366189231969
 20
125.542689693296
 30
0.0
 41
1.0
  0
LINE
  5
2E7
330
6C
100
AcDbEntity
  8
Overlay (ISO)
 48
1.410424947738645
100
AcDbLine
 10
130.2705935194125
 20
126.0701374615487
 30
0.0
 11
130.2705935194125
 21
124.9799436264894
 31
0.0
  0
SPLINE
  5
2E8
330
6C
100
AcDbEntity
  8
Overlay (ISO)
 48
2.376354217529294
100
AcDbSpline
210
0.0
220
0.0
230
1.0
 70
    28
 71
     2
 72
     6
 73
     3
 74
     0
 42
0.0000000001
 43
0.0000000001
 40
0.8365524254088846
 40
0.8365524254088846
 40
0.8365524254088846
 40
1.2474975411893
 40
1.2474975411893
 40
1.2474975411893
 10
130.7036062213047
 20
124.9799436264884
 30
0.0
 41
1.0
 10
130.7036062213047
 20
124.9799436264887
 30
0.0
 41
1.044904085362809
 10
130.2705935194125
 20
124.9799436264894
 30
0.0
 41
1.045691116018822
  0
LINE
  5
2E9
330
6C
100
AcDbEntity
  8
Overlay (ISO)
 48
7.169835090637207
100
AcDbLine
 10
130.7036062213047
 20
124.9799436264882
 30
0.0
 11
130.7036062213047
 21
129.0972973446168
 31
0.0
  0
SPLINE
  5
2EA
330
6C
100
AcDbEntity
  8
Overlay (ISO)
 48
2.376354217529294
100
AcDbSpline
210
0.0
220
0.0
230
1.0
 70
    28
 71
     2
 72
     6
 73
     3
 74
     0
 42
0.0000000001
 43
0.0000000001
 40
0.4256073096284699
 40
0.4256073096284699
 40
0.4256073096284699
 40
0.8365524254088839
 40
0.8365524254088839
 40
0.8365524254088839
 10
130.2705935194125
 20
141.9799436264893
 30
0.0
 41
1.045691116018829
 10
130.7036062213047
 20
141.9799436264886
 30
0.0
 41
1.044904085362813
 10
130.7036062213047
 20
141.9799436264884
 30
0.0
 41
1.0
  0
LINE
  5
2EB
330
6C
100
AcDbEntity
  8
Overlay (ISO)
 48
1.410424947738645
100
AcDbLine
 10
130.2705935194125
 20
141.9799436264893
 30
0.0
 11
130.2705935194125
 21
140.889749791431
 31
0.0
  0
LINE
  5
2EC
330
6C
100
AcDbEntity
  8
Overlay (ISO)
 48
7.169835090637207
100
AcDbLine
 10
130.7036062213047
 20
137.8625899083639
 30
0.0
 11
130.7036062213047
 21
141.9799436264884
 31
0.0
  0
LINE
  5
2ED
330
6C
100
AcDbEntity
  8
Overlay (ISO)
 48
9.071301460266113
100
AcDbLine
 10
130.2705935194125
 20
124.9799436264894
 30
0.0
 11
108.1366189231969
 21
124.9799436264894
 31
0.0
  0
LINE
  5
2EE
330
6C
100
AcDbEntity
  8
Overlay (ISO)
 48
2.990718841552734
100
AcDbLine
 10
108.1366189231969
 20
126.0701374615487
 30
0.0
 11
112.7705935194124
 21
126.0701374615487
 31
0.0
  0
LINE
  5
2EF
330
6C
100
AcDbEntity
  8
Overlay (ISO)
 48
1.410424947738645
100
AcDbLine
 10
108.1366189231969
 20
124.9799436264894
 30
0.0
 11
108.1366189231969
 21
126.0701374615487
 31
0.0
  0
LINE
  5
2F0
330
6C
100
AcDbEntity
  8
Overlay (ISO)
 48
1.410424947738645
100
AcDbLine
 10
108.1366189231969
 20
140.889749791431
 30
0.0
 11
108.1366189231969
 21
141.9799436264894
 31
0.0
  0
LINE
  5
2F1
330
6C
100
AcDbEntity
  8
Overlay (ISO)
 48
1.410424947738645
100
AcDbLine
 10
108.1366189231969
 20
132.389749791432
 30
0.0
 11
108.1366189231969
 21
134.5701374615499
 31
0.0
  0
LINE
  5
2F2
330
6C
100
AcDbEntity
  8
Overlay (ISO)
 48
2.980243921279905
100
AcDbLine
 10
112.7543638315352
 20
140.889749791431
 30
0.0
 11
108.1366189231969
 21
140.889749791431
 31
0.0
  0
LINE
  5
2F3
330
6C
100
AcDbEntity
  8
Overlay (ISO)
 48
2.1877863407135
100
AcDbLine
 10
108.1366189231969
 20
141.9799436264893
 30
0.0
 11
111.5265299549125
 21
141.9799436264893
 31
0.0
  0
LINE
  5
2F4
330
6C
100
AcDbEntity
  8
Overlay (ISO)
 48
2.386104822158813
100
AcDbLine
 10
111.833804500634
 20
132.389749791432
 30
0.0
 11
108.1366189231969
 21
132.389749791432
 31
0.0
  0
LINE
  5
2F5
330
6C
100
AcDbEntity
  8
Overlay (ISO)
 48
2.386104822158813
100
AcDbLine
 10
108.1366189231969
 20
134.5701374615499
 30
0.0
 11
111.833804500634
 21
134.5701374615499
 31
0.0
  0
LINE
  5
2F6
330
6C
100
AcDbEntity
  8
Overlay (ISO)
 48
2.1877863407135
100
AcDbLine
 10
126.8806824876967
 20
141.9799436264893
 30
0.0
 11
130.2705935194125
 21
141.9799436264893
 31
0.0
  0
SPLINE
  5
2F7
330
6C
100
AcDbEntity
  8
Overlay (ISO)
 48
2.376354217529294
100
AcDbSpline
210
0.0
220
0.0
230
1.0
 70
    28
 71
     2
 72
     6
 73
     3
 74
     0
 42
0.0000000001
 43
0.0000000001
 40
0.4226777092670462
 40
0.4226777092670462
 40
0.4226777092670462
 40
0.8332926396892185
 40
0.8332926396892185
 40
0.8332926396892185
 10
108.1366189231969
 20
124.9799436264894
 30
0.0
 41
1.045413293158438
 10
107.7036062213047
 20
124.9799436264887
 30
0.0
 41
1.044765269262242
 10
107.7036062213047
 20
124.9799436264884
 30
0.0
 41
1.0
  0
SPLINE
  5
2F8
330
6C
100
AcDbEntity
  8
Overlay (ISO)
 48
2.376354217529294
100
AcDbSpline
210
0.0
220
0.0
230
1.0
 70
    28
 71
     2
 72
     6
 73
     3
 74
     0
 42
0.0000000001
 43
0.0000000001
 40
0.8332926396892174
 40
0.8332926396892174
 40
0.8332926396892174
 40
1.243907570111385
 40
1.243907570111385
 40
1.243907570111385
 10
107.7036062213047
 20
141.9799436264884
 30
0.0
 41
1.0
 10
107.7036062213047
 20
141.9799436264886
 30
0.0
 41
1.044765269262236
 10
108.1366189231969
 20
141.9799436264893
 30
0.0
 41
1.045413293158431
  0
LINE
  5
2F9
330
6C
100
AcDbEntity
  8
Overlay (ISO)
 48
7.296048641204831
100
AcDbLine
 10
107.7036062213047
 20
141.9799436264882
 30
0.0
 11
107.7036062213047
 21
137.7299436264904
 31
0.0
  0
SPLINE
  5
2FA
330
6C
100
AcDbEntity
  8
Overlay (ISO)
 48
2.376354217529294
100
AcDbSpline
210
0.0
220
0.0
230
1.0
 70
    12
 71
     2
 72
     6
 73
     3
 74
     0
 42
0.0000000001
 43
0.0000000001
 40
0.4226777092670477
 40
0.4226777092670477
 40
0.4226777092670477
 40
0.8332926396892176
 40
0.8332926396892176
 40
0.8332926396892176
 10
108.1366189231969
 20
140.889749791431
 30
0.0
 41
1.045413293158433
 10
107.7036062213047
 20
139.2430902406874
 30
0.0
 41
1.044765269262237
 10
107.7036062213047
 20
137.7299436264904
 30
0.0
 41
1.0
  0
SPLINE
  5
2FB
330
6C
100
AcDbEntity
  8
Overlay (ISO)
 48
2.376354217529294
100
AcDbSpline
210
0.0
220
0.0
230
1.0
 70
    12
 71
     2
 72
     6
 73
     3
 74
     0
 42
0.0000000001
 43
0.0000000001
 40
0.8332926396892176
 40
0.8332926396892176
 40
0.8332926396892176
 40
1.243907570111385
 40
1.243907570111385
 40
1.243907570111385
 10
107.7036062213047
 20
137.7299436264904
 30
0.0
 41
1.0
 10
107.7036062213047
 20
136.2167970122935
 30
0.0
 41
1.044765269262236
 10
108.1366189231969
 20
134.5701374615499
 30
0.0
 41
1.045413293158431
  0
LINE
  5
2FC
330
6C
100
AcDbEntity
  8
Overlay (ISO)
 48
7.296048641204831
100
AcDbLine
 10
107.7036062213047
 20
137.7299436264904
 30
0.0
 11
107.7036062213047
 21
129.2299436264904
 31
0.0
  0
SPLINE
  5
2FD
330
6C
100
AcDbEntity
  8
Overlay (ISO)
 48
2.376354217529294
100
AcDbSpline
210
0.0
220
0.0
230
1.0
 70
    12
 71
     2
 72
     6
 73
     3
 74
     0
 42
0.0000000001
 43
0.0000000001
 40
0.4226777092670467
 40
0.4226777092670467
 40
0.4226777092670467
 40
0.8332926396892183
 40
0.8332926396892183
 40
0.8332926396892183
 10
108.1366189231969
 20
132.389749791432
 30
0.0
 41
1.045413293158434
 10
107.7036062213047
 20
130.7430902406879
 30
0.0
 41
1.044765269262239
 10
107.7036062213047
 20
129.2299436264904
 30
0.0
 41
1.0
  0
SPLINE
  5
2FE
330
6C
100
AcDbEntity
  8
Overlay (ISO)
 48
2.376354217529294
100
AcDbSpline
210
0.0
220
0.0
230
1.0
 70
    12
 71
     2
 72
     6
 73
     3
 74
     0
 42
0.0000000001
 43
0.0000000001
 40
0.8332926396892183
 40
0.8332926396892183
 40
0.8332926396892183
 40
1.243907570111389
 40
1.243907570111389
 40
1.243907570111389
 10
107.7036062213047
 20
129.2299436264904
 30
0.0
 41
1.0
 10
107.7036062213047
 20
127.7167970122931
 30
0.0
 41
1.044765269262239
 10
108.1366189231969
 20
126.0701374615487
 30
0.0
 41
1.045413293158434
  0
LINE
  5
2FF
330
6C
100
AcDbEntity
  8
Overlay (ISO)
 48
7.296048641204831
100
AcDbLine
 10
107.7036062213047
 20
129.2299436264904
 30
0.0
 11
107.7036062213047
 21
124.9799436264884
 31
0.0
  0
LINE
  5
300
330
6C
100
AcDbEntity
  8
Overlay (ISO)
 48
9.836065292358398
100
AcDbLine
 10
113.2036062213045
 20
125.1395299676834
 30
0.0
 11
125.2036062213047
 21
125.1395299676834
 31
0.0
  0
LINE
  5
301
330
6C
100
AcDbEntity
  8
Overlay (ISO)
 48
9.836065292358398
100
AcDbLine
 10
113.2036062213045
 20
125.9799436264894
 30
0.0
 11
125.2036062213047
 21
125.9799436264894
 31
0.0
  0
LINE
  5
302
330
6C
100
AcDbEntity
  8
Overlay (ISO)
 48
0.5423123240470888
100
AcDbLine
 10
125.2036062213047
 20
125.1395299676834
 30
0.0
 11
125.2036062213047
 21
125.9799436264894
 31
0.0
  0
LINE
  5
303
330
6C
100
AcDbEntity
  8
Overlay (ISO)
 48
0.5423123240470888
100
AcDbLine
 10
113.2036062213045
 20
125.1395299676834
 30
0.0
 11
113.2036062213045
 21
125.9799436264894
 31
0.0
  0
ELLIPSE
  5
304
330
6C
100
AcDbEntity
  8
Overlay (ISO)
 48
0.6166242957115175
100
AcDbEllipse
 10
115.5130072980632
 20
133.4799436264884
 30
0.0
 11
0.0
 21
9.25
 31
0.0
210
0.0
220
0.0
230
1.0
 40
0.577350269189626
 41
2.602318241271794
 42
2.694403908363451
  0
LINE
  5
305
330
6C
100
AcDbEntity
  8
Overlay (ISO)
 48
0.611578106880188
100
AcDbLine
 10
112.7705935194124
 20
126.0701374615487
 30
0.0
 11
112.7705935194124
 21
125.542689693296
 31
0.0
  0
SPLINE
  5
306
330
6C
100
AcDbEntity
  8
Overlay (ISO)
 48
2.201697826385498
100
AcDbSpline
210
0.0
220
0.0
230
1.0
 70
    12
 71
     2
 72
     6
 73
     3
 74
     0
 42
0.0000000001
 43
0.0000000001
 40
0.8123858579521044
 40
0.8123858579521044
 40
0.8123858579521044
 40
1.189117518252846
 40
1.189117518252846
 40
1.189117518252846
 10
113.2023810452706
 20
137.8944420562711
 30
0.0
 41
1.004365595477415
 10
113.1814644762643
 20
139.2988003313577
 30
0.0
 41
1.042042755126312
 10
112.7883477196817
 20
140.8216117274474
 30
0.0
 41
1.041803747226504
  0
SPLINE
  5
307
330
6C
100
AcDbEntity
  8
Overlay (ISO)
 48
2.253755569458005
100
AcDbSpline
210
0.0
220
0.0
230
1.0
 70
    12
 71
     2
 72
     6
 73
     3
 74
     0
 42
0.0000000001
 43
0.0000000001
 40
0.3847937513989829
 40
0.3847937513989829
 40
0.3847937513989829
 40
0.7699378181404203
 40
0.7699378181404203
 40
0.7699378181404203
 10
112.7705935194124
 20
126.0701374615487
 30
0.0
 41
1.041774167103256
 10
113.1810146608198
 20
127.6308858861852
 30
0.0
 41
1.042884084947768
 10
113.2023810452706
 20
129.0654451967097
 30
0.0
 41
1.004365595477415
  0
LINE
  5
308
330
6C
100
AcDbEntity
  8
Overlay (ISO)
 48
1.301975727081297
100
AcDbLine
 10
113.2036062213045
 20
137.8961071198407
 30
0.0
 11
113.2036062213045
 21
139.47994362649
 31
0.0
  0
LINE
  5
309
330
6C
100
AcDbEntity
  8
Overlay (ISO)
 48
2.932254076004028
100
AcDbLine
 10
113.2036062213045
 20
125.9799436264894
 30
0.0
 11
113.2036062213045
 21
129.0637801331401
 31
0.0
  0
SPLINE
  5
30A
330
6C
100
AcDbEntity
  8
Overlay (ISO)
 48
0.6260591745376587
100
AcDbSpline
210
0.0
220
0.0
230
1.0
 70
    12
 71
     2
 72
     6
 73
     3
 74
     0
 42
0.0000000001
 43
0.0000000001
 40
-1.486263498190694
 40
-1.486263498190694
 40
-1.486263498190694
 40
-1.36702465746637
 40
-1.36702465746637
 40
-1.36702465746637
 10
113.203606221266
 20
125.9799436264492
 30
0.0
 41
1.0
 10
112.9932323245895
 20
125.7613166598725
 30
0.0
 41
1.0
 10
112.7705935194124
 20
125.542689693296
 30
0.0
 41
1.0
  0
ELLIPSE
  5
30B
330
6C
100
AcDbEntity
  8
Overlay (ISO)
 48
0.0552148260176182
100
AcDbEllipse
 10
119.2036062213047
 20
150.4799436264882
 30
0.0
 11
0.0
 21
14.72243186433292
 31
0.0
210
0.0
220
0.0
230
1.0
 40
0.5773502691897253
 41
3.996844707048501
 42
4.002960670239064
  0
LINE
  5
30C
330
6C
100
AcDbEntity
  8
Overlay (ISO)
 48
8.755258560180664
100
AcDbLine
 10
127.7036062213045
 20
147.9799436264882
 30
0.0
 11
110.7036062213047
 21
147.9799436264882
 31
0.0
  0
SPLINE
  5
30D
330
6C
100
AcDbEntity
  8
Overlay (ISO)
 48
1.620177268981931
100
AcDbSpline
210
0.0
220
0.0
230
1.0
 70
     8
 71
     3
 72
     8
 73
     4
 74
     0
 42
0.0000000001
 43
0.0000000001
 40
0.8292463199719302
 40
0.8292463199719302
 40
0.8292463199719302
 40
0.8292463199719302
 40
1.069319888959278
 40
1.069319888959278
 40
1.069319888959278
 40
1.069319888959278
 10
112.7543638315352
 20
140.889749791431
 30
0.0
 10
112.2883436114546
 20
141.2953578857496
 30
0.0
 10
111.8624343285753
 20
141.6765597706171
 30
0.0
 10
111.5265299549125
 20
141.9799436264893
 30
0.0
  0
ELLIPSE
  5
30E
330
6C
100
AcDbEntity
  8
Overlay (ISO)
 48
0.0552148260176182
100
AcDbEllipse
 10
119.2036062213047
 20
150.4799436264882
 30
0.0
 11
0.0
 21
14.72243186433292
 31
0.0
210
0.0
220
0.0
230
1.0
 40
0.5773502691897253
 41
2.280224636940519
 42
2.286340600131083
  0
SPLINE
  5
30F
330
6C
100
AcDbEntity
  8
Overlay (ISO)
 48
0.9509410858154295
100
AcDbSpline
210
0.0
220
0.0
230
1.0
 70
     8
 71
     3
 72
    10
 73
     6
 74
     0
 42
0.0000000001
 43
0.0000000001
 40
2.358463870327546
 40
2.358463870327546
 40
2.358463870327546
 40
2.358463870327546
 40
2.381073897766034
 40
2.381073897766034
 40
2.502243251613869
 40
2.502243251613869
 40
2.502243251613869
 40
2.502243251613869
 10
112.7883477196817
 20
140.8216117274474
 30
0.0
 10
112.8108486515614
 20
140.753010309641
 30
0.0
 10
112.833052924482
 20
140.6847650925833
 30
0.0
 10
112.9721888486323
 20
140.2535924391392
 30
0.0
 10
113.0897629890962
 20
139.8731283969327
 30
0.0
 10
113.2036062213045
 20
139.47994362649
 30
0.0
  0
LINE
  5
310
330
6C
100
AcDbEntity
  8
Overlay (ISO)
 48
0.7892017364501954
100
AcDbLine
 10
113.2036062213045
 20
139.47994362649
 30
0.0
 11
113.9356607014649
 21
138.74788914633
 31
0.0
  0
LINE
  5
311
330
6C
100
AcDbEntity
  8
Overlay (ISO)
 48
0.3958848714828491
100
AcDbLine
 10
124.8423484372179
 20
139.1186858424034
 30
0.0
 11
125.2036062213047
 21
139.47994362649
 31
0.0
  0
SPLINE
  5
312
330
6C
100
AcDbEntity
  8
Overlay (ISO)
 48
0.9509410858154295
100
AcDbSpline
210
0.0
220
0.0
230
1.0
 70
     8
 71
     3
 72
    10
 73
     6
 74
     0
 42
0.0000000001
 43
0.0000000001
 40
3.664699947043588
 40
3.664699947043588
 40
3.664699947043588
 40
3.664699947043588
 40
3.785869300891423
 40
3.785869300891423
 40
3.808479328329911
 40
3.808479328329911
 40
3.808479328329911
 40
3.808479328329911
 10
125.2036062213047
 20
139.47994362649
 30
0.0
 10
125.3174494535132
 20
139.8731283969327
 30
0.0
 10
125.435023593977
 20
140.2535924391392
 30
0.0
 10
125.5741595181274
 20
140.6847650925833
 30
0.0
 10
125.5963637910479
 20
140.753010309641
 30
0.0
 10
125.6188647229276
 20
140.8216117274474
 30
0.0
  0
SPLINE
  5
313
330
6C
100
AcDbEntity
  8
Overlay (ISO)
 48
1.620176911354064
100
AcDbSpline
210
0.0
220
0.0
230
1.0
 70
     8
 71
     3
 72
     8
 73
     4
 74
     0
 42
0.0000000001
 43
0.0000000001
 40
4.714232720745108
 40
4.714232720745108
 40
4.714232720745108
 40
4.714232720745108
 40
4.954306289732459
 40
4.954306289732459
 40
4.954306289732459
 40
4.954306289732459
 10
126.8806824876967
 20
141.9799436264893
 30
0.0
 10
126.5448363134543
 20
141.6766122507912
 30
0.0
 10
126.1189350750095
 20
141.2954161058062
 30
0.0
 10
125.6528486110741
 20
140.889749791431
 30
0.0
  0
LINE
  5
314
330
6C
100
AcDbEntity
  8
Overlay (ISO)
 48
3.872366666793823
100
AcDbLine
 10
110.7036062213047
 20
141.9799436264884
 30
0.0
 11
110.7036062213047
 21
147.9799436264882
 31
0.0
  0
LINE
  5
315
330
6C
100
AcDbEntity
  8
Overlay (ISO)
 48
3.872366666793823
100
AcDbLine
 10
127.7036062213045
 20
141.9799436264884
 30
0.0
 11
127.7036062213045
 21
147.9799436264882
 31
0.0
  0
LINE
  5
316
330
6C
100
AcDbEntity
  8
Overlay (ISO)
 48
10.2459020614624
100
AcDbLine
 10
143.2036062213046
 20
126.9799436264882
 30
0.0
 11
130.7036062213047
 21
126.9799436264882
 31
0.0
  0
LINE
  5
317
330
6C
100
AcDbEntity
  8
Overlay (ISO)
 48
10.2459020614624
100
AcDbLine
 10
143.2036062213046
 20
139.9799436264882
 30
0.0
 11
130.7036062213047
 21
139.9799436264882
 31
0.0
  0
LINE
  5
318
330
6C
100
AcDbEntity
  8
Overlay (ISO)
 48
0.4562745988368988
100
AcDbLine
 10
127.2036062213047
 20
148.4799436264882
 30
0.0
 11
127.7036062213045
 21
147.9799436264882
 31
0.0
  0
LINE
  5
319
330
6C
100
AcDbEntity
  8
Overlay (ISO)
 48
0.4562745988368988
100
AcDbLine
 10
111.2036062213045
 20
148.4799436264882
 30
0.0
 11
110.7036062213047
 21
147.9799436264882
 31
0.0
  0
SPLINE
  5
35A
330
6C
100
AcDbEntity
  8
Overlay (ISO)
 48
8.168594360351562
100
AcDbSpline
210
0.0
220
0.0
230
1.0
 70
    12
 71
     2
 72
     6
 73
     3
 74
     0
 42
0.0000000001
 43
0.0000000001
 40
0.0906100100638158
 40
0.0906100100638158
 40
0.0906100100638158
 40
1.118728652180965
 40
1.118728652180965
 40
1.118728652180965
 10
106.8000792754524
 20
133.4799436264911
 30
0.0
 41
1.030578586555894
 10
108.2167459421191
 20
137.7299436264904
 30
0.0
 41
1.190009648738221
 10
106.8000792754524
 20
141.9799436264898
 30
0.0
 41
1.030578586555894
  0
SPLINE
  5
35B
330
6C
100
AcDbEntity
  8
Overlay (ISO)
 48
8.168594360351562
100
AcDbSpline
210
0.0
220
0.0
230
1.0
 70
    12
 71
     2
 72
     6
 73
     3
 74
     0
 42
0.0000000001
 43
0.0000000001
 40
0.0906100100638159
 40
0.0906100100638159
 40
0.0906100100638159
 40
1.118728652180965
 40
1.118728652180965
 40
1.118728652180965
 10
106.8000792754524
 20
124.9799436264898
 30
0.0
 41
1.030578586555894
 10
108.2167459421191
 20
129.2299436264904
 30
0.0
 41
1.190009648738219
 10
106.8000792754524
 20
133.4799436264911
 30
0.0
 41
1.030578586555894
  0
SPLINE
  5
35C
330
6C
100
AcDbEntity
  8
Overlay (ISO)
 48
3.215791702270506
100
AcDbSpline
210
0.0
220
0.0
230
1.0
 70
    28
 71
     2
 72
     6
 73
     3
 74
     0
 42
0.0000000001
 43
0.0000000001
 40
0.6046693311223929
 40
0.6046693311223929
 40
0.6046693311223929
 40
1.118728652180965
 40
1.118728652180965
 40
1.118728652180965
 10
107.5592686540072
 20
124.9799436264882
 30
0.0
 41
1.110294117647057
 10
107.5592686540072
 20
124.9799436264889
 30
0.0
 41
1.110294117647057
 10
106.8000792754524
 20
124.9799436264898
 30
0.0
 41
1.030578586555894
  0
SPLINE
  5
35D
330
6C
100
AcDbEntity
  8
Overlay (ISO)
 48
3.215791702270506
100
AcDbSpline
210
0.0
220
0.0
230
1.0
 70
    28
 71
     2
 72
     6
 73
     3
 74
     0
 42
0.0000000001
 43
0.0000000001
 40
0.0906100100638158
 40
0.0906100100638158
 40
0.0906100100638158
 40
0.6046693311223921
 40
0.6046693311223921
 40
0.6046693311223921
 10
106.8000792754524
 20
141.9799436264898
 30
0.0
 41
1.030578586555894
 10
107.5592686540072
 20
141.9799436264889
 30
0.0
 41
1.110294117647057
 10
107.5592686540072
 20
141.9799436264884
 30
0.0
 41
1.110294117647057
  0
LINE
  5
35E
330
6C
100
AcDbEntity
  8
Overlay (ISO)
 48
0.1862141489982605
100
AcDbLine
 10
107.7036062213047
 20
125.2299436264882
 30
0.0
 11
107.5592686540072
 21
124.9799436264882
 31
0.0
  0
LINE
  5
35F
330
6C
100
AcDbEntity
  8
Overlay (ISO)
 48
0.1862141489982605
100
AcDbLine
 10
107.7036062213047
 20
141.7299436264884
 30
0.0
 11
107.5592686540072
 21
141.9799436264884
 31
0.0
  0
LINE
  5
360
330
6C
100
AcDbEntity
  8
Overlay (ISO)
 48
9.174546241760252
100
AcDbLine
 10
106.8000792754524
 20
124.9799436264898
 30
0.0
 11
95.60713316715693
 21
124.9799436264898
 31
0.0
  0
LINE
  5
361
330
6C
100
AcDbEntity
  8
Overlay (ISO)
 48
9.174546241760252
100
AcDbLine
 10
106.8000792754524
 20
133.4799436264911
 30
0.0
 11
95.60713316715693
 21
133.4799436264911
 31
0.0
  0
LINE
  5
362
330
6C
100
AcDbEntity
  8
Overlay (ISO)
 48
9.174546241760252
100
AcDbLine
 10
106.8000792754524
 20
141.9799436264898
 30
0.0
 11
95.60713316715693
 21
141.9799436264898
 31
0.0
  0
SPLINE
  5
363
330
6C
100
AcDbEntity
  8
Overlay (ISO)
 48
3.215791702270506
100
AcDbSpline
210
0.0
220
0.0
230
1.0
 70
    28
 71
     2
 72
     6
 73
     3
 74
     0
 42
0.0000000001
 43
0.0000000001
 40
0.0906100100638162
 40
0.0906100100638162
 40
0.0906100100638162
 40
0.604669331122391
 40
0.604669331122391
 40
0.604669331122391
 10
95.60713316715693
 20
124.9799436264898
 30
0.0
 41
1.030578586555894
 10
94.84794378860206
 20
124.9799436264889
 30
0.0
 41
1.110294117647057
 10
94.84794378860206
 20
124.9799436264882
 30
0.0
 41
1.110294117647057
  0
SPLINE
  5
364
330
6C
100
AcDbEntity
  8
Overlay (ISO)
 48
8.168594360351562
100
AcDbSpline
210
0.0
220
0.0
230
1.0
 70
    12
 71
     2
 72
     6
 73
     3
 74
     0
 42
0.0000000001
 43
0.0000000001
 40
0.0906100100638159
 40
0.0906100100638159
 40
0.0906100100638159
 40
1.118728652180965
 40
1.118728652180965
 40
1.118728652180965
 10
95.60713316715693
 20
133.4799436264911
 30
0.0
 41
1.030578586555894
 10
94.19046650049029
 20
129.2299436264904
 30
0.0
 41
1.190009648738221
 10
95.60713316715693
 20
124.9799436264898
 30
0.0
 41
1.030578586555894
  0
SPLINE
  5
365
330
6C
100
AcDbEntity
  8
Overlay (ISO)
 48
8.168594360351562
100
AcDbSpline
210
0.0
220
0.0
230
1.0
 70
    12
 71
     2
 72
     6
 73
     3
 74
     0
 42
0.0000000001
 43
0.0000000001
 40
0.0906100100638164
 40
0.0906100100638164
 40
0.0906100100638164
 40
1.118728652180965
 40
1.118728652180965
 40
1.118728652180965
 10
95.60713316715693
 20
141.9799436264898
 30
0.0
 41
1.030578586555894
 10
94.19046650049029
 20
137.7299436264904
 30
0.0
 41
1.19000964873822
 10
95.60713316715693
 20
133.4799436264911
 30
0.0
 41
1.030578586555894
  0
SPLINE
  5
366
330
6C
100
AcDbEntity
  8
Overlay (ISO)
 48
3.215791702270506
100
AcDbSpline
210
0.0
220
0.0
230
1.0
 70
    28
 71
     2
 72
     6
 73
     3
 74
     0
 42
0.0000000001
 43
0.0000000001
 40
0.6046693311223918
 40
0.6046693311223918
 40
0.6046693311223918
 40
1.118728652180965
 40
1.118728652180965
 40
1.118728652180965
 10
94.84794378860206
 20
141.9799436264884
 30
0.0
 41
1.110294117647057
 10
94.84794378860206
 20
141.9799436264889
 30
0.0
 41
1.110294117647057
 10
95.60713316715693
 20
141.9799436264898
 30
0.0
 41
1.030578586555894
  0
LINE
  5
367
330
6C
100
AcDbEntity
  8
Overlay (ISO)
 48
8.497750282287597
100
AcDbLine
 10
94.70360622130469
 20
141.7299436264884
 30
0.0
 11
94.70360622130469
 21
125.2299436264882
 31
0.0
  0
LINE
  5
368
330
6C
100
AcDbEntity
  8
Overlay (ISO)
 48
0.1862141489982605
100
AcDbLine
 10
94.70360622130469
 20
141.7299436264884
 30
0.0
 11
94.84794378860206
 21
141.9799436264884
 31
0.0
  0
LINE
  5
369
330
6C
100
AcDbEntity
  8
Overlay (ISO)
 48
0.1862141489982605
100
AcDbLine
 10
94.70360622130469
 20
125.2299436264882
 30
0.0
 11
94.84794378860206
 21
124.9799436264882
 31
0.0
  0
LINE
  5
36A
330
6C
100
AcDbEntity
  8
Overlay (ISO)
 48
10.30030345916748
100
AcDbLine
 10
123.2036062213045
 20
168.4799436264882
 30
0.0
 11
115.2036062213045
 21
168.4799436264882
 31
0.0
  0
LINE
  5
36B
330
6C
100
AcDbEntity
  8
Overlay (ISO)
 48
8.281918525695799
100
AcDbLine
 10
114.3793298372955
 20
167.0522550499053
 30
0.0
 11
124.0278826053138
 21
167.0522550499053
 31
0.0
  0
LINE
  5
36C
330
6C
100
AcDbEntity
  8
Overlay (ISO)
 48
1.063894271850584
100
AcDbLine
 10
123.2036062213045
 20
168.4799436264882
 30
0.0
 11
124.0278826053138
 21
167.0522550499053
 31
0.0
  0
LINE
  5
36D
330
6C
100
AcDbEntity
  8
Overlay (ISO)
 48
1.063894271850584
100
AcDbLine
 10
115.2036062213045
 20
168.4799436264882
 30
0.0
 11
114.3793298372955
 21
167.0522550499053
 31
0.0
  0
LINE
  5
36E
330
6C
100
AcDbEntity
  8
Overlay (ISO)
 48
8.497750282287597
100
AcDbLine
 10
110.9536062213047
 20
148.4799436264882
 30
0.0
 11
127.4536062213047
 21
148.4799436264882
 31
0.0
  0
SPLINE
  5
36F
330
6C
100
AcDbEntity
  8
Overlay (ISO)
 48
3.215791702270506
100
AcDbSpline
210
0.0
220
0.0
230
1.0
 70
    28
 71
     2
 72
     6
 73
     3
 74
     0
 42
0.0000000001
 43
0.0000000001
 40
0.0906100100638152
 40
0.0906100100638152
 40
0.0906100100638152
 40
0.6046693311223919
 40
0.6046693311223919
 40
0.6046693311223919
 10
127.7036062213046
 20
149.3834705723419
 30
0.0
 41
1.030578586555894
 10
127.7036062213045
 20
148.6242811937863
 30
0.0
 41
1.110294117647057
 10
127.7036062213045
 20
148.6242811937856
 30
0.0
 41
1.110294117647057
  0
SPLINE
  5
370
330
6C
100
AcDbEntity
  8
Overlay (ISO)
 48
8.168594360351562
100
AcDbSpline
210
0.0
220
0.0
230
1.0
 70
    12
 71
     2
 72
     6
 73
     3
 74
     0
 42
0.0000000001
 43
0.0000000001
 40
0.0906100100638154
 40
0.0906100100638154
 40
0.0906100100638154
 40
1.118728652180965
 40
1.118728652180965
 40
1.118728652180965
 10
119.2036062213047
 20
149.3834705723434
 30
0.0
 41
1.030578586555894
 10
123.4536062213047
 20
147.966803905676
 30
0.0
 41
1.190009648738221
 10
127.7036062213046
 20
149.3834705723419
 30
0.0
 41
1.030578586555894
  0
SPLINE
  5
371
330
6C
100
AcDbEntity
  8
Overlay (ISO)
 48
8.168594360351562
100
AcDbSpline
210
0.0
220
0.0
230
1.0
 70
    12
 71
     2
 72
     6
 73
     3
 74
     0
 42
0.0000000001
 43
0.0000000001
 40
0.0906100100638166
 40
0.0906100100638166
 40
0.0906100100638166
 40
1.118728652180968
 40
1.118728652180968
 40
1.118728652180968
 10
110.7036062213047
 20
149.3834705723419
 30
0.0
 41
1.030578586555894
 10
114.9536062213047
 20
147.966803905676
 30
0.0
 41
1.190009648738221
 10
119.2036062213047
 20
149.3834705723434
 30
0.0
 41
1.030578586555894
  0
SPLINE
  5
372
330
6C
100
AcDbEntity
  8
Overlay (ISO)
 48
3.215791702270506
100
AcDbSpline
210
0.0
220
0.0
230
1.0
 70
    28
 71
     2
 72
     6
 73
     3
 74
     0
 42
0.0000000001
 43
0.0000000001
 40
0.6046693311223935
 40
0.6046693311223935
 40
0.6046693311223935
 40
1.118728652180965
 40
1.118728652180965
 40
1.118728652180965
 10
110.7036062213047
 20
148.6242811937856
 30
0.0
 41
1.110294117647057
 10
110.7036062213047
 20
148.6242811937863
 30
0.0
 41
1.110294117647057
 10
110.7036062213047
 20
149.3834705723419
 30
0.0
 41
1.030578586555894
  0
LINE
  5
373
330
6C
100
AcDbEntity
  8
Overlay (ISO)
 48
0.1862141489982605
100
AcDbLine
 10
110.9536062213047
 20
148.4799436264882
 30
0.0
 11
110.7036062213047
 21
148.6242811937856
 31
0.0
  0
LINE
  5
374
330
6C
100
AcDbEntity
  8
Overlay (ISO)
 48
0.1862141489982605
100
AcDbLine
 10
127.4536062213047
 20
148.4799436264882
 30
0.0
 11
127.7036062213045
 21
148.6242811937856
 31
0.0
  0
LINE
  5
375
330
6C
100
AcDbEntity
  8
Overlay (ISO)
 48
5.287718772888183
100
AcDbLine
 10
110.7036062213047
 20
149.3834705723419
 30
0.0
 11
110.7036062213047
 21
157.5764166806376
 31
0.0
  0
LINE
  5
376
330
6C
100
AcDbEntity
  8
Overlay (ISO)
 48
5.287718772888183
100
AcDbLine
 10
119.2036062213047
 20
149.3834705723434
 30
0.0
 11
119.2036062213047
 21
157.5764166806389
 31
0.0
  0
LINE
  5
377
330
6C
100
AcDbEntity
  8
Overlay (ISO)
 48
5.287718772888183
100
AcDbLine
 10
127.7036062213046
 20
149.3834705723419
 30
0.0
 11
127.7036062213045
 21
157.5764166806375
 31
0.0
  0
SPLINE
  5
378
330
6C
100
AcDbEntity
  8
Overlay (ISO)
 48
3.215791702270506
100
AcDbSpline
210
0.0
220
0.0
230
1.0
 70
    28
 71
     2
 72
     6
 73
     3
 74
     0
 42
0.0000000001
 43
0.0000000001
 40
0.0906100100638165
 40
0.0906100100638165
 40
0.0906100100638165
 40
0.6046693311223909
 40
0.6046693311223909
 40
0.6046693311223909
 10
110.7036062213047
 20
157.5764166806376
 30
0.0
 41
1.030578586555894
 10
110.7036062213047
 20
158.3356060591915
 30
0.0
 41
1.110294117647054
 10
110.7036062213047
 20
158.3356060591908
 30
0.0
 41
1.110294117647057
  0
SPLINE
  5
379
330
6C
100
AcDbEntity
  8
Overlay (ISO)
 48
8.168594360351562
100
AcDbSpline
210
0.0
220
0.0
230
1.0
 70
    12
 71
     2
 72
     6
 73
     3
 74
     0
 42
0.0000000001
 43
0.0000000001
 40
0.0906100100638156
 40
0.0906100100638156
 40
0.0906100100638156
 40
1.118728652180965
 40
1.118728652180965
 40
1.118728652180965
 10
119.2036062213047
 20
157.5764166806389
 30
0.0
 41
1.030578586555894
 10
114.9536062213047
 20
158.9930833473049
 30
0.0
 41
1.190009648738221
 10
110.7036062213047
 20
157.5764166806376
 30
0.0
 41
1.030578586555894
  0
SPLINE
  5
37A
330
6C
100
AcDbEntity
  8
Overlay (ISO)
 48
8.168594360351562
100
AcDbSpline
210
0.0
220
0.0
230
1.0
 70
    12
 71
     2
 72
     6
 73
     3
 74
     0
 42
0.0000000001
 43
0.0000000001
 40
0.0906100100638148
 40
0.0906100100638148
 40
0.0906100100638148
 40
1.118728652180965
 40
1.118728652180965
 40
1.118728652180965
 10
127.7036062213046
 20
157.5764166806375
 30
0.0
 41
1.030578586555894
 10
123.4536062213047
 20
158.9930833473049
 30
0.0
 41
1.190009648738221
 10
119.2036062213047
 20
157.5764166806389
 30
0.0
 41
1.030578586555894
  0
SPLINE
  5
37B
330
6C
100
AcDbEntity
  8
Overlay (ISO)
 48
3.215791702270506
100
AcDbSpline
210
0.0
220
0.0
230
1.0
 70
    28
 71
     2
 72
     6
 73
     3
 74
     0
 42
0.0000000001
 43
0.0000000001
 40
0.6046693311223899
 40
0.6046693311223899
 40
0.6046693311223899
 40
1.118728652180965
 40
1.118728652180965
 40
1.118728652180965
 10
127.7036062213045
 20
158.3356060591909
 30
0.0
 41
1.110294117647057
 10
127.7036062213045
 20
158.3356060591915
 30
0.0
 41
1.110294117647057
 10
127.7036062213046
 20
157.5764166806375
 30
0.0
 41
1.030578586555894
  0
LINE
  5
37C
330
6C
100
AcDbEntity
  8
Overlay (ISO)
 48
8.497750282287597
100
AcDbLine
 10
127.4536062213047
 20
158.4799436264884
 30
0.0
 11
110.9536062213047
 21
158.4799436264884
 31
0.0
  0
LINE
  5
37D
330
6C
100
AcDbEntity
  8
Overlay (ISO)
 48
0.1862141489982605
100
AcDbLine
 10
127.4536062213047
 20
158.4799436264884
 30
0.0
 11
127.7036062213045
 21
158.3356060591909
 31
0.0
  0
LINE
  5
37E
330
6C
100
AcDbEntity
  8
Overlay (ISO)
 48
0.1862141489982605
100
AcDbLine
 10
110.9536062213047
 20
158.4799436264884
 30
0.0
 11
110.7036062213047
 21
158.3356060591909
 31
0.0
  0
LINE
  5
37F
330
6C
100
AcDbEntity
  8
Overlay (ISO)
 48
7.027342319488525
100
AcDbLine
 10
124.0278826053138
 20
167.0522550499053
 30
0.0
 11
124.1618249713047
 21
158.4799436264884
 31
0.0
  0
LINE
  5
380
330
6C
100
AcDbEntity
  8
Overlay (ISO)
 48
7.027342319488525
100
AcDbLine
 10
114.3793298372955
 20
167.0522550499053
 30
0.0
 11
114.2453874713047
 21
158.4799436264884
 31
0.0
  0
LINE
  5
381
330
6C
100
AcDbEntity
  8
Visible Narrow (ISO)
 48
7.875347137451169
100
AcDbLine
 10
123.5807540527813
 20
158.4799436264884
 30
0.0
 11
123.4306485664895
 21
168.0866947491582
 31
0.0
  0
LINE
  5
382
330
6C
100
AcDbEntity
  8
Visible Narrow (ISO)
 48
7.875347137451169
100
AcDbLine
 10
114.9765638761197
 20
168.0866947491582
 30
0.0
 11
114.826458389828
 21
158.4799436264884
 31
0.0
  0
MTEXT
  5
6D5
330
6C
100
AcDbEntity
  8
0
100
AcDbMText
 10
169.0238293484072
 20
120.7508758878307
 30
0.0
 40
5.0
 41
0.0
 71
     1
 72
     5
  1
ｴｰｽﾎﾞｰﾙ 3W 1BT-3111
 73
     1
 44
1.0
  0
ENDSEC
  0
SECTION
  2
OBJECTS
  0
DICTIONARY
  5
C
330
0
100
AcDbDictionary
281
     1
  3
ACAD_2007HEADERVARS_RT
350
7C3
  3
ACAD_COLOR
350
63
  3
ACAD_GROUP
350
D
  3
ACAD_LAYOUT
350
62
  3
ACAD_MATERIAL
350
10
  3
ACAD_MLEADERSTYLE
350
66
  3
ACAD_MLINESTYLE
350
5F
  3
ACAD_PLOTSETTINGS
350
61
  3
ACAD_PLOTSTYLENAME
350
E
  3
ACAD_SCALELIST
350
42
  3
ACAD_TABLESTYLE
350
64
  3
ACAD_VISUALSTYLE
350
29
  3
ACDB_RECOMPOSE_DATA
350
7C2
  3
AcDbVariableDictionary
350
5CB
  3
AcmDictionary
350
65B
  3
AMG
350
612
  3
AMGSNAPSETTINGS
350
6CB
  0
DICTIONARY
  5
7C3
102
{ACAD_REACTORS
330
C
102
}
330
C
100
AcDbDictionary
281
     1
  3
DIMARCSYM
350
7C4
  3
DIMLTEX1
350
7C6
  3
DIMLTEX2
350
7C7
  3
DIMLTYPE
350
7C5
  0
DICTIONARY
  5
63
102
{ACAD_REACTORS
330
C
102
}
330
C
100
AcDbDictionary
281
     1
  0
DICTIONARY
  5
D
102
{ACAD_REACTORS
330
C
102
}
330
C
100
AcDbDictionary
281
     1
  0
DICTIONARY
  5
62
102
{ACAD_REACTORS
330
C
102
}
330
C
100
AcDbDictionary
281
     1
  3
Layout1
350
6B
  3
Layout2
350
73
  3
Model
350
6F
  0
DICTIONARY
  5
10
102
{ACAD_REACTORS
330
C
102
}
330
C
100
AcDbDictionary
281
     1
  3
ByBlock
350
19
  3
ByLayer
350
11
  3
Global
350
21
  0
DICTIONARY
  5
66
102
{ACAD_REACTORS
330
C
102
}
330
C
100
AcDbDictionary
281
     1
  3
Standard
350
67
  0
DICTIONARY
  5
5F
102
{ACAD_REACTORS
330
C
102
}
330
C
100
AcDbDictionary
281
     1
  3
Standard
350
60
  0
DICTIONARY
  5
61
102
{ACAD_REACTORS
330
C
102
}
330
C
100
AcDbDictionary
281
     1
  0
ACDBDICTIONARYWDFLT
  5
E
102
{ACAD_REACTORS
330
C
102
}
330
C
100
AcDbDictionary
281
     1
  3
Normal
350
F
100
AcDbDictionaryWithDefault
340
F
  0
DICTIONARY
  5
42
102
{ACAD_REACTORS
330
C
102
}
330
C
100
AcDbDictionary
281
     1
  3
A0
350
43
  3
A1
350
44
  3
A2
350
45
  3
A3
350
46
  3
A4
350
47
  3
A5
350
48
  3
A6
350
49
  3
A7
350
4A
  3
A8
350
4B
  3
A9
350
4C
  3
B0
350
4D
  3
B1
350
4E
  3
B2
350
4F
  3
B3
350
50
  3
B4
350
51
  3
B5
350
52
  3
B6
350
53
  0
DICTIONARY
  5
64
102
{ACAD_REACTORS
330
C
102
}
330
C
100
AcDbDictionary
281
     1
  3
Standard
350
65
  0
DICTIONARY
  5
29
102
{ACAD_REACTORS
330
C
102
}
330
C
100
AcDbDictionary
281
     1
  3
2dWireframe
350
2F
  3
Basic
350
2E
  3
Brighten
350
35
  3
ColorChange
350
39
  3
Conceptual
350
32
  3
Dim
350
34
  3
EdgeColorOff
350
41
  3
Facepattern
350
38
  3
Flat
350
2A
  3
FlatWithEdges
350
2B
  3
Gouraud
350
2C
  3
GouraudWithEdges
350
2D
  3
Hidden
350
31
  3
JitterOff
350
3F
  3
Linepattern
350
37
  3
OverhangOff
350
40
  3
Realistic
350
33
  3
Shaded
350
3E
  3
Shaded with edges
350
3D
  3
Shades of Gray
350
3A
  3
Sketchy
350
3B
  3
Thicken
350
36
  3
Wireframe
350
30
  3
X-Ray
350
3C
  0
XRECORD
  5
7C2
102
{ACAD_REACTORS
330
C
102
}
330
C
100
AcDbXrecord
280
     1
 90
        1
330
65
  0
DICTIONARY
  5
5CB
102
{ACAD_REACTORS
330
C
102
}
330
C
100
AcDbDictionary
281
     1
  3
CANNOSCALE
350
5CF
  3
CMLEADERSTYLE
350
5CD
  3
CTABLESTYLE
350
5CC
  3
LAYEREVAL
350
5D1
  3
LAYERNOTIFY
350
5D2
  3
LIGHTINGUNITS
350
5D0
  3
MSLTSCALE
350
5CE
  3
XCLIPFRAME
350
7C0
  0
DICTIONARY
  5
65B
102
{ACAD_REACTORS
330
C
102
}
330
C
100
AcDbDictionary
281
     1
  3
AcmStdDictionary
350
65C
  0
DICTIONARY
  5
612
102
{ACAD_REACTORS
330
C
102
}
330
C
100
AcDbDictionary
281
     1
  0
DICTIONARY
  5
6CB
102
{ACAD_REACTORS
330
C
102
}
330
C
100
AcDbDictionary
281
     1
  0
XRECORD
  5
7C4
102
{ACAD_REACTORS
330
7C3
102
}
330
7C3
100
AcDbXrecord
280
     1
 70
     1
  0
XRECORD
  5
7C6
102
{ACAD_REACTORS
330
7C3
102
}
330
7C3
100
AcDbXrecord
280
     1
340
5B
  0
XRECORD
  5
7C7
102
{ACAD_REACTORS
330
7C3
102
}
330
7C3
100
AcDbXrecord
280
     1
340
5B
  0
XRECORD
  5
7C5
102
{ACAD_REACTORS
330
7C3
102
}
330
7C3
100
AcDbXrecord
280
     1
340
5B
  0
LAYOUT
  5
6B
102
{ACAD_REACTORS
330
62
102
}
330
62
100
AcDbPlotSettings
  1

  2

  4

  6

 40
0.0
 41
0.0
 42
0.0
 43
0.0
 44
0.0
 45
0.0
 46
0.0
 47
0.0
 48
0.0
 49
0.0
140
0.0
141
0.0
142
1.0
143
1.0
 70
   688
 72
     0
 73
     0
 74
     5
  7

 75
    16
147
1.0
 76
     0
 77
     2
 78
   300
148
0.0
149
0.0
100
AcDbLayout
  1
Layout1
 70
     1
 71
     1
 10
0.0
 20
0.0
 11
420.0
 21
297.0
 12
0.0
 22
0.0
 32
0.0
 14
0.0
 24
0.0
 34
0.0
 15
420.0
 25
297.0
 35
0.0
146
0.0
 13
0.0
 23
0.0
 33
0.0
 16
1.0
 26
0.0
 36
0.0
 17
0.0
 27
1.0
 37
0.0
 76
     0
330
68
  0
LAYOUT
  5
73
102
{ACAD_REACTORS
330
62
102
}
330
62
100
AcDbPlotSettings
  1

  2

  4

  6

 40
0.0
 41
0.0
 42
0.0
 43
0.0
 44
0.0
 45
0.0
 46
0.0
 47
0.0
 48
0.0
 49
0.0
140
0.0
141
0.0
142
1.0
143
1.0
 70
   688
 72
     0
 73
     0
 74
     5
  7

 75
    16
147
1.0
 76
     0
 77
     2
 78
   300
148
0.0
149
0.0
100
AcDbLayout
  1
Layout2
 70
     1
 71
     2
 10
0.0
 20
0.0
 11
12.0
 21
9.0
 12
0.0
 22
0.0
 32
0.0
 14
0.0
 24
0.0
 34
0.0
 15
0.0
 25
0.0
 35
0.0
146
0.0
 13
0.0
 23
0.0
 33
0.0
 16
1.0
 26
0.0
 36
0.0
 17
0.0
 27
1.0
 37
0.0
 76
     0
330
70
  0
LAYOUT
  5
6F
102
{ACAD_REACTORS
330
62
102
}
330
62
100
AcDbPlotSettings
  1

  2

  4

  6

 40
0.0
 41
0.0
 42
0.0
 43
0.0
 44
0.0
 45
0.0
 46
0.0
 47
0.0
 48
0.0
 49
0.0
140
0.0
141
0.0
142
1.0
143
1.0
 70
  1712
 72
     0
 73
     0
 74
     0
  7

 75
     0
147
1.0
 76
     0
 77
     2
 78
   300
148
0.0
149
0.0
100
AcDbLayout
  1
Model
 70
     1
 71
     0
 10
0.0
 20
0.0
 11
12.0
 21
9.0
 12
0.0
 22
0.0
 32
0.0
 14
0.0
 24
0.0
 34
0.0
 15
0.0
 25
0.0
 35
0.0
146
0.0
 13
0.0
 23
0.0
 33
0.0
 16
1.0
 26
0.0
 36
0.0
 17
0.0
 27
1.0
 37
0.0
 76
     0
330
6C
331
57
  0
MATERIAL
  5
19
102
{ACAD_XDICTIONARY
360
1A
102
}
102
{ACAD_REACTORS
330
10
102
}
330
10
100
AcDbMaterial
  1
ByBlock
 72
     0
 43
0.0208333333333333
 43
0.0
 43
0.0
 43
0.0
 43
0.0
 43
0.0208333333333333
 43
0.0
 43
0.0
 43
0.0
 43
0.0
 43
1.0
 43
0.0
 43
0.0
 43
0.0
 43
0.0
 43
1.0
 77
     0
 47
0.0208333333333333
 47
0.0
 47
0.0
 47
0.0
 47
0.0
 47
0.0208333333333333
 47
0.0
 47
0.0
 47
0.0
 47
0.0
 47
1.0
 47
0.0
 47
0.0
 47
0.0
 47
0.0
 47
1.0
171
     0
 49
0.0208333333333333
 49
0.0
 49
0.0
 49
0.0
 49
0.0
 49
0.0208333333333333
 49
0.0
 49
0.0
 49
0.0
 49
0.0
 49
1.0
 49
0.0
 49
0.0
 49
0.0
 49
0.0
 49
1.0
175
     0
142
0.0208333333333333
142
0.0
142
0.0
142
0.0
142
0.0
142
0.0208333333333333
142
0.0
142
0.0
142
0.0
142
0.0
142
1.0
142
0.0
142
0.0
142
0.0
142
0.0
142
1.0
179
     0
144
0.0208333333333333
144
0.0
144
0.0
144
0.0
144
0.0
144
0.0208333333333333
144
0.0
144
0.0
144
0.0
144
0.0
144
1.0
144
0.0
144
0.0
144
0.0
144
0.0
144
1.0
147
0.0208333333333333
147
0.0
147
0.0
147
0.0
147
0.0
147
0.0208333333333333
147
0.0
147
0.0
147
0.0
147
0.0
147
1.0
147
0.0
147
0.0
147
0.0
147
0.0
147
1.0
  0
MATERIAL
  5
11
102
{ACAD_XDICTIONARY
360
12
102
}
102
{ACAD_REACTORS
330
10
102
}
330
10
100
AcDbMaterial
  1
ByLayer
 72
     0
 43
0.0208333333333333
 43
0.0
 43
0.0
 43
0.0
 43
0.0
 43
0.0208333333333333
 43
0.0
 43
0.0
 43
0.0
 43
0.0
 43
1.0
 43
0.0
 43
0.0
 43
0.0
 43
0.0
 43
1.0
 77
     0
 47
0.0208333333333333
 47
0.0
 47
0.0
 47
0.0
 47
0.0
 47
0.0208333333333333
 47
0.0
 47
0.0
 47
0.0
 47
0.0
 47
1.0
 47
0.0
 47
0.0
 47
0.0
 47
0.0
 47
1.0
171
     0
 49
0.0208333333333333
 49
0.0
 49
0.0
 49
0.0
 49
0.0
 49
0.0208333333333333
 49
0.0
 49
0.0
 49
0.0
 49
0.0
 49
1.0
 49
0.0
 49
0.0
 49
0.0
 49
0.0
 49
1.0
175
     0
142
0.0208333333333333
142
0.0
142
0.0
142
0.0
142
0.0
142
0.0208333333333333
142
0.0
142
0.0
142
0.0
142
0.0
142
1.0
142
0.0
142
0.0
142
0.0
142
0.0
142
1.0
179
     0
144
0.0208333333333333
144
0.0
144
0.0
144
0.0
144
0.0
144
0.0208333333333333
144
0.0
144
0.0
144
0.0
144
0.0
144
1.0
144
0.0
144
0.0
144
0.0
144
0.0
144
1.0
147
0.0208333333333333
147
0.0
147
0.0
147
0.0
147
0.0
147
0.0208333333333333
147
0.0
147
0.0
147
0.0
147
0.0
147
1.0
147
0.0
147
0.0
147
0.0
147
0.0
147
1.0
  0
MATERIAL
  5
21
102
{ACAD_XDICTIONARY
360
22
102
}
102
{ACAD_REACTORS
330
10
102
}
330
10
100
AcDbMaterial
  1
Global
 72
     0
 43
0.0208333333333333
 43
0.0
 43
0.0
 43
0.0
 43
0.0
 43
0.0208333333333333
 43
0.0
 43
0.0
 43
0.0
 43
0.0
 43
1.0
 43
0.0
 43
0.0
 43
0.0
 43
0.0
 43
1.0
 77
     0
 47
0.0208333333333333
 47
0.0
 47
0.0
 47
0.0
 47
0.0
 47
0.0208333333333333
 47
0.0
 47
0.0
 47
0.0
 47
0.0
 47
1.0
 47
0.0
 47
0.0
 47
0.0
 47
0.0
 47
1.0
171
     0
 49
0.0208333333333333
 49
0.0
 49
0.0
 49
0.0
 49
0.0
 49
0.0208333333333333
 49
0.0
 49
0.0
 49
0.0
 49
0.0
 49
1.0
 49
0.0
 49
0.0
 49
0.0
 49
0.0
 49
1.0
175
     0
142
0.0208333333333333
142
0.0
142
0.0
142
0.0
142
0.0
142
0.0208333333333333
142
0.0
142
0.0
142
0.0
142
0.0
142
1.0
142
0.0
142
0.0
142
0.0
142
0.0
142
1.0
179
     0
144
0.0208333333333333
144
0.0
144
0.0
144
0.0
144
0.0
144
0.0208333333333333
144
0.0
144
0.0
144
0.0
144
0.0
144
1.0
144
0.0
144
0.0
144
0.0
144
0.0
144
1.0
147
0.0208333333333333
147
0.0
147
0.0
147
0.0
147
0.0
147
0.0208333333333333
147
0.0
147
0.0
147
0.0
147
0.0
147
1.0
147
0.0
147
0.0
147
0.0
147
0.0
147
1.0
  0
MLEADERSTYLE
  5
67
102
{ACAD_REACTORS
330
66
102
}
330
66
100
AcDbMLeaderStyle
170
     2
171
     1
172
     0
 90
        2
 40
0.0
 41
0.0
173
     1
 91
-1056964608
340
5B
 92
       -2
290
     1
 42
0.09
291
     1
 43
0.36
  3
Standard
 44
0.18
300

342
55
174
     1
178
     6
175
     1
176
     0
 93
-1056964608
 45
0.18
292
     0
297
     0
 46
0.18
 94
-1056964608
 47
1.0
 49
1.0
140
1.0
293
     1
141
0.0
294
     1
177
     0
142
1.0
295
     0
296
     0
143
0.125
1001
ACAD_MLEADERVER
1070
     2
  0
MLINESTYLE
  5
60
102
{ACAD_REACTORS
330
5F
102
}
330
5F
100
AcDbMlineStyle
  2
STANDARD
 70
     0
  3

 62
   256
 51
90.0
 52
90.0
 71
     2
 49
0.5
 62
   256
  6
BYLAYER
 49
-0.5
 62
   256
  6
BYLAYER
  0
ACDBPLACEHOLDER
  5
F
102
{ACAD_REACTORS
330
E
102
}
330
E
  0
SCALE
  5
43
102
{ACAD_REACTORS
330
42
102
}
330
42
100
AcDbScale
 70
     0
300
1:1
140
1.0
141
1.0
290
     1
  0
SCALE
  5
44
102
{ACAD_REACTORS
330
42
102
}
330
42
100
AcDbScale
 70
     0
300
1/128" = 1'-0"
140
0.0078125
141
12.0
290
     0
  0
SCALE
  5
45
102
{ACAD_REACTORS
330
42
102
}
330
42
100
AcDbScale
 70
     0
300
1/64" = 1'-0"
140
0.015625
141
12.0
290
     0
  0
SCALE
  5
46
102
{ACAD_REACTORS
330
42
102
}
330
42
100
AcDbScale
 70
     0
300
1/32" = 1'-0"
140
0.03125
141
12.0
290
     0
  0
SCALE
  5
47
102
{ACAD_REACTORS
330
42
102
}
330
42
100
AcDbScale
 70
     0
300
1/16" = 1'-0"
140
0.0625
141
12.0
290
     0
  0
SCALE
  5
48
102
{ACAD_REACTORS
330
42
102
}
330
42
100
AcDbScale
 70
     0
300
3/32" = 1'-0"
140
0.09375
141
12.0
290
     0
  0
SCALE
  5
49
102
{ACAD_REACTORS
330
42
102
}
330
42
100
AcDbScale
 70
     0
300
1/8" = 1'-0"
140
0.125
141
12.0
290
     0
  0
SCALE
  5
4A
102
{ACAD_REACTORS
330
42
102
}
330
42
100
AcDbScale
 70
     0
300
3/16" = 1'-0"
140
0.1875
141
12.0
290
     0
  0
SCALE
  5
4B
102
{ACAD_REACTORS
330
42
102
}
330
42
100
AcDbScale
 70
     0
300
1/4" = 1'-0"
140
0.25
141
12.0
290
     0
  0
SCALE
  5
4C
102
{ACAD_REACTORS
330
42
102
}
330
42
100
AcDbScale
 70
     0
300
3/8" = 1'-0"
140
0.375
141
12.0
290
     0
  0
SCALE
  5
4D
102
{ACAD_REACTORS
330
42
102
}
330
42
100
AcDbScale
 70
     0
300
1/2" = 1'-0"
140
0.5
141
12.0
290
     0
  0
SCALE
  5
4E
102
{ACAD_REACTORS
330
42
102
}
330
42
100
AcDbScale
 70
     0
300
3/4" = 1'-0"
140
0.75
141
12.0
290
     0
  0
SCALE
  5
4F
102
{ACAD_REACTORS
330
42
102
}
330
42
100
AcDbScale
 70
     0
300
1" = 1'-0"
140
1.0
141
12.0
290
     0
  0
SCALE
  5
50
102
{ACAD_REACTORS
330
42
102
}
330
42
100
AcDbScale
 70
     0
300
1-1/2" = 1'-0"
140
1.5
141
12.0
290
     0
  0
SCALE
  5
51
102
{ACAD_REACTORS
330
42
102
}
330
42
100
AcDbScale
 70
     0
300
3" = 1'-0"
140
3.0
141
12.0
290
     0
  0
SCALE
  5
52
102
{ACAD_REACTORS
330
42
102
}
330
42
100
AcDbScale
 70
     0
300
6" = 1'-0"
140
6.0
141
12.0
290
     0
  0
SCALE
  5
53
102
{ACAD_REACTORS
330
42
102
}
330
42
100
AcDbScale
 70
     0
300
1'-0" = 1'-0"
140
12.0
141
12.0
290
     0
  0
TABLESTYLE
  5
65
102
{ACAD_XDICTIONARY
360
5D4
102
}
102
{ACAD_REACTORS
330
64
102
}
330
64
100
AcDbTableStyle
  3
Standard
 70
     0
 71
     0
 40
0.06
 41
0.06
280
     0
281
     0
  7
Standard
140
0.18
170
     2
 62
     0
 63
     7
283
     0
274
    -2
284
     1
 64
     0
275
    -2
285
     1
 65
     0
276
    -2
286
     1
 66
     0
277
    -2
287
     1
 67
     0
278
    -2
288
     1
 68
     0
279
    -2
289
     1
 69
     0
  7
Standard
140
0.25
170
     5
 62
     0
 63
     7
283
     0
274
    -2
284
     1
 64
     0
275
    -2
285
     1
 65
     0
276
    -2
286
     1
 66
     0
277
    -2
287
     1
 67
     0
278
    -2
288
     1
 68
     0
279
    -2
289
     1
 69
     0
  7
Standard
140
0.18
170
     5
 62
     0
 63
     7
283
     0
274
    -2
284
     1
 64
     0
275
    -2
285
     1
 65
     0
276
    -2
286
     1
 66
     0
277
    -2
287
     1
 67
     0
278
    -2
288
     1
 68
     0
279
    -2
289
     1
 69
     0
  0
VISUALSTYLE
  5
2F
102
{ACAD_XDICTIONARY
360
7D2
102
}
102
{ACAD_REACTORS
330
29
102
}
330
29
100
AcDbVisualStyle
  2

 70
     4
 71
     0
 72
     2
 73
     0
 90
        0
 40
-0.6
 41
-30.0
 62
     5
 63
     7
421
 16777215
 74
     1
 91
        4
 64
     7
 65
   257
 75
     1
175
     1
 42
1.0
 92
        0
 66
   257
 43
1.0
 76
     1
 77
     6
 78
     2
 67
     7
 79
     5
170
     0
171
     0
290
     0
174
     0
 93
        1
 44
0.0
173
     0
291
     0
 45
0.0
1001
ACAD
1000
AcDbSavedByObjectVersion
1070
     0
  0
VISUALSTYLE
  5
2E
102
{ACAD_XDICTIONARY
360
7D0
102
}
102
{ACAD_REACTORS
330
29
102
}
330
29
100
AcDbVisualStyle
  2

 70
     7
 71
     1
 72
     0
 73
     1
 90
        0
 40
-0.6
 41
-30.0
 62
     5
 63
     7
421
 16777215
 74
     0
 91
        4
 64
     7
 65
   257
 75
     1
175
     1
 42
1.0
 92
        8
 66
     7
 43
1.0
 76
     1
 77
     6
 78
     2
 67
     7
 79
     5
170
     0
171
     0
290
     0
174
     0
 93
        1
 44
0.0
173
     0
291
     1
 45
0.0
1001
ACAD
1000
AcDbSavedByObjectVersion
1070
     0
  0
VISUALSTYLE
  5
35
102
{ACAD_XDICTIONARY
360
7DE
102
}
102
{ACAD_REACTORS
330
29
102
}
330
29
100
AcDbVisualStyle
  2

 70
    12
 71
     2
 72
     2
 73
     0
 90
        0
 40
-0.6
 41
-30.0
 62
     5
 63
     7
421
 16777215
 74
     1
 91
        4
 64
     7
 65
   257
 75
     1
175
     1
 42
1.0
 92
        8
 66
     7
 43
1.0
 76
     1
 77
     6
 78
     2
 67
     7
 79
     5
170
     0
171
     0
290
     0
174
     0
 93
        1
 44
50.0
173
     0
291
     1
 45
0.0
1001
ACAD
1000
AcDbSavedByObjectVersion
1070
     0
  0
VISUALSTYLE
  5
39
102
{ACAD_XDICTIONARY
360
7E6
102
}
102
{ACAD_REACTORS
330
29
102
}
330
29
100
AcDbVisualStyle
  2

 70
    16
 71
     2
 72
     2
 73
     3
 90
        0
 40
-0.6
 41
-30.0
 62
     5
 63
     8
421
  8421504
 74
     1
 91
        4
 64
     7
 65
   257
 75
     1
175
     1
 42
1.0
 92
        8
 66
     8
424
  8421504
 43
1.0
 76
     1
 77
     6
 78
     2
 67
     7
 79
     5
170
     0
171
     0
290
     0
174
     0
 93
        1
 44
0.0
173
     0
291
     1
 45
0.0
1001
ACAD
1000
AcDbSavedByObjectVersion
1070
     0
  0
VISUALSTYLE
  5
32
102
{ACAD_XDICTIONARY
360
7D8
102
}
102
{ACAD_REACTORS
330
29
102
}
330
29
100
AcDbVisualStyle
  2

 70
     9
 71
     3
 72
     2
 73
     0
 90
        0
 40
-0.6
 41
-30.0
 62
     5
 63
     7
421
 16777215
 74
     2
 91
        2
 64
     7
 65
   257
 75
     1
175
     1
 42
179.0
 92
        8
 66
     7
 43
1.0
 76
     1
 77
     6
 78
     2
 67
     7
 79
     3
170
     0
171
     0
290
     0
174
     0
 93
        1
 44
0.0
173
     0
291
     0
 45
0.0
1001
ACAD
1000
AcDbSavedByObjectVersion
1070
     0
  0
VISUALSTYLE
  5
34
102
{ACAD_XDICTIONARY
360
7DC
102
}
102
{ACAD_REACTORS
330
29
102
}
330
29
100
AcDbVisualStyle
  2

 70
    11
 71
     2
 72
     2
 73
     0
 90
        0
 40
-0.6
 41
-30.0
 62
     5
 63
     7
421
 16777215
 74
     1
 91
        4
 64
     7
 65
   257
 75
     1
175
     1
 42
1.0
 92
        8
 66
     7
 43
1.0
 76
     1
 77
     6
 78
     2
 67
     7
 79
     5
170
     0
171
     0
290
     0
174
     0
 93
        1
 44
-50.0
173
     0
291
     1
 45
0.0
1001
ACAD
1000
AcDbSavedByObjectVersion
1070
     0
  0
VISUALSTYLE
  5
41
102
{ACAD_XDICTIONARY
360
7F6
102
}
102
{ACAD_REACTORS
330
29
102
}
330
29
100
AcDbVisualStyle
  2

 70
    22
 71
     2
 72
     2
 73
     0
 90
        0
 40
-0.6
 41
-30.0
 62
     5
 63
     7
421
 16777215
 74
     1
 91
        4
 64
     7
 65
   257
 75
     1
175
     1
 42
1.0
 92
        8
 66
     7
 43
1.0
 76
     1
 77
     6
 78
     2
 67
     7
 79
     5
170
     0
171
     0
290
     0
174
     0
 93
        1
 44
0.0
173
     0
291
     1
 45
0.0
1001
ACAD
1000
AcDbSavedByObjectVersion
1070
     0
  0
VISUALSTYLE
  5
38
102
{ACAD_XDICTIONARY
360
7E4
102
}
102
{ACAD_REACTORS
330
29
102
}
330
29
100
AcDbVisualStyle
  2

 70
    15
 71
     2
 72
     2
 73
     0
 90
        0
 40
-0.6
 41
-30.0
 62
     5
 63
     7
421
 16777215
 74
     1
 91
        4
 64
     7
 65
   257
 75
     1
175
     1
 42
1.0
 92
        8
 66
     7
 43
1.0
 76
     1
 77
     6
 78
     2
 67
     7
 79
     5
170
     0
171
     0
290
     0
174
     0
 93
        1
 44
0.0
173
     0
291
     1
 45
0.0
1001
ACAD
1000
AcDbSavedByObjectVersion
1070
     0
  0
VISUALSTYLE
  5
2A
102
{ACAD_XDICTIONARY
360
7C8
102
}
102
{ACAD_REACTORS
330
29
102
}
330
29
100
AcDbVisualStyle
  2

 70
     0
 71
     2
 72
     1
 73
     1
 90
        2
 40
-0.6
 41
30.0
 62
     5
 63
     7
421
 16777215
 74
     0
 91
        0
 64
     7
 65
   257
 75
     1
175
     1
 42
1.0
 92
        8
 66
     7
 43
1.0
 76
     1
 77
     6
 78
     2
 67
     7
 79
     5
170
     0
171
     0
290
     0
174
     0
 93
       13
 44
0.0
173
     0
291
     1
 45
0.0
1001
ACAD
1000
AcDbSavedByObjectVersion
1070
     0
  0
VISUALSTYLE
  5
2B
102
{ACAD_XDICTIONARY
360
7CA
102
}
102
{ACAD_REACTORS
330
29
102
}
330
29
100
AcDbVisualStyle
  2

 70
     1
 71
     2
 72
     1
 73
     1
 90
        2
 40
-0.6
 41
30.0
 62
     5
 63
     7
421
 16777215
 74
     1
 91
        0
 64
     7
 65
   257
 75
     1
175
     1
 42
1.0
 92
        0
 66
   257
 43
1.0
 76
     1
 77
     6
 78
     2
 67
     7
 79
     5
170
     0
171
     0
290
     0
174
     0
 93
       13
 44
0.0
173
     0
291
     1
 45
0.0
1001
ACAD
1000
AcDbSavedByObjectVersion
1070
     0
  0
VISUALSTYLE
  5
2C
102
{ACAD_XDICTIONARY
360
7CC
102
}
102
{ACAD_REACTORS
330
29
102
}
330
29
100
AcDbVisualStyle
  2

 70
     2
 71
     2
 72
     2
 73
     1
 90
        2
 40
-0.6
 41
30.0
 62
     5
 63
     7
421
 16777215
 74
     0
 91
        0
 64
     7
 65
   257
 75
     1
175
     1
 42
1.0
 92
        0
 66
     7
 43
1.0
 76
     1
 77
     6
 78
     2
 67
     7
 79
     5
170
     0
171
     0
290
     0
174
     0
 93
       13
 44
0.0
173
     0
291
     1
 45
0.0
1001
ACAD
1000
AcDbSavedByObjectVersion
1070
     0
  0
VISUALSTYLE
  5
2D
102
{ACAD_XDICTIONARY
360
7CE
102
}
102
{ACAD_REACTORS
330
29
102
}
330
29
100
AcDbVisualStyle
  2

 70
     3
 71
     2
 72
     2
 73
     1
 90
        2
 40
-0.6
 41
30.0
 62
     5
 63
     7
421
 16777215
 74
     1
 91
        0
 64
     7
 65
   257
 75
     1
175
     1
 42
1.0
 92
        0
 66
   257
 43
1.0
 76
     1
 77
     6
 78
     2
 67
     7
 79
     5
170
     0
171
     0
290
     0
174
     0
 93
       13
 44
0.0
173
     0
291
     1
 45
0.0
1001
ACAD
1000
AcDbSavedByObjectVersion
1070
     0
  0
VISUALSTYLE
  5
31
102
{ACAD_XDICTIONARY
360
7D6
102
}
102
{ACAD_REACTORS
330
29
102
}
330
29
100
AcDbVisualStyle
  2

 70
     6
 71
     1
 72
     2
 73
     2
 90
        0
 40
-0.6
 41
-30.0
 62
     5
 63
     7
421
 16777215
 74
     2
 91
        2
 64
     7
 65
   257
 75
     2
175
     1
 42
40.0
 92
        0
 66
   257
 43
1.0
 76
     1
 77
     6
 78
     2
 67
     7
 79
     3
170
     0
171
     0
290
     0
174
     0
 93
        1
 44
0.0
173
     0
291
     0
 45
0.0
1001
ACAD
1000
AcDbSavedByObjectVersion
1070
     0
  0
VISUALSTYLE
  5
3F
102
{ACAD_XDICTIONARY
360
7F2
102
}
102
{ACAD_REACTORS
330
29
102
}
330
29
100
AcDbVisualStyle
  2

 70
    20
 71
     2
 72
     2
 73
     0
 90
        0
 40
-0.6
 41
-30.0
 62
     5
 63
     7
421
 16777215
 74
     1
 91
        4
 64
     7
 65
   257
 75
     1
175
     1
 42
1.0
 92
       10
 66
     7
 43
1.0
 76
     1
 77
     6
 78
     2
 67
     7
 79
     5
170
     0
171
     0
290
     0
174
     0
 93
        1
 44
0.0
173
     0
291
     1
 45
0.0
1001
ACAD
1000
AcDbSavedByObjectVersion
1070
     0
  0
VISUALSTYLE
  5
37
102
{ACAD_XDICTIONARY
360
7E2
102
}
102
{ACAD_REACTORS
330
29
102
}
330
29
100
AcDbVisualStyle
  2

 70
    14
 71
     2
 72
     2
 73
     0
 90
        0
 40
-0.6
 41
-30.0
 62
     5
 63
     7
421
 16777215
 74
     1
 91
        4
 64
     7
 65
   257
 75
     7
175
     7
 42
1.0
 92
        8
 66
     7
 43
1.0
 76
     1
 77
     6
 78
     2
 67
     7
 79
     5
170
     0
171
     0
290
     0
174
     0
 93
        1
 44
0.0
173
     0
291
     1
 45
0.0
1001
ACAD
1000
AcDbSavedByObjectVersion
1070
     0
  0
VISUALSTYLE
  5
40
102
{ACAD_XDICTIONARY
360
7F4
102
}
102
{ACAD_REACTORS
330
29
102
}
330
29
100
AcDbVisualStyle
  2

 70
    21
 71
     2
 72
     2
 73
     0
 90
        0
 40
-0.6
 41
-30.0
 62
     5
 63
     7
421
 16777215
 74
     1
 91
        4
 64
     7
 65
   257
 75
     1
175
     1
 42
1.0
 92
        9
 66
     7
 43
1.0
 76
     1
 77
     6
 78
     2
 67
     7
 79
     5
170
     0
171
     0
290
     0
174
     0
 93
        1
 44
0.0
173
     0
291
     1
 45
0.0
1001
ACAD
1000
AcDbSavedByObjectVersion
1070
     0
  0
VISUALSTYLE
  5
33
102
{ACAD_XDICTIONARY
360
7DA
102
}
102
{ACAD_REACTORS
330
29
102
}
330
29
100
AcDbVisualStyle
  2

 70
     8
 71
     2
 72
     3
 73
     0
 90
        2
 40
-0.6
 41
30.0
 62
     5
 63
     7
421
 16777215
 74
     0
 91
        0
 64
     7
 65
   257
 75
     1
175
     1
 42
1.0
 92
        8
 66
   257
 43
1.0
 76
     1
 77
     6
 78
     2
 67
     7
 79
     3
170
     0
171
     0
290
     0
174
     0
 93
       13
 44
0.0
173
     0
291
     0
 45
0.0
1001
ACAD
1000
AcDbSavedByObjectVersion
1070
     0
  0
VISUALSTYLE
  5
3E
102
{ACAD_XDICTIONARY
360
7F0
102
}
102
{ACAD_REACTORS
330
29
102
}
330
29
100
AcDbVisualStyle
  2

 70
    27
 71
     2
 72
     2
 73
     1
 90
        2
 40
-0.6
 41
30.0
 62
     5
 63
     7
421
 16777215
 74
     0
 91
        4
 64
     7
 65
   257
 75
     1
175
     1
 42
1.0
 92
        8
 66
   257
 43
1.0
 76
     1
 77
     6
 78
     2
 67
     8
425
  7895160
 79
     3
170
     0
171
     0
290
     0
174
     0
 93
        5
 44
0.0
173
     0
291
     0
 45
0.0
1001
ACAD
1000
AcDbSavedByObjectVersion
1070
     0
  0
VISUALSTYLE
  5
3D
102
{ACAD_XDICTIONARY
360
7EE
102
}
102
{ACAD_REACTORS
330
29
102
}
330
29
100
AcDbVisualStyle
  2

 70
    26
 71
     2
 72
     2
 73
     1
 90
        2
 40
-0.6
 41
30.0
 62
     5
 63
     7
421
 16777215
 74
     1
 91
       10
 64
     7
 65
   257
 75
     2
175
     1
 42
1.0
 92
        8
 66
   257
 43
1.0
 76
     1
 77
     6
 78
     2
 67
     7
 79
     3
170
     0
171
     0
290
     0
174
     0
 93
        5
 44
0.0
173
     0
291
     0
 45
0.0
1001
ACAD
1000
AcDbSavedByObjectVersion
1070
     0
  0
VISUALSTYLE
  5
3A
102
{ACAD_XDICTIONARY
360
7E8
102
}
102
{ACAD_REACTORS
330
29
102
}
330
29
100
AcDbVisualStyle
  2

 70
    23
 71
     2
 72
     2
 73
     3
 90
        0
 40
-0.6
 41
-30.0
 62
     5
 63
     7
421
 16777215
 74
     2
 91
        2
 64
     7
 65
     7
 75
     1
175
     1
 42
40.0
 92
        8
 66
     7
 43
1.0
 76
     1
 77
     6
 78
     2
 67
     7
 79
     3
170
     0
171
     0
290
     0
174
     0
 93
        1
 44
0.0
173
     0
291
     0
 45
0.0
1001
ACAD
1000
AcDbSavedByObjectVersion
1070
     0
  0
VISUALSTYLE
  5
3B
102
{ACAD_XDICTIONARY
360
7EA
102
}
102
{ACAD_REACTORS
330
29
102
}
330
29
100
AcDbVisualStyle
  2

 70
    24
 71
     1
 72
     2
 73
     2
 90
        0
 40
-0.6
 41
-30.0
 62
     5
 63
     7
421
 16777215
 74
     2
 91
        2
 64
     7
 65
     7
 75
     1
175
     1
 42
40.0
 92
       11
 66
     7
 43
1.0
 76
     1
 77
     6
 78
     2
 67
     7
 79
     6
170
     0
171
     0
290
     0
174
     0
 93
        1
 44
0.0
173
     0
291
     0
 45
0.0
1001
ACAD
1000
AcDbSavedByObjectVersion
1070
     0
  0
VISUALSTYLE
  5
36
102
{ACAD_XDICTIONARY
360
7E0
102
}
102
{ACAD_REACTORS
330
29
102
}
330
29
100
AcDbVisualStyle
  2

 70
    13
 71
     2
 72
     2
 73
     0
 90
        0
 40
-0.6
 41
-30.0
 62
     5
 63
     7
421
 16777215
 74
     1
 91
        4
 64
     7
 65
   257
 75
     1
175
     1
 42
1.0
 92
       12
 66
     7
 43
1.0
 76
     1
 77
     6
 78
     2
 67
     7
 79
     5
170
     0
171
     0
290
     0
174
     0
 93
        1
 44
0.0
173
     0
291
     1
 45
0.0
1001
ACAD
1000
AcDbSavedByObjectVersion
1070
     0
  0
VISUALSTYLE
  5
30
102
{ACAD_XDICTIONARY
360
7D4
102
}
102
{ACAD_REACTORS
330
29
102
}
330
29
100
AcDbVisualStyle
  2

 70
     5
 71
     0
 72
     2
 73
     0
 90
        0
 40
-0.6
 41
-30.0
 62
     5
 63
     7
421
 16777215
 74
     1
 91
        4
 64
     7
 65
   257
 75
     1
175
     1
 42
1.0
 92
        0
 66
   257
 43
1.0
 76
     1
 77
     6
 78
     2
 67
     7
 79
     3
170
     0
171
     0
290
     0
174
     0
 93
        1
 44
0.0
173
     0
291
     0
 45
0.0
1001
ACAD
1000
AcDbSavedByObjectVersion
1070
     0
  0
VISUALSTYLE
  5
3C
102
{ACAD_XDICTIONARY
360
7EC
102
}
102
{ACAD_REACTORS
330
29
102
}
330
29
100
AcDbVisualStyle
  2

 70
    25
 71
     2
 72
     2
 73
     1
 90
        1
 40
0.5
 41
-30.0
 62
     5
 63
     7
421
 16777215
 74
     1
 91
        0
 64
     7
 65
   257
 75
     1
175
     1
 42
1.0
 92
        8
 66
     7
 43
1.0
 76
     1
 77
     6
 78
     2
 67
     7
 79
     3
170
     0
171
     0
290
     0
174
     0
 93
       13
 44
0.0
173
     0
291
     0
 45
0.0
1001
ACAD
1000
AcDbSavedByObjectVersion
1070
     0
  0
DICTIONARYVAR
  5
5CF
102
{ACAD_REACTORS
330
5CB
102
}
330
5CB
100
DictionaryVariables
280
     0
  1
1:1
  0
DICTIONARYVAR
  5
5CD
102
{ACAD_REACTORS
330
5CB
102
}
330
5CB
100
DictionaryVariables
280
     0
  1
STANDARD
  0
DICTIONARYVAR
  5
5CC
102
{ACAD_REACTORS
330
5CB
102
}
330
5CB
100
DictionaryVariables
280
     0
  1
STANDARD
  0
DICTIONARYVAR
  5
5D1
102
{ACAD_REACTORS
330
5CB
102
}
330
5CB
100
DictionaryVariables
280
     0
  1
0
  0
DICTIONARYVAR
  5
5D2
102
{ACAD_REACTORS
330
5CB
102
}
330
5CB
100
DictionaryVariables
280
     0
  1
0
  0
DICTIONARYVAR
  5
5D0
102
{ACAD_REACTORS
330
5CB
102
}
330
5CB
100
DictionaryVariables
280
     0
  1
2
  0
DICTIONARYVAR
  5
5CE
102
{ACAD_REACTORS
330
5CB
102
}
330
5CB
100
DictionaryVariables
280
     0
  1
1
  0
DICTIONARYVAR
  5
7C0
102
{ACAD_REACTORS
330
5CB
102
}
330
5CB
100
DictionaryVariables
280
     0
  1
2
  0
DICTIONARY
  5
65C
102
{ACAD_REACTORS
330
65B
102
}
330
65B
100
AcDbDictionary
281
     1
  0
DICTIONARY
  5
1A
330
19
100
AcDbDictionary
280
     1
281
     1
  3
ACAD_XREC_ROUNDTRIP
360
5D8
  3
BUMPTILE
360
1C
  3
DIFFUSETILE
360
1B
  3
OPACITYTILE
360
1F
  3
REFLECTIONTILE
360
1E
  3
REFRACTIONTILE
360
20
  3
SPECULARTILE
360
1D
  0
DICTIONARY
  5
12
330
11
100
AcDbDictionary
280
     1
281
     1
  3
ACAD_XREC_ROUNDTRIP
360
5D7
  3
BUMPTILE
360
14
  3
DIFFUSETILE
360
13
  3
OPACITYTILE
360
17
  3
REFLECTIONTILE
360
16
  3
REFRACTIONTILE
360
18
  3
SPECULARTILE
360
15
  0
DICTIONARY
  5
22
330
21
100
AcDbDictionary
280
     1
281
     1
  3
ACAD_XREC_ROUNDTRIP
360
5D9
  3
BUMPTILE
360
24
  3
DIFFUSETILE
360
23
  3
OPACITYTILE
360
27
  3
REFLECTIONTILE
360
26
  3
REFRACTIONTILE
360
28
  3
SPECULARTILE
360
25
  0
DICTIONARY
  5
5D4
330
65
100
AcDbDictionary
280
     1
281
     1
  3
ACAD_ROUNDTRIP_2008_TABLESTYLE_CELLSTYLEMAP
360
7C1
  3
ACAD_XREC_ROUNDTRIP
360
7F8
  0
DICTIONARY
  5
7D2
330
2F
100
AcDbDictionary
280
     1
281
     1
  3
ACAD_XREC_ROUNDTRIP
360
7D3
  0
DICTIONARY
  5
7D0
330
2E
100
AcDbDictionary
280
     1
281
     1
  3
ACAD_XREC_ROUNDTRIP
360
7D1
  0
DICTIONARY
  5
7DE
330
35
100
AcDbDictionary
280
     1
281
     1
  3
ACAD_XREC_ROUNDTRIP
360
7DF
  0
DICTIONARY
  5
7E6
330
39
100
AcDbDictionary
280
     1
281
     1
  3
ACAD_XREC_ROUNDTRIP
360
7E7
  0
DICTIONARY
  5
7D8
330
32
100
AcDbDictionary
280
     1
281
     1
  3
ACAD_XREC_ROUNDTRIP
360
7D9
  0
DICTIONARY
  5
7DC
330
34
100
AcDbDictionary
280
     1
281
     1
  3
ACAD_XREC_ROUNDTRIP
360
7DD
  0
DICTIONARY
  5
7F6
330
41
100
AcDbDictionary
280
     1
281
     1
  3
ACAD_XREC_ROUNDTRIP
360
7F7
  0
DICTIONARY
  5
7E4
330
38
100
AcDbDictionary
280
     1
281
     1
  3
ACAD_XREC_ROUNDTRIP
360
7E5
  0
DICTIONARY
  5
7C8
330
2A
100
AcDbDictionary
280
     1
281
     1
  3
ACAD_XREC_ROUNDTRIP
360
7C9
  0
DICTIONARY
  5
7CA
330
2B
100
AcDbDictionary
280
     1
281
     1
  3
ACAD_XREC_ROUNDTRIP
360
7CB
  0
DICTIONARY
  5
7CC
330
2C
100
AcDbDictionary
280
     1
281
     1
  3
ACAD_XREC_ROUNDTRIP
360
7CD
  0
DICTIONARY
  5
7CE
330
2D
100
AcDbDictionary
280
     1
281
     1
  3
ACAD_XREC_ROUNDTRIP
360
7CF
  0
DICTIONARY
  5
7D6
330
31
100
AcDbDictionary
280
     1
281
     1
  3
ACAD_XREC_ROUNDTRIP
360
7D7
  0
DICTIONARY
  5
7F2
330
3F
100
AcDbDictionary
280
     1
281
     1
  3
ACAD_XREC_ROUNDTRIP
360
7F3
  0
DICTIONARY
  5
7E2
330
37
100
AcDbDictionary
280
     1
281
     1
  3
ACAD_XREC_ROUNDTRIP
360
7E3
  0
DICTIONARY
  5
7F4
330
40
100
AcDbDictionary
280
     1
281
     1
  3
ACAD_XREC_ROUNDTRIP
360
7F5
  0
DICTIONARY
  5
7DA
330
33
100
AcDbDictionary
280
     1
281
     1
  3
ACAD_XREC_ROUNDTRIP
360
7DB
  0
DICTIONARY
  5
7F0
330
3E
100
AcDbDictionary
280
     1
281
     1
  3
ACAD_XREC_ROUNDTRIP
360
7F1
  0
DICTIONARY
  5
7EE
330
3D
100
AcDbDictionary
280
     1
281
     1
  3
ACAD_XREC_ROUNDTRIP
360
7EF
  0
DICTIONARY
  5
7E8
330
3A
100
AcDbDictionary
280
     1
281
     1
  3
ACAD_XREC_ROUNDTRIP
360
7E9
  0
DICTIONARY
  5
7EA
330
3B
100
AcDbDictionary
280
     1
281
     1
  3
ACAD_XREC_ROUNDTRIP
360
7EB
  0
DICTIONARY
  5
7E0
330
36
100
AcDbDictionary
280
     1
281
     1
  3
ACAD_XREC_ROUNDTRIP
360
7E1
  0
DICTIONARY
  5
7D4
330
30
100
AcDbDictionary
280
     1
281
     1
  3
ACAD_XREC_ROUNDTRIP
360
7D5
  0
DICTIONARY
  5
7EC
330
3C
100
AcDbDictionary
280
     1
281
     1
  3
ACAD_XREC_ROUNDTRIP
360
7ED
  0
XRECORD
  5
5D8
102
{ACAD_REACTORS
330
1A
102
}
330
1A
100
AcDbXrecord
280
     1
102
MATERIAL
148
0.0
149
0.0
149
0.0
 93
        0
 94
      127
282
     0
 72
     0
 77
     0
171
     0
175
     0
179
     0
273
     0
  0
XRECORD
  5
1C
102
{ACAD_REACTORS
330
1A
102
}
330
1A
100
AcDbXrecord
280
     1
270
     1
271
     1
  0
XRECORD
  5
1B
102
{ACAD_REACTORS
330
1A
102
}
330
1A
100
AcDbXrecord
280
     1
270
     1
271
     1
  0
XRECORD
  5
1F
102
{ACAD_REACTORS
330
1A
102
}
330
1A
100
AcDbXrecord
280
     1
270
     1
271
     1
  0
XRECORD
  5
1E
102
{ACAD_REACTORS
330
1A
102
}
330
1A
100
AcDbXrecord
280
     1
270
     1
271
     1
  0
XRECORD
  5
20
102
{ACAD_REACTORS
330
1A
102
}
330
1A
100
AcDbXrecord
280
     1
270
     1
271
     1
  0
XRECORD
  5
1D
102
{ACAD_REACTORS
330
1A
102
}
330
1A
100
AcDbXrecord
280
     1
270
     1
271
     1
  0
XRECORD
  5
5D7
102
{ACAD_REACTORS
330
12
102
}
330
12
100
AcDbXrecord
280
     1
102
MATERIAL
148
0.0
149
0.0
149
0.0
 93
        0
 94
      127
282
     0
 72
     0
 77
     0
171
     0
175
     0
179
     0
273
     0
  0
XRECORD
  5
14
102
{ACAD_REACTORS
330
12
102
}
330
12
100
AcDbXrecord
280
     1
270
     1
271
     1
  0
XRECORD
  5
13
102
{ACAD_REACTORS
330
12
102
}
330
12
100
AcDbXrecord
280
     1
270
     1
271
     1
  0
XRECORD
  5
17
102
{ACAD_REACTORS
330
12
102
}
330
12
100
AcDbXrecord
280
     1
270
     1
271
     1
  0
XRECORD
  5
16
102
{ACAD_REACTORS
330
12
102
}
330
12
100
AcDbXrecord
280
     1
270
     1
271
     1
  0
XRECORD
  5
18
102
{ACAD_REACTORS
330
12
102
}
330
12
100
AcDbXrecord
280
     1
270
     1
271
     1
  0
XRECORD
  5
15
102
{ACAD_REACTORS
330
12
102
}
330
12
100
AcDbXrecord
280
     1
270
     1
271
     1
  0
XRECORD
  5
5D9
102
{ACAD_REACTORS
330
22
102
}
330
22
100
AcDbXrecord
280
     1
102
MATERIAL
148
0.0
149
0.0
149
0.0
 93
        0
 94
      127
282
     0
 72
     0
 77
     0
171
     0
175
     0
179
     0
273
     0
  0
XRECORD
  5
24
102
{ACAD_REACTORS
330
22
102
}
330
22
100
AcDbXrecord
280
     1
270
     1
271
     1
  0
XRECORD
  5
23
102
{ACAD_REACTORS
330
22
102
}
330
22
100
AcDbXrecord
280
     1
270
     1
271
     1
  0
XRECORD
  5
27
102
{ACAD_REACTORS
330
22
102
}
330
22
100
AcDbXrecord
280
     1
270
     1
271
     1
  0
XRECORD
  5
26
102
{ACAD_REACTORS
330
22
102
}
330
22
100
AcDbXrecord
280
     1
270
     1
271
     1
  0
XRECORD
  5
28
102
{ACAD_REACTORS
330
22
102
}
330
22
100
AcDbXrecord
280
     1
270
     1
271
     1
  0
XRECORD
  5
25
102
{ACAD_REACTORS
330
22
102
}
330
22
100
AcDbXrecord
280
     1
270
     1
271
     1
  0
CELLSTYLEMAP
  5
7C1
102
{ACAD_REACTORS
330
5D4
102
}
330
5D4
100
AcDbCellStyleMap
 90
        3
300
CELLSTYLE
  1
TABLEFORMAT_BEGIN
 90
        5
170
     1
 91
        0
 92
    32768
 62
   257
 93
        1
300
CONTENTFORMAT
  1
CONTENTFORMAT_BEGIN
 90
        0
 91
        0
 92
      512
 93
        0
300

 40
0.0
140
1.0
 94
        5
 62
     0
340
55
144
0.25
309
CONTENTFORMAT_END
171
     1
301
MARGIN
  1
CELLMARGIN_BEGIN
 40
0.06
 40
0.06
 40
0.06
 40
0.06
 40
0.18
 40
0.18
309
CELLMARGIN_END
 94
        6
 95
        1
302
GRIDFORMAT
  1
GRIDFORMAT_BEGIN
 90
        0
 91
        1
 62
     0
 92
       -2
340
0
 93
        0
 40
0.045
309
GRIDFORMAT_END
 95
        2
302
GRIDFORMAT
  1
GRIDFORMAT_BEGIN
 90
        0
 91
        1
 62
     0
 92
       -2
340
0
 93
        0
 40
0.045
309
GRIDFORMAT_END
 95
        4
302
GRIDFORMAT
  1
GRIDFORMAT_BEGIN
 90
        0
 91
        1
 62
     0
 92
       -2
340
0
 93
        0
 40
0.045
309
GRIDFORMAT_END
 95
        8
302
GRIDFORMAT
  1
GRIDFORMAT_BEGIN
 90
        0
 91
        1
 62
     0
 92
       -2
340
0
 93
        0
 40
0.045
309
GRIDFORMAT_END
 95
       16
302
GRIDFORMAT
  1
GRIDFORMAT_BEGIN
 90
        0
 91
        1
 62
     0
 92
       -2
340
0
 93
        0
 40
0.045
309
GRIDFORMAT_END
 95
       32
302
GRIDFORMAT
  1
GRIDFORMAT_BEGIN
 90
        0
 91
        1
 62
     0
 92
       -2
340
0
 93
        0
 40
0.045
309
GRIDFORMAT_END
309
TABLEFORMAT_END
  1
CELLSTYLE_BEGIN
 90
        1
 91
        1
300
_TITLE
309
CELLSTYLE_END
300
CELLSTYLE
  1
TABLEFORMAT_BEGIN
 90
        5
170
     1
 91
        0
 92
        0
 62
   257
 93
        1
300
CONTENTFORMAT
  1
CONTENTFORMAT_BEGIN
 90
        0
 91
        0
 92
      512
 93
        0
300

 40
0.0
140
1.0
 94
        5
 62
     0
340
55
144
0.18
309
CONTENTFORMAT_END
171
     1
301
MARGIN
  1
CELLMARGIN_BEGIN
 40
0.06
 40
0.06
 40
0.06
 40
0.06
 40
0.18
 40
0.18
309
CELLMARGIN_END
 94
        6
 95
        1
302
GRIDFORMAT
  1
GRIDFORMAT_BEGIN
 90
        0
 91
        1
 62
     0
 92
       -2
340
0
 93
        0
 40
0.045
309
GRIDFORMAT_END
 95
        2
302
GRIDFORMAT
  1
GRIDFORMAT_BEGIN
 90
        0
 91
        1
 62
     0
 92
       -2
340
0
 93
        0
 40
0.045
309
GRIDFORMAT_END
 95
        4
302
GRIDFORMAT
  1
GRIDFORMAT_BEGIN
 90
        0
 91
        1
 62
     0
 92
       -2
340
0
 93
        0
 40
0.045
309
GRIDFORMAT_END
 95
        8
302
GRIDFORMAT
  1
GRIDFORMAT_BEGIN
 90
        0
 91
        1
 62
     0
 92
       -2
340
0
 93
        0
 40
0.045
309
GRIDFORMAT_END
 95
       16
302
GRIDFORMAT
  1
GRIDFORMAT_BEGIN
 90
        0
 91
        1
 62
     0
 92
       -2
340
0
 93
        0
 40
0.045
309
GRIDFORMAT_END
 95
       32
302
GRIDFORMAT
  1
GRIDFORMAT_BEGIN
 90
        0
 91
        1
 62
     0
 92
       -2
340
0
 93
        0
 40
0.045
309
GRIDFORMAT_END
309
TABLEFORMAT_END
  1
CELLSTYLE_BEGIN
 90
        2
 91
        1
300
_HEADER
309
CELLSTYLE_END
300
CELLSTYLE
  1
TABLEFORMAT_BEGIN
 90
        5
170
     1
 91
        0
 92
        0
 62
   257
 93
        1
300
CONTENTFORMAT
  1
CONTENTFORMAT_BEGIN
 90
        0
 91
        0
 92
      512
 93
        0
300

 40
0.0
140
1.0
 94
        2
 62
     0
340
55
144
0.18
309
CONTENTFORMAT_END
171
     1
301
MARGIN
  1
CELLMARGIN_BEGIN
 40
0.06
 40
0.06
 40
0.06
 40
0.06
 40
0.18
 40
0.18
309
CELLMARGIN_END
 94
        6
 95
        1
302
GRIDFORMAT
  1
GRIDFORMAT_BEGIN
 90
        0
 91
        1
 62
     0
 92
       -2
340
0
 93
        0
 40
0.045
309
GRIDFORMAT_END
 95
        2
302
GRIDFORMAT
  1
GRIDFORMAT_BEGIN
 90
        0
 91
        1
 62
     0
 92
       -2
340
0
 93
        0
 40
0.045
309
GRIDFORMAT_END
 95
        4
302
GRIDFORMAT
  1
GRIDFORMAT_BEGIN
 90
        0
 91
        1
 62
     0
 92
       -2
340
0
 93
        0
 40
0.045
309
GRIDFORMAT_END
 95
        8
302
GRIDFORMAT
  1
GRIDFORMAT_BEGIN
 90
        0
 91
        1
 62
     0
 92
       -2
340
0
 93
        0
 40
0.045
309
GRIDFORMAT_END
 95
       16
302
GRIDFORMAT
  1
GRIDFORMAT_BEGIN
 90
        0
 91
        1
 62
     0
 92
       -2
340
0
 93
        0
 40
0.045
309
GRIDFORMAT_END
 95
       32
302
GRIDFORMAT
  1
GRIDFORMAT_BEGIN
 90
        0
 91
        1
 62
     0
 92
       -2
340
0
 93
        0
 40
0.045
309
GRIDFORMAT_END
309
TABLEFORMAT_END
  1
CELLSTYLE_BEGIN
 90
        3
 91
        2
300
_DATA
309
CELLSTYLE_END
  0
XRECORD
  5
7F8
102
{ACAD_REACTORS
330
5D4
102
}
330
5D4
100
AcDbXrecord
280
     1
102
ACAD_ROUNDTRIP_PRE2007_TABLESTYLE
 90
      512
 91
        0
  1

 92
      512
 93
        0
  2

 94
      512
 95
        0
  3

  0
XRECORD
  5
7D3
102
{ACAD_REACTORS
330
7D2
102
}
330
7D2
100
AcDbXrecord
280
     1
102
RTVSPropertyOp0
 70
     1
102
RTVSPropertyOp1
 70
     1
102
RTVSPropertyOp2
 70
     1
102
RTVSPropertyOp3
 70
     1
102
RTVSPropertyOp4
 70
     1
102
RTVSPropertyOp5
 70
     1
102
RTVSPropertyOp6
 70
     1
102
RTVSPropertyOp7
 70
     1
102
RTVSPropertyOp8
 70
     1
102
RTVSPropertyOp9
 70
     1
102
RTVSPropertyOp10
 70
     1
102
RTVSPropertyOp11
 70
     1
102
RTVSPropertyOp12
 70
     1
102
RTVSPropertyOp13
 70
     1
102
RTVSPropertyOp14
 70
     1
102
RTVSPropertyOp15
 70
     1
102
RTVSPropertyOp16
 70
     1
102
RTVSPropertyOp17
 70
     1
102
RTVSPropertyOp18
 70
     1
102
RTVSPropertyOp19
 70
     1
102
RTVSPropertyOp20
 70
     1
102
RTVSPropertyOp21
 70
     1
102
RTVSPropertyOp22
 70
     1
102
RTVSPropertyOp23
 70
     1
102
RTVSPropertyOp24
 70
     1
102
RTVSPropertyOp25
 70
     1
102
RTVSPropertyOp26
 70
     1
102
RTVSPropertyOp27
 70
     1
102
RTVSPropertyOp28
 70
     1
102
RTVSPropertyOp29
 70
     1
102
RTVSPropertyOp30
 70
     1
102
RTVSPropertyOp31
 70
     1
102
RTVSPropertyOp32
 70
     1
  0
XRECORD
  5
7D1
102
{ACAD_REACTORS
330
7D0
102
}
330
7D0
100
AcDbXrecord
280
     1
102
RTVSPropertyOp0
 70
     1
102
RTVSPropertyOp1
 70
     1
102
RTVSPropertyOp2
 70
     1
102
RTVSPropertyOp3
 70
     1
102
RTVSPropertyOp4
 70
     1
102
RTVSPropertyOp5
 70
     1
102
RTVSPropertyOp6
 70
     1
102
RTVSPropertyOp7
 70
     1
102
RTVSPropertyOp8
 70
     1
102
RTVSPropertyOp9
 70
     1
102
RTVSPropertyOp10
 70
     1
102
RTVSPropertyOp11
 70
     1
102
RTVSPropertyOp12
 70
     1
102
RTVSPropertyOp13
 70
     1
102
RTVSPropertyOp14
 70
     1
102
RTVSPropertyOp15
 70
     1
102
RTVSPropertyOp16
 70
     1
102
RTVSPropertyOp17
 70
     1
102
RTVSPropertyOp18
 70
     1
102
RTVSPropertyOp19
 70
     1
102
RTVSPropertyOp20
 70
     1
102
RTVSPropertyOp21
 70
     1
102
RTVSPropertyOp22
 70
     1
102
RTVSPropertyOp23
 70
     1
102
RTVSPropertyOp24
 70
     1
102
RTVSPropertyOp25
 70
     1
102
RTVSPropertyOp26
 70
     1
102
RTVSPropertyOp27
 70
     1
102
RTVSPropertyOp28
 70
     1
102
RTVSPropertyOp29
 70
     1
102
RTVSPropertyOp30
 70
     1
102
RTVSPropertyOp31
 70
     1
102
RTVSPropertyOp32
 70
     1
  0
XRECORD
  5
7DF
102
{ACAD_REACTORS
330
7DE
102
}
330
7DE
100
AcDbXrecord
280
     1
102
RTVSPropertyOp0
 70
     1
102
RTVSPropertyOp1
 70
     1
102
RTVSPropertyOp2
 70
     1
102
RTVSPropertyOp3
 70
     1
102
RTVSPropertyOp4
 70
     1
102
RTVSPropertyOp5
 70
     1
102
RTVSPropertyOp6
 70
     1
102
RTVSPropertyOp7
 70
     1
102
RTVSPropertyOp8
 70
     1
102
RTVSPropertyOp9
 70
     1
102
RTVSPropertyOp10
 70
     1
102
RTVSPropertyOp11
 70
     1
102
RTVSPropertyOp12
 70
     1
102
RTVSPropertyOp13
 70
     1
102
RTVSPropertyOp14
 70
     1
102
RTVSPropertyOp15
 70
     1
102
RTVSPropertyOp16
 70
     1
102
RTVSPropertyOp17
 70
     1
102
RTVSPropertyOp18
 70
     1
102
RTVSPropertyOp19
 70
     1
102
RTVSPropertyOp20
 70
     1
102
RTVSPropertyOp21
 70
     1
102
RTVSPropertyOp22
 70
     1
102
RTVSPropertyOp23
 70
     1
102
RTVSPropertyOp24
 70
     1
102
RTVSPropertyOp25
 70
     1
102
RTVSPropertyOp26
 70
     1
102
RTVSPropertyOp27
 70
     1
102
RTVSPropertyOp28
 70
     1
102
RTVSPropertyOp29
 70
     1
102
RTVSPropertyOp30
 70
     1
102
RTVSPropertyOp31
 70
     1
102
RTVSPropertyOp32
 70
     1
  0
XRECORD
  5
7E7
102
{ACAD_REACTORS
330
7E6
102
}
330
7E6
100
AcDbXrecord
280
     1
102
RTVSPropertyOp0
 70
     1
102
RTVSPropertyOp1
 70
     1
102
RTVSPropertyOp2
 70
     1
102
RTVSPropertyOp3
 70
     1
102
RTVSPropertyOp4
 70
     1
102
RTVSPropertyOp5
 70
     1
102
RTVSPropertyOp6
 70
     1
102
RTVSPropertyOp7
 70
     1
102
RTVSPropertyOp8
 70
     1
102
RTVSPropertyOp9
 70
     1
102
RTVSPropertyOp10
 70
     1
102
RTVSPropertyOp11
 70
     1
102
RTVSPropertyOp12
 70
     1
102
RTVSPropertyOp13
 70
     1
102
RTVSPropertyOp14
 70
     1
102
RTVSPropertyOp15
 70
     1
102
RTVSPropertyOp16
 70
     1
102
RTVSPropertyOp17
 70
     1
102
RTVSPropertyOp18
 70
     1
102
RTVSPropertyOp19
 70
     1
102
RTVSPropertyOp20
 70
     1
102
RTVSPropertyOp21
 70
     1
102
RTVSPropertyOp22
 70
     1
102
RTVSPropertyOp23
 70
     1
102
RTVSPropertyOp24
 70
     1
102
RTVSPropertyOp25
 70
     1
102
RTVSPropertyOp26
 70
     1
102
RTVSPropertyOp27
 70
     1
102
RTVSPropertyOp28
 70
     1
102
RTVSPropertyOp29
 70
     1
102
RTVSPropertyOp30
 70
     1
102
RTVSPropertyOp31
 70
     1
102
RTVSPropertyOp32
 70
     1
  0
XRECORD
  5
7D9
102
{ACAD_REACTORS
330
7D8
102
}
330
7D8
100
AcDbXrecord
280
     1
102
RTVSPropertyOp0
 70
     1
102
RTVSPropertyOp1
 70
     1
102
RTVSPropertyOp2
 70
     1
102
RTVSPropertyOp3
 70
     1
102
RTVSPropertyOp4
 70
     1
102
RTVSPropertyOp5
 70
     1
102
RTVSPropertyOp6
 70
     1
102
RTVSPropertyOp7
 70
     1
102
RTVSPropertyOp8
 70
     1
102
RTVSPropertyOp9
 70
     1
102
RTVSPropertyOp10
 70
     1
102
RTVSPropertyOp11
 70
     1
102
RTVSPropertyOp12
 70
     1
102
RTVSPropertyOp13
 70
     1
102
RTVSPropertyOp14
 70
     1
102
RTVSPropertyOp15
 70
     1
102
RTVSPropertyOp16
 70
     1
102
RTVSPropertyOp17
 70
     1
102
RTVSPropertyOp18
 70
     1
102
RTVSPropertyOp19
 70
     1
102
RTVSPropertyOp20
 70
     1
102
RTVSPropertyOp21
 70
     1
102
RTVSPropertyOp22
 70
     1
102
RTVSPropertyOp23
 70
     1
102
RTVSPropertyOp24
 70
     1
102
RTVSPropertyOp25
 70
     1
102
RTVSPropertyOp26
 70
     1
102
RTVSPropertyOp27
 70
     1
102
RTVSPropertyOp28
 70
     1
102
RTVSPropertyOp29
 70
     1
102
RTVSPropertyOp30
 70
     1
102
RTVSPropertyOp31
 70
     1
102
RTVSPropertyOp32
 70
     1
  0
XRECORD
  5
7DD
102
{ACAD_REACTORS
330
7DC
102
}
330
7DC
100
AcDbXrecord
280
     1
102
RTVSPropertyOp0
 70
     1
102
RTVSPropertyOp1
 70
     1
102
RTVSPropertyOp2
 70
     1
102
RTVSPropertyOp3
 70
     1
102
RTVSPropertyOp4
 70
     1
102
RTVSPropertyOp5
 70
     1
102
RTVSPropertyOp6
 70
     1
102
RTVSPropertyOp7
 70
     1
102
RTVSPropertyOp8
 70
     1
102
RTVSPropertyOp9
 70
     1
102
RTVSPropertyOp10
 70
     1
102
RTVSPropertyOp11
 70
     1
102
RTVSPropertyOp12
 70
     1
102
RTVSPropertyOp13
 70
     1
102
RTVSPropertyOp14
 70
     1
102
RTVSPropertyOp15
 70
     1
102
RTVSPropertyOp16
 70
     1
102
RTVSPropertyOp17
 70
     1
102
RTVSPropertyOp18
 70
     1
102
RTVSPropertyOp19
 70
     1
102
RTVSPropertyOp20
 70
     1
102
RTVSPropertyOp21
 70
     1
102
RTVSPropertyOp22
 70
     1
102
RTVSPropertyOp23
 70
     1
102
RTVSPropertyOp24
 70
     1
102
RTVSPropertyOp25
 70
     1
102
RTVSPropertyOp26
 70
     1
102
RTVSPropertyOp27
 70
     1
102
RTVSPropertyOp28
 70
     1
102
RTVSPropertyOp29
 70
     1
102
RTVSPropertyOp30
 70
     1
102
RTVSPropertyOp31
 70
     1
102
RTVSPropertyOp32
 70
     1
  0
XRECORD
  5
7F7
102
{ACAD_REACTORS
330
7F6
102
}
330
7F6
100
AcDbXrecord
280
     1
102
RTVSPropertyOp0
 70
     0
102
RTVSPropertyOp1
 70
     0
102
RTVSPropertyOp2
 70
     0
102
RTVSPropertyOp3
 70
     0
102
RTVSPropertyOp4
 70
     0
102
RTVSPropertyOp5
 70
     0
102
RTVSPropertyOp6
 70
     0
102
RTVSPropertyOp7
 70
     0
102
RTVSPropertyOp8
 70
     0
102
RTVSPropertyOp9
 70
     0
102
RTVSPropertyOp10
 70
     0
102
RTVSPropertyOp11
 70
     0
102
RTVSPropertyOp12
 70
     0
102
RTVSPropertyOp13
 70
     0
102
RTVSPropertyOp14
 70
     2
102
RTVSPropertyOp15
 70
     0
102
RTVSPropertyOp16
 70
     0
102
RTVSPropertyOp17
 70
     0
102
RTVSPropertyOp18
 70
     0
102
RTVSPropertyOp19
 70
     0
102
RTVSPropertyOp20
 70
     0
102
RTVSPropertyOp21
 70
     0
102
RTVSPropertyOp22
 70
     0
102
RTVSPropertyOp23
 70
     0
102
RTVSPropertyOp24
 70
     0
102
RTVSPropertyOp25
 70
     0
102
RTVSPropertyOp26
 70
     0
102
RTVSPropertyOp27
 70
     0
102
RTVSPropertyOp28
 70
     0
102
RTVSPropertyOp29
 70
     0
102
RTVSPropertyOp30
 70
     0
102
RTVSPropertyOp31
 70
     0
102
RTVSPropertyOp32
 70
     0
  0
XRECORD
  5
7E5
102
{ACAD_REACTORS
330
7E4
102
}
330
7E4
100
AcDbXrecord
280
     1
102
RTVSPropertyOp0
 70
     1
102
RTVSPropertyOp1
 70
     1
102
RTVSPropertyOp2
 70
     1
102
RTVSPropertyOp3
 70
     1
102
RTVSPropertyOp4
 70
     1
102
RTVSPropertyOp5
 70
     1
102
RTVSPropertyOp6
 70
     1
102
RTVSPropertyOp7
 70
     1
102
RTVSPropertyOp8
 70
     1
102
RTVSPropertyOp9
 70
     1
102
RTVSPropertyOp10
 70
     1
102
RTVSPropertyOp11
 70
     1
102
RTVSPropertyOp12
 70
     1
102
RTVSPropertyOp13
 70
     1
102
RTVSPropertyOp14
 70
     1
102
RTVSPropertyOp15
 70
     1
102
RTVSPropertyOp16
 70
     1
102
RTVSPropertyOp17
 70
     1
102
RTVSPropertyOp18
 70
     1
102
RTVSPropertyOp19
 70
     1
102
RTVSPropertyOp20
 70
     1
102
RTVSPropertyOp21
 70
     1
102
RTVSPropertyOp22
 70
     1
102
RTVSPropertyOp23
 70
     1
102
RTVSPropertyOp24
 70
     1
102
RTVSPropertyOp25
 70
     1
102
RTVSPropertyOp26
 70
     1
102
RTVSPropertyOp27
 70
     1
102
RTVSPropertyOp28
 70
     1
102
RTVSPropertyOp29
 70
     1
102
RTVSPropertyOp30
 70
     1
102
RTVSPropertyOp31
 70
     1
102
RTVSPropertyOp32
 70
     1
  0
XRECORD
  5
7C9
102
{ACAD_REACTORS
330
7C8
102
}
330
7C8
100
AcDbXrecord
280
     1
102
RTVSPropertyOp0
 70
     1
102
RTVSPropertyOp1
 70
     1
102
RTVSPropertyOp2
 70
     1
102
RTVSPropertyOp3
 70
     1
102
RTVSPropertyOp4
 70
     1
102
RTVSPropertyOp5
 70
     1
102
RTVSPropertyOp6
 70
     1
102
RTVSPropertyOp7
 70
     1
102
RTVSPropertyOp8
 70
     1
102
RTVSPropertyOp9
 70
     1
102
RTVSPropertyOp10
 70
     1
102
RTVSPropertyOp11
 70
     1
102
RTVSPropertyOp12
 70
     1
102
RTVSPropertyOp13
 70
     1
102
RTVSPropertyOp14
 70
     1
102
RTVSPropertyOp15
 70
     1
102
RTVSPropertyOp16
 70
     1
102
RTVSPropertyOp17
 70
     1
102
RTVSPropertyOp18
 70
     1
102
RTVSPropertyOp19
 70
     1
102
RTVSPropertyOp20
 70
     1
102
RTVSPropertyOp21
 70
     1
102
RTVSPropertyOp22
 70
     1
102
RTVSPropertyOp23
 70
     1
102
RTVSPropertyOp24
 70
     1
102
RTVSPropertyOp25
 70
     1
102
RTVSPropertyOp26
 70
     1
102
RTVSPropertyOp27
 70
     1
102
RTVSPropertyOp28
 70
     1
102
RTVSPropertyOp29
 70
     1
102
RTVSPropertyOp30
 70
     1
102
RTVSPropertyOp31
 70
     1
102
RTVSPropertyOp32
 70
     1
  0
XRECORD
  5
7CB
102
{ACAD_REACTORS
330
7CA
102
}
330
7CA
100
AcDbXrecord
280
     1
102
RTVSPropertyOp0
 70
     1
102
RTVSPropertyOp1
 70
     1
102
RTVSPropertyOp2
 70
     1
102
RTVSPropertyOp3
 70
     1
102
RTVSPropertyOp4
 70
     1
102
RTVSPropertyOp5
 70
     1
102
RTVSPropertyOp6
 70
     1
102
RTVSPropertyOp7
 70
     1
102
RTVSPropertyOp8
 70
     1
102
RTVSPropertyOp9
 70
     1
102
RTVSPropertyOp10
 70
     1
102
RTVSPropertyOp11
 70
     1
102
RTVSPropertyOp12
 70
     1
102
RTVSPropertyOp13
 70
     1
102
RTVSPropertyOp14
 70
     1
102
RTVSPropertyOp15
 70
     1
102
RTVSPropertyOp16
 70
     1
102
RTVSPropertyOp17
 70
     1
102
RTVSPropertyOp18
 70
     1
102
RTVSPropertyOp19
 70
     1
102
RTVSPropertyOp20
 70
     1
102
RTVSPropertyOp21
 70
     1
102
RTVSPropertyOp22
 70
     1
102
RTVSPropertyOp23
 70
     1
102
RTVSPropertyOp24
 70
     1
102
RTVSPropertyOp25
 70
     1
102
RTVSPropertyOp26
 70
     1
102
RTVSPropertyOp27
 70
     1
102
RTVSPropertyOp28
 70
     1
102
RTVSPropertyOp29
 70
     1
102
RTVSPropertyOp30
 70
     1
102
RTVSPropertyOp31
 70
     1
102
RTVSPropertyOp32
 70
     1
  0
XRECORD
  5
7CD
102
{ACAD_REACTORS
330
7CC
102
}
330
7CC
100
AcDbXrecord
280
     1
102
RTVSPropertyOp0
 70
     1
102
RTVSPropertyOp1
 70
     1
102
RTVSPropertyOp2
 70
     1
102
RTVSPropertyOp3
 70
     1
102
RTVSPropertyOp4
 70
     1
102
RTVSPropertyOp5
 70
     1
102
RTVSPropertyOp6
 70
     1
102
RTVSPropertyOp7
 70
     1
102
RTVSPropertyOp8
 70
     1
102
RTVSPropertyOp9
 70
     1
102
RTVSPropertyOp10
 70
     1
102
RTVSPropertyOp11
 70
     1
102
RTVSPropertyOp12
 70
     1
102
RTVSPropertyOp13
 70
     1
102
RTVSPropertyOp14
 70
     1
102
RTVSPropertyOp15
 70
     1
102
RTVSPropertyOp16
 70
     1
102
RTVSPropertyOp17
 70
     1
102
RTVSPropertyOp18
 70
     1
102
RTVSPropertyOp19
 70
     1
102
RTVSPropertyOp20
 70
     1
102
RTVSPropertyOp21
 70
     1
102
RTVSPropertyOp22
 70
     1
102
RTVSPropertyOp23
 70
     1
102
RTVSPropertyOp24
 70
     1
102
RTVSPropertyOp25
 70
     1
102
RTVSPropertyOp26
 70
     1
102
RTVSPropertyOp27
 70
     1
102
RTVSPropertyOp28
 70
     1
102
RTVSPropertyOp29
 70
     1
102
RTVSPropertyOp30
 70
     1
102
RTVSPropertyOp31
 70
     1
102
RTVSPropertyOp32
 70
     1
  0
XRECORD
  5
7CF
102
{ACAD_REACTORS
330
7CE
102
}
330
7CE
100
AcDbXrecord
280
     1
102
RTVSPropertyOp0
 70
     1
102
RTVSPropertyOp1
 70
     1
102
RTVSPropertyOp2
 70
     1
102
RTVSPropertyOp3
 70
     1
102
RTVSPropertyOp4
 70
     1
102
RTVSPropertyOp5
 70
     1
102
RTVSPropertyOp6
 70
     1
102
RTVSPropertyOp7
 70
     1
102
RTVSPropertyOp8
 70
     1
102
RTVSPropertyOp9
 70
     1
102
RTVSPropertyOp10
 70
     1
102
RTVSPropertyOp11
 70
     1
102
RTVSPropertyOp12
 70
     1
102
RTVSPropertyOp13
 70
     1
102
RTVSPropertyOp14
 70
     1
102
RTVSPropertyOp15
 70
     1
102
RTVSPropertyOp16
 70
     1
102
RTVSPropertyOp17
 70
     1
102
RTVSPropertyOp18
 70
     1
102
RTVSPropertyOp19
 70
     1
102
RTVSPropertyOp20
 70
     1
102
RTVSPropertyOp21
 70
     1
102
RTVSPropertyOp22
 70
     1
102
RTVSPropertyOp23
 70
     1
102
RTVSPropertyOp24
 70
     1
102
RTVSPropertyOp25
 70
     1
102
RTVSPropertyOp26
 70
     1
102
RTVSPropertyOp27
 70
     1
102
RTVSPropertyOp28
 70
     1
102
RTVSPropertyOp29
 70
     1
102
RTVSPropertyOp30
 70
     1
102
RTVSPropertyOp31
 70
     1
102
RTVSPropertyOp32
 70
     1
  0
XRECORD
  5
7D7
102
{ACAD_REACTORS
330
7D6
102
}
330
7D6
100
AcDbXrecord
280
     1
102
RTVSPropertyOp0
 70
     1
102
RTVSPropertyOp1
 70
     1
102
RTVSPropertyOp2
 70
     1
102
RTVSPropertyOp3
 70
     1
102
RTVSPropertyOp4
 70
     1
102
RTVSPropertyOp5
 70
     1
102
RTVSPropertyOp6
 70
     1
102
RTVSPropertyOp7
 70
     1
102
RTVSPropertyOp8
 70
     1
102
RTVSPropertyOp9
 70
     1
102
RTVSPropertyOp10
 70
     1
102
RTVSPropertyOp11
 70
     1
102
RTVSPropertyOp12
 70
     1
102
RTVSPropertyOp13
 70
     1
102
RTVSPropertyOp14
 70
     1
102
RTVSPropertyOp15
 70
     1
102
RTVSPropertyOp16
 70
     1
102
RTVSPropertyOp17
 70
     1
102
RTVSPropertyOp18
 70
     1
102
RTVSPropertyOp19
 70
     1
102
RTVSPropertyOp20
 70
     1
102
RTVSPropertyOp21
 70
     1
102
RTVSPropertyOp22
 70
     1
102
RTVSPropertyOp23
 70
     1
102
RTVSPropertyOp24
 70
     1
102
RTVSPropertyOp25
 70
     1
102
RTVSPropertyOp26
 70
     1
102
RTVSPropertyOp27
 70
     1
102
RTVSPropertyOp28
 70
     1
102
RTVSPropertyOp29
 70
     1
102
RTVSPropertyOp30
 70
     1
102
RTVSPropertyOp31
 70
     1
102
RTVSPropertyOp32
 70
     1
  0
XRECORD
  5
7F3
102
{ACAD_REACTORS
330
7F2
102
}
330
7F2
100
AcDbXrecord
280
     1
102
RTVSPropertyOp0
 70
     0
102
RTVSPropertyOp1
 70
     0
102
RTVSPropertyOp2
 70
     0
102
RTVSPropertyOp3
 70
     0
102
RTVSPropertyOp4
 70
     0
102
RTVSPropertyOp5
 70
     0
102
RTVSPropertyOp6
 70
     0
102
RTVSPropertyOp7
 70
     0
102
RTVSPropertyOp8
 70
     0
102
RTVSPropertyOp9
 70
     0
102
RTVSPropertyOp10
 70
     0
102
RTVSPropertyOp11
 70
     0
102
RTVSPropertyOp12
 70
     0
102
RTVSPropertyOp13
 70
     0
102
RTVSPropertyOp14
 70
     2
102
RTVSPropertyOp15
 70
     0
102
RTVSPropertyOp16
 70
     0
102
RTVSPropertyOp17
 70
     0
102
RTVSPropertyOp18
 70
     0
102
RTVSPropertyOp19
 70
     0
102
RTVSPropertyOp20
 70
     0
102
RTVSPropertyOp21
 70
     0
102
RTVSPropertyOp22
 70
     0
102
RTVSPropertyOp23
 70
     0
102
RTVSPropertyOp24
 70
     0
102
RTVSPropertyOp25
 70
     0
102
RTVSPropertyOp26
 70
     0
102
RTVSPropertyOp27
 70
     0
102
RTVSPropertyOp28
 70
     0
102
RTVSPropertyOp29
 70
     0
102
RTVSPropertyOp30
 70
     0
102
RTVSPropertyOp31
 70
     0
102
RTVSPropertyOp32
 70
     0
  0
XRECORD
  5
7E3
102
{ACAD_REACTORS
330
7E2
102
}
330
7E2
100
AcDbXrecord
280
     1
102
RTVSPropertyOp0
 70
     1
102
RTVSPropertyOp1
 70
     1
102
RTVSPropertyOp2
 70
     1
102
RTVSPropertyOp3
 70
     1
102
RTVSPropertyOp4
 70
     1
102
RTVSPropertyOp5
 70
     1
102
RTVSPropertyOp6
 70
     1
102
RTVSPropertyOp7
 70
     1
102
RTVSPropertyOp8
 70
     1
102
RTVSPropertyOp9
 70
     1
102
RTVSPropertyOp10
 70
     1
102
RTVSPropertyOp11
 70
     1
102
RTVSPropertyOp12
 70
     1
102
RTVSPropertyOp13
 70
     1
102
RTVSPropertyOp14
 70
     1
102
RTVSPropertyOp15
 70
     1
102
RTVSPropertyOp16
 70
     1
102
RTVSPropertyOp17
 70
     1
102
RTVSPropertyOp18
 70
     1
102
RTVSPropertyOp19
 70
     1
102
RTVSPropertyOp20
 70
     1
102
RTVSPropertyOp21
 70
     1
102
RTVSPropertyOp22
 70
     1
102
RTVSPropertyOp23
 70
     1
102
RTVSPropertyOp24
 70
     1
102
RTVSPropertyOp25
 70
     1
102
RTVSPropertyOp26
 70
     1
102
RTVSPropertyOp27
 70
     1
102
RTVSPropertyOp28
 70
     1
102
RTVSPropertyOp29
 70
     1
102
RTVSPropertyOp30
 70
     1
102
RTVSPropertyOp31
 70
     1
102
RTVSPropertyOp32
 70
     1
  0
XRECORD
  5
7F5
102
{ACAD_REACTORS
330
7F4
102
}
330
7F4
100
AcDbXrecord
280
     1
102
RTVSPropertyOp0
 70
     0
102
RTVSPropertyOp1
 70
     0
102
RTVSPropertyOp2
 70
     0
102
RTVSPropertyOp3
 70
     0
102
RTVSPropertyOp4
 70
     0
102
RTVSPropertyOp5
 70
     0
102
RTVSPropertyOp6
 70
     0
102
RTVSPropertyOp7
 70
     0
102
RTVSPropertyOp8
 70
     0
102
RTVSPropertyOp9
 70
     0
102
RTVSPropertyOp10
 70
     0
102
RTVSPropertyOp11
 70
     0
102
RTVSPropertyOp12
 70
     0
102
RTVSPropertyOp13
 70
     0
102
RTVSPropertyOp14
 70
     2
102
RTVSPropertyOp15
 70
     0
102
RTVSPropertyOp16
 70
     0
102
RTVSPropertyOp17
 70
     0
102
RTVSPropertyOp18
 70
     0
102
RTVSPropertyOp19
 70
     0
102
RTVSPropertyOp20
 70
     0
102
RTVSPropertyOp21
 70
     0
102
RTVSPropertyOp22
 70
     0
102
RTVSPropertyOp23
 70
     0
102
RTVSPropertyOp24
 70
     0
102
RTVSPropertyOp25
 70
     0
102
RTVSPropertyOp26
 70
     0
102
RTVSPropertyOp27
 70
     0
102
RTVSPropertyOp28
 70
     0
102
RTVSPropertyOp29
 70
     0
102
RTVSPropertyOp30
 70
     0
102
RTVSPropertyOp31
 70
     0
102
RTVSPropertyOp32
 70
     0
  0
XRECORD
  5
7DB
102
{ACAD_REACTORS
330
7DA
102
}
330
7DA
100
AcDbXrecord
280
     1
102
RTVSPropertyOp0
 70
     1
102
RTVSPropertyOp1
 70
     1
102
RTVSPropertyOp2
 70
     1
102
RTVSPropertyOp3
 70
     1
102
RTVSPropertyOp4
 70
     1
102
RTVSPropertyOp5
 70
     1
102
RTVSPropertyOp6
 70
     1
102
RTVSPropertyOp7
 70
     1
102
RTVSPropertyOp8
 70
     1
102
RTVSPropertyOp9
 70
     1
102
RTVSPropertyOp10
 70
     1
102
RTVSPropertyOp11
 70
     1
102
RTVSPropertyOp12
 70
     1
102
RTVSPropertyOp13
 70
     1
102
RTVSPropertyOp14
 70
     1
102
RTVSPropertyOp15
 70
     1
102
RTVSPropertyOp16
 70
     1
102
RTVSPropertyOp17
 70
     1
102
RTVSPropertyOp18
 70
     1
102
RTVSPropertyOp19
 70
     1
102
RTVSPropertyOp20
 70
     1
102
RTVSPropertyOp21
 70
     1
102
RTVSPropertyOp22
 70
     1
102
RTVSPropertyOp23
 70
     1
102
RTVSPropertyOp24
 70
     1
102
RTVSPropertyOp25
 70
     1
102
RTVSPropertyOp26
 70
     1
102
RTVSPropertyOp27
 70
     1
102
RTVSPropertyOp28
 70
     1
102
RTVSPropertyOp29
 70
     1
102
RTVSPropertyOp30
 70
     1
102
RTVSPropertyOp31
 70
     1
102
RTVSPropertyOp32
 70
     1
  0
XRECORD
  5
7F1
102
{ACAD_REACTORS
330
7F0
102
}
330
7F0
100
AcDbXrecord
280
     1
102
RTVSPropertyOp0
 70
     1
102
RTVSPropertyOp1
 70
     1
102
RTVSPropertyOp2
 70
     1
102
RTVSPropertyOp3
 70
     1
102
RTVSPropertyOp4
 70
     1
102
RTVSPropertyOp5
 70
     1
102
RTVSPropertyOp6
 70
     1
102
RTVSPropertyOp7
 70
     1
102
RTVSPropertyOp8
 70
     1
102
RTVSPropertyOp9
 70
     1
102
RTVSPropertyOp10
 70
     1
102
RTVSPropertyOp11
 70
     1
102
RTVSPropertyOp12
 70
     1
102
RTVSPropertyOp13
 70
     1
102
RTVSPropertyOp14
 70
     1
102
RTVSPropertyOp15
 70
     1
102
RTVSPropertyOp16
 70
     1
102
RTVSPropertyOp17
 70
     1
102
RTVSPropertyOp18
 70
     1
102
RTVSPropertyOp19
 70
     1
102
RTVSPropertyOp20
 70
     1
102
RTVSPropertyOp21
 70
     1
102
RTVSPropertyOp22
 70
     1
102
RTVSPropertyOp23
 70
     1
102
RTVSPropertyOp24
 70
     1
102
RTVSPropertyOp25
 70
     1
102
RTVSPropertyOp26
 70
     1
102
RTVSPropertyOp27
 70
     1
102
RTVSPropertyOp28
 70
     1
102
RTVSPropertyOp29
 70
     1
102
RTVSPropertyOp30
 70
     1
102
RTVSPropertyOp31
 70
     1
102
RTVSPropertyOp32
 70
     1
  0
XRECORD
  5
7EF
102
{ACAD_REACTORS
330
7EE
102
}
330
7EE
100
AcDbXrecord
280
     1
102
RTVSPropertyOp0
 70
     1
102
RTVSPropertyOp1
 70
     1
102
RTVSPropertyOp2
 70
     1
102
RTVSPropertyOp3
 70
     1
102
RTVSPropertyOp4
 70
     1
102
RTVSPropertyOp5
 70
     1
102
RTVSPropertyOp6
 70
     1
102
RTVSPropertyOp7
 70
     1
102
RTVSPropertyOp8
 70
     1
102
RTVSPropertyOp9
 70
     1
102
RTVSPropertyOp10
 70
     1
102
RTVSPropertyOp11
 70
     1
102
RTVSPropertyOp12
 70
     1
102
RTVSPropertyOp13
 70
     1
102
RTVSPropertyOp14
 70
     1
102
RTVSPropertyOp15
 70
     1
102
RTVSPropertyOp16
 70
     1
102
RTVSPropertyOp17
 70
     1
102
RTVSPropertyOp18
 70
     1
102
RTVSPropertyOp19
 70
     1
102
RTVSPropertyOp20
 70
     1
102
RTVSPropertyOp21
 70
     1
102
RTVSPropertyOp22
 70
     1
102
RTVSPropertyOp23
 70
     1
102
RTVSPropertyOp24
 70
     1
102
RTVSPropertyOp25
 70
     1
102
RTVSPropertyOp26
 70
     1
102
RTVSPropertyOp27
 70
     1
102
RTVSPropertyOp28
 70
     1
102
RTVSPropertyOp29
 70
     1
102
RTVSPropertyOp30
 70
     1
102
RTVSPropertyOp31
 70
     1
102
RTVSPropertyOp32
 70
     1
  0
XRECORD
  5
7E9
102
{ACAD_REACTORS
330
7E8
102
}
330
7E8
100
AcDbXrecord
280
     1
102
RTVSPropertyOp0
 70
     1
102
RTVSPropertyOp1
 70
     1
102
RTVSPropertyOp2
 70
     1
102
RTVSPropertyOp3
 70
     1
102
RTVSPropertyOp4
 70
     1
102
RTVSPropertyOp5
 70
     1
102
RTVSPropertyOp6
 70
     1
102
RTVSPropertyOp7
 70
     1
102
RTVSPropertyOp8
 70
     1
102
RTVSPropertyOp9
 70
     1
102
RTVSPropertyOp10
 70
     1
102
RTVSPropertyOp11
 70
     1
102
RTVSPropertyOp12
 70
     1
102
RTVSPropertyOp13
 70
     1
102
RTVSPropertyOp14
 70
     1
102
RTVSPropertyOp15
 70
     1
102
RTVSPropertyOp16
 70
     1
102
RTVSPropertyOp17
 70
     1
102
RTVSPropertyOp18
 70
     1
102
RTVSPropertyOp19
 70
     1
102
RTVSPropertyOp20
 70
     1
102
RTVSPropertyOp21
 70
     1
102
RTVSPropertyOp22
 70
     1
102
RTVSPropertyOp23
 70
     1
102
RTVSPropertyOp24
 70
     1
102
RTVSPropertyOp25
 70
     1
102
RTVSPropertyOp26
 70
     1
102
RTVSPropertyOp27
 70
     1
102
RTVSPropertyOp28
 70
     1
102
RTVSPropertyOp29
 70
     1
102
RTVSPropertyOp30
 70
     1
102
RTVSPropertyOp31
 70
     1
102
RTVSPropertyOp32
 70
     1
  0
XRECORD
  5
7EB
102
{ACAD_REACTORS
330
7EA
102
}
330
7EA
100
AcDbXrecord
280
     1
102
RTVSPropertyOp0
 70
     1
102
RTVSPropertyOp1
 70
     1
102
RTVSPropertyOp2
 70
     1
102
RTVSPropertyOp3
 70
     1
102
RTVSPropertyOp4
 70
     1
102
RTVSPropertyOp5
 70
     1
102
RTVSPropertyOp6
 70
     1
102
RTVSPropertyOp7
 70
     1
102
RTVSPropertyOp8
 70
     1
102
RTVSPropertyOp9
 70
     1
102
RTVSPropertyOp10
 70
     1
102
RTVSPropertyOp11
 70
     1
102
RTVSPropertyOp12
 70
     1
102
RTVSPropertyOp13
 70
     1
102
RTVSPropertyOp14
 70
     1
102
RTVSPropertyOp15
 70
     1
102
RTVSPropertyOp16
 70
     1
102
RTVSPropertyOp17
 70
     1
102
RTVSPropertyOp18
 70
     1
102
RTVSPropertyOp19
 70
     1
102
RTVSPropertyOp20
 70
     1
102
RTVSPropertyOp21
 70
     1
102
RTVSPropertyOp22
 70
     1
102
RTVSPropertyOp23
 70
     1
102
RTVSPropertyOp24
 70
     1
102
RTVSPropertyOp25
 70
     1
102
RTVSPropertyOp26
 70
     1
102
RTVSPropertyOp27
 70
     1
102
RTVSPropertyOp28
 70
     1
102
RTVSPropertyOp29
 70
     1
102
RTVSPropertyOp30
 70
     1
102
RTVSPropertyOp31
 70
     1
102
RTVSPropertyOp32
 70
     1
  0
XRECORD
  5
7E1
102
{ACAD_REACTORS
330
7E0
102
}
330
7E0
100
AcDbXrecord
280
     1
102
RTVSPropertyOp0
 70
     1
102
RTVSPropertyOp1
 70
     1
102
RTVSPropertyOp2
 70
     1
102
RTVSPropertyOp3
 70
     1
102
RTVSPropertyOp4
 70
     1
102
RTVSPropertyOp5
 70
     1
102
RTVSPropertyOp6
 70
     1
102
RTVSPropertyOp7
 70
     1
102
RTVSPropertyOp8
 70
     1
102
RTVSPropertyOp9
 70
     1
102
RTVSPropertyOp10
 70
     1
102
RTVSPropertyOp11
 70
     1
102
RTVSPropertyOp12
 70
     1
102
RTVSPropertyOp13
 70
     1
102
RTVSPropertyOp14
 70
     1
102
RTVSPropertyOp15
 70
     1
102
RTVSPropertyOp16
 70
     1
102
RTVSPropertyOp17
 70
     1
102
RTVSPropertyOp18
 70
     1
102
RTVSPropertyOp19
 70
     1
102
RTVSPropertyOp20
 70
     1
102
RTVSPropertyOp21
 70
     1
102
RTVSPropertyOp22
 70
     1
102
RTVSPropertyOp23
 70
     1
102
RTVSPropertyOp24
 70
     1
102
RTVSPropertyOp25
 70
     1
102
RTVSPropertyOp26
 70
     1
102
RTVSPropertyOp27
 70
     1
102
RTVSPropertyOp28
 70
     1
102
RTVSPropertyOp29
 70
     1
102
RTVSPropertyOp30
 70
     1
102
RTVSPropertyOp31
 70
     1
102
RTVSPropertyOp32
 70
     1
  0
XRECORD
  5
7D5
102
{ACAD_REACTORS
330
7D4
102
}
330
7D4
100
AcDbXrecord
280
     1
102
RTVSPropertyOp0
 70
     1
102
RTVSPropertyOp1
 70
     1
102
RTVSPropertyOp2
 70
     1
102
RTVSPropertyOp3
 70
     1
102
RTVSPropertyOp4
 70
     1
102
RTVSPropertyOp5
 70
     1
102
RTVSPropertyOp6
 70
     1
102
RTVSPropertyOp7
 70
     1
102
RTVSPropertyOp8
 70
     1
102
RTVSPropertyOp9
 70
     1
102
RTVSPropertyOp10
 70
     1
102
RTVSPropertyOp11
 70
     1
102
RTVSPropertyOp12
 70
     1
102
RTVSPropertyOp13
 70
     1
102
RTVSPropertyOp14
 70
     1
102
RTVSPropertyOp15
 70
     1
102
RTVSPropertyOp16
 70
     1
102
RTVSPropertyOp17
 70
     1
102
RTVSPropertyOp18
 70
     1
102
RTVSPropertyOp19
 70
     1
102
RTVSPropertyOp20
 70
     1
102
RTVSPropertyOp21
 70
     1
102
RTVSPropertyOp22
 70
     1
102
RTVSPropertyOp23
 70
     1
102
RTVSPropertyOp24
 70
     1
102
RTVSPropertyOp25
 70
     1
102
RTVSPropertyOp26
 70
     1
102
RTVSPropertyOp27
 70
     1
102
RTVSPropertyOp28
 70
     1
102
RTVSPropertyOp29
 70
     1
102
RTVSPropertyOp30
 70
     1
102
RTVSPropertyOp31
 70
     1
102
RTVSPropertyOp32
 70
     1
  0
XRECORD
  5
7ED
102
{ACAD_REACTORS
330
7EC
102
}
330
7EC
100
AcDbXrecord
280
     1
102
RTVSPropertyOp0
 70
     1
102
RTVSPropertyOp1
 70
     1
102
RTVSPropertyOp2
 70
     1
102
RTVSPropertyOp3
 70
     1
102
RTVSPropertyOp4
 70
     1
102
RTVSPropertyOp5
 70
     1
102
RTVSPropertyOp6
 70
     1
102
RTVSPropertyOp7
 70
     1
102
RTVSPropertyOp8
 70
     1
102
RTVSPropertyOp9
 70
     1
102
RTVSPropertyOp10
 70
     1
102
RTVSPropertyOp11
 70
     1
102
RTVSPropertyOp12
 70
     1
102
RTVSPropertyOp13
 70
     1
102
RTVSPropertyOp14
 70
     1
102
RTVSPropertyOp15
 70
     1
102
RTVSPropertyOp16
 70
     1
102
RTVSPropertyOp17
 70
     1
102
RTVSPropertyOp18
 70
     1
102
RTVSPropertyOp19
 70
     1
102
RTVSPropertyOp20
 70
     1
102
RTVSPropertyOp21
 70
     1
102
RTVSPropertyOp22
 70
     1
102
RTVSPropertyOp23
 70
     1
102
RTVSPropertyOp24
 70
     1
102
RTVSPropertyOp25
 70
     1
102
RTVSPropertyOp26
 70
     1
102
RTVSPropertyOp27
 70
     1
102
RTVSPropertyOp28
 70
     1
102
RTVSPropertyOp29
 70
     1
102
RTVSPropertyOp30
 70
     1
102
RTVSPropertyOp31
 70
     1
102
RTVSPropertyOp32
 70
     1
  0
ENDSEC
  0
EOF
