  0
SECTION
  2
HEADER
  9
$ACADVER
  1
AC1018
  9
$ACADMAINTVER
 70
   104
  9
$DWGCODEPAGE
  3
ANSI_932
  9
$TITLE
  1
ソケット
  9
$AUTHOR
  1
水田
  9
$LASTSAVEDBY
  1
user
  9
$CUSTOMPROPERTYTAG
  1
マネージャ
  9
$CUSTOMPROPERTY
  1

  9
$CUSTOMPROPERTYTAG
  1
会社
  9
$CUSTOMPROPERTY
  1

  9
$CUSTOMPROPERTYTAG
  1
カテゴリ
  9
$CUSTOMPROPERTY
  1

  9
$CUSTOMPROPERTYTAG
  1
部品番号
  9
$CUSTOMPROPERTY
  1
01BW-6022
  9
$CUSTOMPROPERTYTAG
  1
説明
  9
$CUSTOMPROPERTY
  1

  9
$CUSTOMPROPERTYTAG
  1
プロジェクト
  9
$CUSTOMPROPERTY
  1

  9
$CUSTOMPROPERTYTAG
  1
設計者
  9
$CUSTOMPROPERTY
  1
水田
  9
$CUSTOMPROPERTYTAG
  1
エンジニア
  9
$CUSTOMPROPERTY
  1

  9
$CUSTOMPROPERTYTAG
  1
責任者
  9
$CUSTOMPROPERTY
  1
mizuta
  9
$CUSTOMPROPERTYTAG
  1
コスト センター
  9
$CUSTOMPROPERTY
  1

  9
$CUSTOMPROPERTYTAG
  1
ベンダー
  9
$CUSTOMPROPERTY
  1

  9
$CUSTOMPROPERTYTAG
  1
ユーザ ステータス
  9
$CUSTOMPROPERTY
  1

  9
$CUSTOMPROPERTYTAG
  1
設計ステータス
  9
$CUSTOMPROPERTY
  1
作業中
  9
$CUSTOMPROPERTYTAG
  1
確認者
  9
$CUSTOMPROPERTY
  1
mizuta
  9
$CUSTOMPROPERTYTAG
  1
エンジニアリング承認者
  9
$CUSTOMPROPERTY
  1

  9
$CUSTOMPROPERTYTAG
  1
製造承認者
  9
$CUSTOMPROPERTY
  1

  9
$INSBASE
 10
0.0
 20
0.0
 30
0.0
  9
$EXTMIN
 10
87.59399522048658
 20
35.76997448803161
 30
-0.0000000349181948
  9
$EXTMAX
 10
237.7816780118524
 20
158.0169072679906
 30
0.0000000814935747
  9
$LIMMIN
 10
0.0
 20
0.0
  9
$LIMMAX
 10
420.0
 20
297.0
  9
$ORTHOMODE
 70
     0
  9
$REGENMODE
 70
     1
  9
$FILLMODE
 70
     1
  9
$QTEXTMODE
 70
     0
  9
$MIRRTEXT
 70
     0
  9
$LTSCALE
 40
1.0
  9
$ATTMODE
 70
     1
  9
$TEXTSIZE
 40
0.2
  9
$TRACEWID
 40
0.05
  9
$TEXTSTYLE
  7
Standard
  9
$CLAYER
  8
0
  9
$CELTYPE
  6
ByLayer
  9
$CECOLOR
 62
   256
  9
$CELTSCALE
 40
1.0
  9
$DISPSILH
 70
     0
  9
$DIMSCALE
 40
1.0
  9
$DIMASZ
 40
1.799999999999999
  9
$DIMEXO
 40
0.0625
  9
$DIMDLI
 40
0.38
  9
$DIMRND
 40
0.0
  9
$DIMDLE
 40
0.0
  9
$DIMEXE
 40
0.18
  9
$DIMTP
 40
0.0
  9
$DIMTM
 40
0.0
  9
$DIMTXT
 40
0.25
  9
$DIMCEN
 40
0.09
  9
$DIMTSZ
 40
0.0
  9
$DIMTOL
 70
     0
  9
$DIMLIM
 70
     0
  9
$DIMTIH
 70
     1
  9
$DIMTOH
 70
     1
  9
$DIMSE1
 70
     0
  9
$DIMSE2
 70
     0
  9
$DIMTAD
 70
     0
  9
$DIMZIN
 70
     0
  9
$DIMBLK
  1

  9
$DIMASO
 70
     1
  9
$DIMSHO
 70
     1
  9
$DIMPOST
  1

  9
$DIMAPOST
  1

  9
$DIMALT
 70
     0
  9
$DIMALTD
 70
     2
  9
$DIMALTF
 40
25.4
  9
$DIMLFAC
 40
1.0
  9
$DIMTOFL
 70
     0
  9
$DIMTVP
 40
0.0
  9
$DIMTIX
 70
     0
  9
$DIMSOXD
 70
     0
  9
$DIMSAH
 70
     0
  9
$DIMBLK1
  1

  9
$DIMBLK2
  1

  9
$DIMSTYLE
  2
Standard
  9
$DIMCLRD
 70
     0
  9
$DIMCLRE
 70
     0
  9
$DIMCLRT
 70
     0
  9
$DIMTFAC
 40
1.0
  9
$DIMGAP
 40
0.09
  9
$DIMJUST
 70
     0
  9
$DIMSD1
 70
     0
  9
$DIMSD2
 70
     0
  9
$DIMTOLJ
 70
     1
  9
$DIMTZIN
 70
     0
  9
$DIMALTZ
 70
     0
  9
$DIMALTTZ
 70
     0
  9
$DIMUPT
 70
     0
  9
$DIMDEC
 70
     4
  9
$DIMTDEC
 70
     4
  9
$DIMALTU
 70
     2
  9
$DIMALTTD
 70
     2
  9
$DIMTXSTY
  7
Standard
  9
$DIMAUNIT
 70
     0
  9
$DIMADEC
 70
     0
  9
$DIMALTRND
 40
0.0
  9
$DIMAZIN
 70
     0
  9
$DIMDSEP
 70
    46
  9
$DIMATFIT
 70
     3
  9
$DIMFRAC
 70
     0
  9
$DIMLDRBLK
  1

  9
$DIMLUNIT
 70
     2
  9
$DIMLWD
 70
    -2
  9
$DIMLWE
 70
    -2
  9
$DIMTMOVE
 70
     0
  9
$LUNITS
 70
     2
  9
$LUPREC
 70
     4
  9
$SKETCHINC
 40
0.1
  9
$FILLETRAD
 40
0.0
  9
$AUNITS
 70
     0
  9
$AUPREC
 70
     0
  9
$MENU
  1
.
  9
$ELEVATION
 40
0.0
  9
$PELEVATION
 40
0.0
  9
$THICKNESS
 40
0.0
  9
$LIMCHECK
 70
     0
  9
$CHAMFERA
 40
0.0
  9
$CHAMFERB
 40
0.0
  9
$CHAMFERC
 40
0.0
  9
$CHAMFERD
 40
0.0
  9
$SKPOLY
 70
     0
  9
$TDCREATE
 40
2456687.494555255
  9
$TDUCREATE
 40
2456687.119555255
  9
$TDUPDATE
 40
2456687.505560035
  9
$TDUUPDATE
 40
2456687.130560035
  9
$TDINDWG
 40
0.0024695139
  9
$TDUSRTIMER
 40
0.0024694213
  9
$USRTIMER
 70
     1
  9
$ANGBASE
 50
0.0
  9
$ANGDIR
 70
     0
  9
$PDMODE
 70
     0
  9
$PDSIZE
 40
0.0
  9
$PLINEWID
 40
0.0
  9
$SPLFRAME
 70
     0
  9
$SPLINETYPE
 70
     6
  9
$SPLINESEGS
 70
     8
  9
$HANDSEED
  5
827
  9
$SURFTAB1
 70
     6
  9
$SURFTAB2
 70
     6
  9
$SURFTYPE
 70
     6
  9
$SURFU
 70
     6
  9
$SURFV
 70
     6
  9
$UCSBASE
  2

  9
$UCSNAME
  2

  9
$UCSORG
 10
0.0
 20
0.0
 30
0.0
  9
$UCSXDIR
 10
1.0
 20
0.0
 30
0.0
  9
$UCSYDIR
 10
0.0
 20
1.0
 30
0.0
  9
$UCSORTHOREF
  2

  9
$UCSORTHOVIEW
 70
     0
  9
$UCSORGTOP
 10
0.0
 20
0.0
 30
0.0
  9
$UCSORGBOTTOM
 10
0.0
 20
0.0
 30
0.0
  9
$UCSORGLEFT
 10
0.0
 20
0.0
 30
0.0
  9
$UCSORGRIGHT
 10
0.0
 20
0.0
 30
0.0
  9
$UCSORGFRONT
 10
0.0
 20
0.0
 30
0.0
  9
$UCSORGBACK
 10
0.0
 20
0.0
 30
0.0
  9
$PUCSBASE
  2

  9
$PUCSNAME
  2

  9
$PUCSORG
 10
0.0
 20
0.0
 30
0.0
  9
$PUCSXDIR
 10
1.0
 20
0.0
 30
0.0
  9
$PUCSYDIR
 10
0.0
 20
1.0
 30
0.0
  9
$PUCSORTHOREF
  2

  9
$PUCSORTHOVIEW
 70
     0
  9
$PUCSORGTOP
 10
0.0
 20
0.0
 30
0.0
  9
$PUCSORGBOTTOM
 10
0.0
 20
0.0
 30
0.0
  9
$PUCSORGLEFT
 10
0.0
 20
0.0
 30
0.0
  9
$PUCSORGRIGHT
 10
0.0
 20
0.0
 30
0.0
  9
$PUCSORGFRONT
 10
0.0
 20
0.0
 30
0.0
  9
$PUCSORGBACK
 10
0.0
 20
0.0
 30
0.0
  9
$USERI1
 70
     0
  9
$USERI2
 70
     0
  9
$USERI3
 70
     0
  9
$USERI4
 70
     0
  9
$USERI5
 70
     0
  9
$USERR1
 40
0.0
  9
$USERR2
 40
0.0
  9
$USERR3
 40
0.0
  9
$USERR4
 40
0.0
  9
$USERR5
 40
0.0
  9
$WORLDVIEW
 70
     1
  9
$SHADEDGE
 70
     3
  9
$SHADEDIF
 70
    70
  9
$TILEMODE
 70
     1
  9
$MAXACTVP
 70
    64
  9
$PINSBASE
 10
0.0
 20
0.0
 30
0.0
  9
$PLIMCHECK
 70
     0
  9
$PEXTMIN
 10
0.0
 20
0.0
 30
0.0
  9
$PEXTMAX
 10
420.0
 20
297.0
 30
0.0
  9
$PLIMMIN
 10
0.0
 20
0.0
  9
$PLIMMAX
 10
420.0
 20
297.0
  9
$UNITMODE
 70
     0
  9
$VISRETAIN
 70
     1
  9
$PLINEGEN
 70
     0
  9
$PSLTSCALE
 70
     1
  9
$TREEDEPTH
 70
  3020
  9
$CMLSTYLE
  2
Standard
  9
$CMLJUST
 70
     0
  9
$CMLSCALE
 40
1.0
  9
$PROXYGRAPHICS
 70
     1
  9
$MEASUREMENT
 70
     1
  9
$CELWEIGHT
370
    -1
  9
$ENDCAPS
280
     0
  9
$JOINSTYLE
280
     0
  9
$LWDISPLAY
290
     0
  9
$INSUNITS
 70
     4
  9
$HYPERLINKBASE
  1

  9
$STYLESHEET
  1

  9
$XEDIT
290
     1
  9
$CEPSNTYPE
380
     0
  9
$PSTYLEMODE
290
     1
  9
$FINGERPRINTGUID
  2
{2D39E6FF-B5AF-4EB3-A607-CA428B95BB86}
  9
$VERSIONGUID
  2
{646ED022-288B-4C46-853C-69AFF67AEEC0}
  9
$EXTNAMES
290
     1
  9
$PSVPSCALE
 40
0.0
  9
$OLESTARTUP
290
     0
  9
$SORTENTS
280
   127
  9
$INDEXCTL
280
     0
  9
$HIDETEXT
280
     1
  9
$XCLIPFRAME
290
     0
  9
$HALOGAP
280
     0
  9
$OBSCOLOR
 70
   257
  9
$OBSLTYPE
280
     0
  9
$INTERSECTIONDISPLAY
280
     0
  9
$INTERSECTIONCOLOR
 70
   257
  9
$DIMASSOC
280
     1
  9
$PROJECTNAME
  1

  0
ENDSEC
  0
SECTION
  2
CLASSES
  0
CLASS
  1
ACDBDICTIONARYWDFLT
  2
AcDbDictionaryWithDefault
  3
ObjectDBX Classes
 90
        0
 91
        1
280
     0
281
     0
  0
CLASS
  1
MATERIAL
  2
AcDbMaterial
  3
ObjectDBX Classes
 90
     1153
 91
        3
280
     0
281
     0
  0
CLASS
  1
VISUALSTYLE
  2
AcDbVisualStyle
  3
ObjectDBX Classes
 90
     4095
 91
       24
280
     0
281
     0
  0
CLASS
  1
SCALE
  2
AcDbScale
  3
ObjectDBX Classes
 90
     1153
 91
       17
280
     0
281
     0
  0
CLASS
  1
TABLESTYLE
  2
AcDbTableStyle
  3
ObjectDBX Classes
 90
     4095
 91
        1
280
     0
281
     0
  0
CLASS
  1
MLEADERSTYLE
  2
AcDbMLeaderStyle
  3
ACDB_MLEADERSTYLE_CLASS
 90
     4095
 91
        1
280
     0
281
     0
  0
CLASS
  1
DICTIONARYVAR
  2
AcDbDictionaryVar
  3
ObjectDBX Classes
 90
        0
 91
        9
280
     0
281
     0
  0
CLASS
  1
CELLSTYLEMAP
  2
AcDbCellStyleMap
  3
ObjectDBX Classes
 90
     1152
 91
        2
280
     0
281
     0
  0
CLASS
  1
AMGSETTINGSOBJ
  2
AmgSettingsObj
  3
"AcadM|Product Description: AutoCAD Mechanical|Company: Autodesk, Inc."
 90
     1024
 91
        2
280
     0
281
     0
  0
CLASS
  1
AMGOBJPROPCFG
  2
AmgObjPropCfg
  3
"AmgLay|Product Description: AutoCAD Mechanical|Company: Autodesk, Inc."
 90
     1025
 91
        2
280
     0
281
     0
  0
CLASS
  1
ACMESCOPE
  2
AcMeScope
  3
AcMeServices
 90
     1024
 91
        1
280
     0
281
     0
  0
CLASS
  1
ACGREFMASTER
  2
AcGrefMaster
  3
AcAttribServices
 90
     1024
 91
        1
280
     0
281
     0
  0
CLASS
  1
ACME_DOCUMENT
  2
AcMeDbDoc
  3
AcMeServices
 90
     1024
 91
        1
280
     0
281
     0
  0
CLASS
  1
ACMECOMMANDHISTORY
  2
AcMeCommandHistory
  3
AcMeServices
 90
     1024
 91
        1
280
     0
281
     0
  0
CLASS
  1
ACIMSYSVARMAN
  2
AcImSysVarManager
  3
AcMeServices
 90
     1024
 91
        4
280
     0
281
     0
  0
CLASS
  1
ACIMINTSYSVAR
  2
AcImIntSysVar
  3
AcMeServices
 90
     1024
 91
       27
280
     0
281
     0
  0
CLASS
  1
ACMESTATEMGR
  2
AcMeStateMgr
  3
AcMeServices
 90
     1024
 91
        1
280
     0
281
     0
  0
CLASS
  1
ACDBENTITYCACHE
  2
AcMeEntityCache
  3
AcMeServices
 90
     1024
 91
        1
280
     0
281
     0
  0
CLASS
  1
AM_DRAWING_MGR
  2
AcDmDwgMgr
  3
AcMechDwgViewMgmt
 90
     1024
 91
        1
280
     0
281
     0
  0
CLASS
  1
AM_DWG_DOCUMENT
  2
AcDmDwgDocument
  3
AcMechDwgViewMgmt
 90
     1024
 91
        1
280
     0
281
     0
  0
CLASS
  1
AM_DWG_SHEET
  2
AcDmSheet
  3
AcMechDwgViewMgmt
 90
     1024
 91
        2
280
     0
281
     0
  0
CLASS
  1
AM_VIEWDIMPARMAP
  2
AcDmViewDimParMap
  3
AcMechDwgViewMgmt
 90
     1024
 91
        2
280
     0
281
     0
  0
CLASS
  1
AMDTINTERNALREACTOR
  2
AmdtInternalReactor
  3
AcMeServices
 90
     1024
 91
        1
280
     0
281
     0
  0
CLASS
  1
ACIMREALSYSVAR
  2
AcImRealSysVar
  3
AcMeServices
 90
     1024
 91
        1
280
     0
281
     0
  0
CLASS
  1
AM_DWGMGR_NAME
  2
AcDmDwgMgrName
  3
AcMechDwgViewMgmt
 90
     1024
 91
        1
280
     0
281
     0
  0
CLASS
  1
ACME_DATABASE
  2
AcMeDbDatabase
  3
AcMeServices
 90
     1024
 91
        1
280
     0
281
     0
  0
CLASS
  1
ACRFINSADJUSTERMGR
  2
AcRfInsAdjusterMgr
  3
AcMeServices
 90
     1024
 91
        1
280
     0
281
     0
  0
CLASS
  1
ACGREFACADMASTER
  2
AcGrefacadMaster
  3
AcGrefServices
 90
     1024
 91
        1
280
     0
281
     0
  0
CLASS
  1
AMDTMENUSTATEMGR
  2
AmdtMenuStateMgr
  3
McadcomServices
 90
     1024
 91
        1
280
     0
281
     0
  0
CLASS
  1
AMDTMCOMMENUSTATE
  2
AmdtMcomMenuState
  3
McadcomServices
 90
     1024
 91
        1
280
     0
281
     0
  0
CLASS
  1
AMIMASTER
  2
AmiMaster
  3
AmiServices
 90
     1024
 91
        1
280
     0
281
     0
  0
CLASS
  1
MAPIAMMOUDLE
  2
MApiAmModule
  3
MApiAmServices
 90
     1024
 91
        1
280
     0
281
     0
  0
CLASS
  1
ACMSTANDARDANSI
  2
AcmStandardANSI
  3
"Amdt_StdImp|Product Description: AutoCAD Mechanical|Company: Autodesk, Inc."
 90
     1024
 91
        1
280
     0
281
     0
  0
CLASS
  1
ACMSURFSTANDARDANSI
  2
AcmSurfTextStdANSI
  3
"Amdt_StdImp|Product Description: AutoCAD Mechanical|Company: Autodesk, Inc."
 90
     1024
 91
        1
280
     0
281
     0
  0
CLASS
  1
ACMFCFSTANDARDANSI
  2
AcmFCFStdANSI
  3
"Amdt_StdImp|Product Description: AutoCAD Mechanical|Company: Autodesk, Inc."
 90
     1024
 91
        1
280
     0
281
     0
  0
CLASS
  1
ACMWELDSTANDARDANSI
  2
AcmWeldingStdANSI
  3
"Amdt_StdImp|Product Description: AutoCAD Mechanical|Company: Autodesk, Inc."
 90
     1024
 91
        1
280
     0
281
     0
  0
CLASS
  1
ACMIDSTANDARDANSI
  2
AcmIdStdANSI
  3
"Amdt_StdImp|Product Description: AutoCAD Mechanical|Company: Autodesk, Inc."
 90
     1024
 91
        1
280
     0
281
     0
  0
CLASS
  1
ACMDATUMSTANDARDANSI
  2
AcmDatumStdANSI
  3
"Amdt_StdImp|Product Description: AutoCAD Mechanical|Company: Autodesk, Inc."
 90
     1024
 91
        1
280
     0
281
     0
  0
CLASS
  1
ACMBOMSTANDARDANSI
  2
AcmBOMStdANSI
  3
"Amdt_StdImp|Product Description: AutoCAD Mechanical|Company: Autodesk, Inc."
 90
     1024
 91
        1
280
     0
281
     0
  0
CLASS
  1
ACMDETAILSTANDARDANSI
  2
AmdtDetailSymStdANSI
  3
"Amdt_StdImp|Product Description: AutoCAD Mechanical|Company: Autodesk, Inc."
 90
     1024
 91
        1
280
     0
281
     0
  0
CLASS
  1
ACMSECTIONSTANDARDANSI
  2
AmdtSectionSymStdANSI
  3
"Amdt_StdImp|Product Description: AutoCAD Mechanical|Company: Autodesk, Inc."
 90
     1024
 91
        1
280
     0
281
     0
  0
CLASS
  1
ACMCENTERLINESTANDARDANSI
  2
AmdtCenterLineStdANSI
  3
"Amdt_StdImp|Product Description: AutoCAD Mechanical|Company: Autodesk, Inc."
 90
     1024
 91
        1
280
     0
281
     0
  0
CLASS
  1
ACMNOTESTANDARDANSI
  2
AmdtNoteStdANSI
  3
"Amdt_StdImp|Product Description: AutoCAD Mechanical|Company: Autodesk, Inc."
 90
     1024
 91
        1
280
     0
281
     0
  0
CLASS
  1
ACAMGLAYSTD
  2
AcAmgLayStd
  3
"AmgLay|Product Description: AutoCAD Mechanical|Company: Autodesk, Inc."
 90
     1024
 91
        2
280
     0
281
     0
  0
CLASS
  1
ACAMGDIMSTD
  2
AcAmgDimStd
  3
"AmgDim|Product Description: AutoCAD Mechanical|Company: Autodesk, Inc."
 90
     1024
 91
        2
280
     0
281
     0
  0
CLASS
  1
ACAMGHOLECHARTSTDANSI
  2
AcAmgHoleChartStdANSI
  3
AmgDim|Product Description: AutoCAD Mechanical|Company: Autodesk, Inc.
 90
     1024
 91
        1
280
     0
281
     0
  0
CLASS
  1
ACAMGTITLESTD
  2
AcAmgTitleStd
  3
"AmgTitle|Product Description: AutoCAD Mechanical|Company: Autodesk, Inc."
 90
     4095
 91
        2
280
     0
281
     0
  0
CLASS
  1
ACMTHREADLINESTANDARDANSI
  2
AmdtThreadLineStdANSI
  3
"Amdt_StdImp|Product Description: AutoCAD Mechanical|Company: Autodesk, Inc."
 90
     1024
 91
        1
280
     0
281
     0
  0
CLASS
  1
ACMTAPERSTANDARDANSI
  2
AcmTaperStdANSI
  3
"Amdt_StdImp|Product Description: AutoCAD Mechanical|Company: Autodesk, Inc."
 90
     1024
 91
        1
280
     0
281
     0
  0
CLASS
  1
ACMANOOTATIONVIEWSTANDARDANSI
  2
AmdtAnViewStdANSI
  3
"Amdt_StdImp|Product Description: AutoCAD Mechanical|Company: Autodesk, Inc."
 90
     1024
 91
        1
280
     0
281
     0
  0
CLASS
  1
ACMSTANDARDJIS
  2
AcmStandardJIS
  3
"Amdt_StdImp|Product Description: AutoCAD Mechanical|Company: Autodesk, Inc."
 90
     1024
 91
        1
280
     0
281
     0
  0
CLASS
  1
ACMSURFSTANDARDJIS
  2
AcmSurfTextStdJIS
  3
"Amdt_StdImp|Product Description: AutoCAD Mechanical|Company: Autodesk, Inc."
 90
     1024
 91
        1
280
     0
281
     0
  0
CLASS
  1
ACMFCFSTANDARDJIS98
  2
AcmFCFStdJIS98
  3
"Amdt_StdImp|Product Description: AutoCAD Mechanical|Company: Autodesk, Inc."
 90
     1024
 91
        1
280
     0
281
     0
  0
CLASS
  1
ACMWELDSTANDARDJIS
  2
AcmWeldingStdJIS
  3
"Amdt_StdImp|Product Description: AutoCAD Mechanical|Company: Autodesk, Inc."
 90
     1024
 91
        1
280
     0
281
     0
  0
CLASS
  1
ACMIDSTANDARDJIS
  2
AcmIdStdJIS
  3
"Amdt_StdImp|Product Description: AutoCAD Mechanical|Company: Autodesk, Inc."
 90
     1024
 91
        1
280
     0
281
     0
  0
CLASS
  1
ACMDATUMSTANDARDJIS
  2
AcmDatumStdJIS
  3
"Amdt_StdImp|Product Description: AutoCAD Mechanical|Company: Autodesk, Inc."
 90
     1024
 91
        1
280
     0
281
     0
  0
CLASS
  1
ACMBOMSTANDARDJIS
  2
AcmBOMStdJIS
  3
"Amdt_StdImp|Product Description: AutoCAD Mechanical|Company: Autodesk, Inc."
 90
     1024
 91
        1
280
     0
281
     0
  0
CLASS
  1
ACMDETAILSTANDARDJIS
  2
AmdtDetailSymStdJIS
  3
"Amdt_StdImp|Product Description: AutoCAD Mechanical|Company: Autodesk, Inc."
 90
     1024
 91
        1
280
     0
281
     0
  0
CLASS
  1
ACMSECTIONSTANDARDJIS
  2
AmdtSectionSymStdJIS
  3
"Amdt_StdImp|Product Description: AutoCAD Mechanical|Company: Autodesk, Inc."
 90
     1024
 91
        1
280
     0
281
     0
  0
CLASS
  1
ACMCENTERLINESTANDARDJIS
  2
AmdtCenterLineStdJIS
  3
"Amdt_StdImp|Product Description: AutoCAD Mechanical|Company: Autodesk, Inc."
 90
     1024
 91
        1
280
     0
281
     0
  0
CLASS
  1
ACMNOTESTANDARDJIS
  2
AmdtNoteStdJIS
  3
"Amdt_StdImp|Product Description: AutoCAD Mechanical|Company: Autodesk, Inc."
 90
     1024
 91
        1
280
     0
281
     0
  0
CLASS
  1
AMDTNOTETEMPLATEDB
  2
AmdtNoteTemplateDB
  3
AcmSymBB|Product Description: AutoCAD Mechanical|Company: Autodesk, Inc.
 90
     1024
 91
        8
280
     0
281
     0
  0
CLASS
  1
ACAMGHOLECHARTSTDJIS
  2
AcAmgHoleChartStdJIS
  3
AmgDim|Product Description: AutoCAD Mechanical|Company: Autodesk, Inc.
 90
     1024
 91
        1
280
     0
281
     0
  0
CLASS
  1
ACMTHREADLINESTANDARDJIS
  2
AmdtThreadLineStdJIS
  3
"Amdt_StdImp|Product Description: AutoCAD Mechanical|Company: Autodesk, Inc."
 90
     1024
 91
        1
280
     0
281
     0
  0
CLASS
  1
ACMTAPERSTANDARDJIS
  2
AcmTaperStdJIS
  3
"Amdt_StdImp|Product Description: AutoCAD Mechanical|Company: Autodesk, Inc."
 90
     1024
 91
        1
280
     0
281
     0
  0
CLASS
  1
ACMANOOTATIONVIEWSTANDARDJIS
  2
AmdtAnViewStdJIS
  3
"Amdt_StdImp|Product Description: AutoCAD Mechanical|Company: Autodesk, Inc."
 90
     1024
 91
        1
280
     0
281
     0
  0
CLASS
  1
AMDTEDGESTANDARDJIS
  2
AmdtEdgeStdJIS
  3
"Amdt_StdImp|Product Description: AutoCAD Mechanical|Company: Autodesk, Inc."
 90
     1024
 91
        1
280
     0
281
     0
  0
CLASS
  1
ACIMSTRSYSVAR
  2
AcImStrSysVar
  3
AcMeServices
 90
     1024
 91
        5
280
     0
281
     0
  0
CLASS
  1
AMDTDMMENUSTATE
  2
AmdtDmMenuState
  3
AcMechDwgViewMgmt
 90
     1024
 91
        1
280
     0
281
     0
  0
CLASS
  1
AMDTAMMENUSTATE
  2
AmdtAmMenuState
  3
DesignerAssemblies
 90
     1024
 91
        1
280
     0
281
     0
  0
CLASS
  1
ACAMPROJECT
  2
AcAmProject
  3
DesignerAssemblies
 90
     1024
 91
        1
280
     0
281
     0
  0
CLASS
  1
ACAMGRCOMPDEF
  2
AcAmGrCompDef
  3
DesignerAssemblies
 90
     1024
 91
        1
280
     0
281
     0
  0
CLASS
  1
ACAMCOMPDEF
  2
AcAmCompDef
  3
DesignerAssemblies
 90
     1024
 91
        1
280
     0
281
     0
  0
CLASS
  1
ACAMCOMPDEFMGR
  2
AcAmCompDefMgr
  3
DesignerAssemblies
 90
     1024
 91
        1
280
     0
281
     0
  0
CLASS
  1
AMCONTEXTMGR
  2
AcAmContextMgr
  3
DesignerAssemblies
 90
     1024
 91
        1
280
     0
281
     0
  0
CLASS
  1
ACAMCONTEXTMODELER
  2
AcAmContextModeler
  3
DesignerAssemblies
 90
     1024
 91
        1
280
     0
281
     0
  0
CLASS
  1
ACMDATADICTIONARY
  2
AcmDataDictionary
  3
"AcmSymBB|Product Description: AutoCAD Mechanical|Company: Autodesk, Inc."
 90
     1024
 91
        1
280
     0
281
     0
  0
CLASS
  1
ACAMGRCOMPDEFSET
  2
AcAmGrCompDefSet
  3
DesignerAssemblies
 90
     1024
 91
        1
280
     0
281
     0
  0
CLASS
  1
AMDTBROWSERDBTAB
  2
AmdtBrowserDbTab
  3
McadcomServices
 90
     1024
 91
        1
280
     0
281
     0
  0
CLASS
  1
CBROWSERAPPOBJECT
  2
CBrowserAppObject
  3
McadcomServices
 90
     1024
 91
        2
280
     0
281
     0
  0
CLASS
  1
DM_PLACEHOLDER
  2
AcDmSelsetPlaceholder
  3
AcMechDwgViewMgmt
 90
     1024
 91
        1
280
     0
281
     0
  0
CLASS
  1
ACAMGFILTERDAT
  2
AcAmgFilterDat
  3
"AcadM|Product Description: AutoCAD Mechanical|Company: Autodesk, Inc."
 90
     1024
 91
        0
280
     0
281
     0
  0
ENDSEC
  0
SECTION
  2
TABLES
  0
TABLE
  2
VPORT
  5
8
330
0
100
AcDbSymbolTable
 70
     1
  0
VPORT
  5
57
330
8
100
AcDbSymbolTableRecord
100
AcDbViewportTableRecord
  2
*Active
 70
     0
 10
0.0
 20
0.0
 11
1.0
 21
1.0
 12
162.6878366161694
 22
96.89344087801112
 13
0.0
 23
0.0
 14
1.0
 24
1.0
 15
0.0
 25
0.0
 16
0.0
 26
0.0
 36
1.0
 17
0.0
 27
0.0
 37
0.0
 40
123.192141023103
 41
1.623225806451612
 42
50.0
 43
0.0
 44
0.0
 50
0.0
 51
0.0
 71
     0
 72
   100
 73
     1
 74
     1
 75
     0
 76
     0
 77
     0
 78
     0
281
     0
 65
     1
110
0.0
120
0.0
130
0.0
111
1.0
121
0.0
131
0.0
112
0.0
122
1.0
132
0.0
 79
     0
146
0.0
  0
ENDTAB
  0
TABLE
  2
LTYPE
  5
5
330
0
100
AcDbSymbolTable
 70
    70
  0
LTYPE
  5
5B
330
5
100
AcDbSymbolTableRecord
100
AcDbLinetypeTableRecord
  2
ByBlock
 70
     0
  3

 72
    65
 73
     0
 40
0.0
  0
LTYPE
  5
5C
330
5
100
AcDbSymbolTableRecord
100
AcDbLinetypeTableRecord
  2
ByLayer
 70
     0
  3

 72
    65
 73
     0
 40
0.0
  0
LTYPE
  5
5D
330
5
100
AcDbSymbolTableRecord
100
AcDbLinetypeTableRecord
  2
Continuous
 70
     0
  3
Solid line
 72
    65
 73
     0
 40
0.0
  0
LTYPE
  5
74
330
5
100
AcDbSymbolTableRecord
100
AcDbLinetypeTableRecord
  2
CHAIN
 70
     0
  3
Chain ____ _ ____ _ ____ _ ____ _ ____ _ ____
 72
    65
 73
     4
 40
0.3543
 49
0.2362
 74
     0
 49
-0.0295
 74
     0
 49
0.0591
 74
     0
 49
-0.0295
 74
     0
  0
LTYPE
  5
75
330
5
100
AcDbSymbolTableRecord
100
AcDbLinetypeTableRecord
  2
DASH_DOT
 70
     0
  3
Dash dot __ . __ . __ . __ . __ . __ . __ . __
 72
    65
 73
     4
 40
0.37
 49
0.24
 74
     0
 49
-0.06
 74
     0
 49
0.01
 74
     0
 49
-0.06
 74
     0
  0
LTYPE
  5
76
330
5
100
AcDbSymbolTableRecord
100
AcDbLinetypeTableRecord
  2
DASH_DOUBLE_DOT
 70
     0
  3
Dash Double-Dot __ . . __ . . __ . . __ . .
 72
    65
 73
     6
 40
0.4398000000000001
 49
0.24
 74
     0
 49
-0.06
 74
     0
 49
0.0098
 74
     0
 49
-0.06
 74
     0
 49
0.01
 74
     0
 49
-0.06
 74
     0
  0
LTYPE
  5
77
330
5
100
AcDbSymbolTableRecord
100
AcDbLinetypeTableRecord
  2
DASH_TRIPLE_DOT
 70
     0
  3
Dash Triple-Dot _ . . . _ . . . _ . . . _
 72
    65
 73
     8
 40
0.51
 49
0.24
 74
     0
 49
-0.06
 74
     0
 49
0.01
 74
     0
 49
-0.06
 74
     0
 49
0.01
 74
     0
 49
-0.06
 74
     0
 49
0.01
 74
     0
 49
-0.06
 74
     0
  0
LTYPE
  5
78
330
5
100
AcDbSymbolTableRecord
100
AcDbLinetypeTableRecord
  2
DASHED
 70
     0
  3
Dashed __ __ __ __ __ __ __ __ __ __ __ __ __ _
 72
    65
 73
     2
 40
0.2067
 49
0.1654
 74
     0
 49
-0.0413
 74
     0
  0
LTYPE
  5
79
330
5
100
AcDbSymbolTableRecord
100
AcDbLinetypeTableRecord
  2
DASHED_SPACE
 70
     0
  3
Dashed Space __ __ __ __ __ __ __ __ __ __ __ _
 72
    65
 73
     2
 40
0.0826
 49
0.0413
 74
     0
 49
-0.0413
 74
     0
  0
LTYPE
  5
7A
330
5
100
AcDbSymbolTableRecord
100
AcDbLinetypeTableRecord
  2
DOTTED
 70
     0
  3
Dotted . . . . . . . . . . . . . . . . . . . . 
 72
    65
 73
     2
 40
0.0482
 49
0.0069
 74
     0
 49
-0.0413
 74
     0
  0
LTYPE
  5
7B
330
5
100
AcDbSymbolTableRecord
100
AcDbLinetypeTableRecord
  2
DOUBLE_DASH_CHAIN
 70
     0
  3
Double Dash Chain ___ _ _ ___ _ _ ___ _ _ ___ _
 72
    65
 73
     6
 40
1.240299999999997
 49
0.6614
 74
     0
 49
-0.0827
 74
     0
 49
0.1654
 74
     0
 49
-0.0827
 74
     0
 49
0.1654
 74
     0
 49
-0.0827
 74
     0
  0
LTYPE
  5
7C
330
5
100
AcDbSymbolTableRecord
100
AcDbLinetypeTableRecord
  2
DOUBLE_DASH_DOT
 70
     0
  3
Double Dash Dot __ __ . __ __ . __ __ . __ _
 72
    65
 73
     6
 40
0.6700000000000001
 49
0.24
 74
     0
 49
-0.06
 74
     0
 49
0.24
 74
     0
 49
-0.06
 74
     0
 49
0.01
 74
     0
 49
-0.06
 74
     0
  0
LTYPE
  5
7D
330
5
100
AcDbSymbolTableRecord
100
AcDbLinetypeTableRecord
  2
DOUBLE_DASH_DOUBLE_DOT
 70
     0
  3
Double-dash double-dot _ _ . . _ _ . . _
 72
    65
 73
     8
 40
0.7400000000000003
 49
0.24
 74
     0
 49
-0.06
 74
     0
 49
0.24
 74
     0
 49
-0.06
 74
     0
 49
0.01
 74
     0
 49
-0.06
 74
     0
 49
0.01
 74
     0
 49
-0.06
 74
     0
  0
LTYPE
  5
7E
330
5
100
AcDbSymbolTableRecord
100
AcDbLinetypeTableRecord
  2
DOUBLE_DASH_TRIPLE_DOT
 70
     0
  3
Double Dash Triple Dot __ __ . . . __ __ . . .
 72
    65
 73
    10
 40
0.8100000000000001
 49
0.24
 74
     0
 49
-0.06
 74
     0
 49
0.24
 74
     0
 49
-0.06
 74
     0
 49
0.01
 74
     0
 49
-0.06
 74
     0
 49
0.01
 74
     0
 49
-0.06
 74
     0
 49
0.01
 74
     0
 49
-0.06
 74
     0
  0
LTYPE
  5
7F
330
5
100
AcDbSymbolTableRecord
100
AcDbLinetypeTableRecord
  2
LONG_DASH_DOTTED
 70
     0
  3
Long Dash Dotted ____ . ____ . ____ . ____ . _
 72
    65
 73
     4
 40
0.61
 49
0.48
 74
     0
 49
-0.06
 74
     0
 49
0.01
 74
     0
 49
-0.06
 74
     0
  0
LTYPE
  5
80
330
5
100
AcDbSymbolTableRecord
100
AcDbLinetypeTableRecord
  2
LONG_DASH_DOUBLE_DOT
 70
     0
  3
Long Dash Double Dot ____ . . ____ . . ____ . .
 72
    65
 73
     6
 40
0.3345
 49
0.2362
 74
     0
 49
-0.0295
 74
     0
 49
0.0049
 74
     0
 49
-0.0295
 74
     0
 49
0.0049
 74
     0
 49
-0.0295
 74
     0
  0
LTYPE
  5
81
330
5
100
AcDbSymbolTableRecord
100
AcDbLinetypeTableRecord
  2
LONG_DASH_TRIPLE_DOT
 70
     0
  3
Long Dash Triple Dot ____ ... ____ ... ____
 72
    65
 73
     8
 40
0.75
 49
0.48
 74
     0
 49
-0.06
 74
     0
 49
0.01
 74
     0
 49
-0.06
 74
     0
 49
0.01
 74
     0
 49
-0.06
 74
     0
 49
0.01
 74
     0
 49
-0.06
 74
     0
  0
LTYPE
  5
82
330
5
100
AcDbSymbolTableRecord
100
AcDbLinetypeTableRecord
  2
BORDER
 70
     0
  3
Border __ __ . __ __ . __ __ . __ __ . __ __ .
 72
    65
 73
     6
 40
44.45
 49
12.7
 74
     0
 49
-6.349999999999997
 74
     0
 49
12.7
 74
     0
 49
-6.349999999999997
 74
     0
 49
0.0
 74
     0
 49
-6.349999999999997
 74
     0
  0
LTYPE
  5
83
330
5
100
AcDbSymbolTableRecord
100
AcDbLinetypeTableRecord
  2
BORDER2
 70
     0
  3
Border (.5x) __.__.__.__.__.__.__.__.__.__.__.
 72
    65
 73
     6
 40
22.225
 49
6.349999999999997
 74
     0
 49
-3.174999999999998
 74
     0
 49
6.349999999999997
 74
     0
 49
-3.174999999999998
 74
     0
 49
0.0
 74
     0
 49
-3.174999999999998
 74
     0
  0
LTYPE
  5
84
330
5
100
AcDbSymbolTableRecord
100
AcDbLinetypeTableRecord
  2
BORDERX2
 70
     0
  3
Border (2x) ____  ____  .  ____  ____  .  ___
 72
    65
 73
     6
 40
88.9
 49
25.4
 74
     0
 49
-12.7
 74
     0
 49
25.4
 74
     0
 49
-12.7
 74
     0
 49
0.0
 74
     0
 49
-12.7
 74
     0
  0
LTYPE
  5
85
330
5
100
AcDbSymbolTableRecord
100
AcDbLinetypeTableRecord
  2
CENTER
 70
     0
  3
Center ____ _ ____ _ ____ _ ____ _ ____ _ ____
 72
    65
 73
     4
 40
2.0
 49
1.25
 74
     0
 49
-0.25
 74
     0
 49
0.25
 74
     0
 49
-0.25
 74
     0
  0
LTYPE
  5
86
330
5
100
AcDbSymbolTableRecord
100
AcDbLinetypeTableRecord
  2
CENTER2
 70
     0
  3
Center (.5x) ___ _ ___ _ ___ _ ___ _ ___ _ ___
 72
    65
 73
     4
 40
28.575
 49
19.05
 74
     0
 49
-3.174999999999998
 74
     0
 49
3.174999999999998
 74
     0
 49
-3.174999999999998
 74
     0
  0
LTYPE
  5
87
330
5
100
AcDbSymbolTableRecord
100
AcDbLinetypeTableRecord
  2
CENTERX2
 70
     0
  3
Center (2x) ________  __  ________  __  _____
 72
    65
 73
     4
 40
101.6
 49
63.5
 74
     0
 49
-12.7
 74
     0
 49
12.7
 74
     0
 49
-12.7
 74
     0
  0
LTYPE
  5
88
330
5
100
AcDbSymbolTableRecord
100
AcDbLinetypeTableRecord
  2
DASHDOT
 70
     0
  3
Dash dot __ . __ . __ . __ . __ . __ . __ . __
 72
    65
 73
     4
 40
25.4
 49
12.7
 74
     0
 49
-6.349999999999997
 74
     0
 49
0.0
 74
     0
 49
-6.349999999999997
 74
     0
  0
LTYPE
  5
89
330
5
100
AcDbSymbolTableRecord
100
AcDbLinetypeTableRecord
  2
DASHDOT2
 70
     0
  3
Dash dot (.5x) _._._._._._._._._._._._._._._.
 72
    65
 73
     4
 40
12.7
 49
6.349999999999997
 74
     0
 49
-3.174999999999998
 74
     0
 49
0.0
 74
     0
 49
-3.174999999999998
 74
     0
  0
LTYPE
  5
8A
330
5
100
AcDbSymbolTableRecord
100
AcDbLinetypeTableRecord
  2
DASHDOTX2
 70
     0
  3
Dash dot (2x) ____  .  ____  .  ____  .  ___
 72
    65
 73
     4
 40
50.8
 49
25.4
 74
     0
 49
-12.7
 74
     0
 49
0.0
 74
     0
 49
-12.7
 74
     0
  0
LTYPE
  5
8B
330
5
100
AcDbSymbolTableRecord
100
AcDbLinetypeTableRecord
  2
DASHED2
 70
     0
  3
Dashed (.5x) _ _ _ _ _ _ _ _ _ _ _ _ _ _ _ _ _
 72
    65
 73
     2
 40
9.524999999999996
 49
6.349999999999997
 74
     0
 49
-3.174999999999998
 74
     0
  0
LTYPE
  5
8C
330
5
100
AcDbSymbolTableRecord
100
AcDbLinetypeTableRecord
  2
DASHEDX2
 70
     0
  3
Dashed (2x) ____  ____  ____  ____  ____  ___
 72
    65
 73
     2
 40
38.1
 49
25.4
 74
     0
 49
-12.7
 74
     0
  0
LTYPE
  5
8D
330
5
100
AcDbSymbolTableRecord
100
AcDbLinetypeTableRecord
  2
DIVIDE
 70
     0
  3
Divide ____ . . ____ . . ____ . . ____ . . ____
 72
    65
 73
     6
 40
31.75
 49
12.7
 74
     0
 49
-6.349999999999997
 74
     0
 49
0.0
 74
     0
 49
-6.349999999999997
 74
     0
 49
0.0
 74
     0
 49
-6.349999999999997
 74
     0
  0
LTYPE
  5
8E
330
5
100
AcDbSymbolTableRecord
100
AcDbLinetypeTableRecord
  2
DIVIDE2
 70
     0
  3
Divide (.5x) __..__..__..__..__..__..__..__.._
 72
    65
 73
     6
 40
15.875
 49
6.349999999999997
 74
     0
 49
-3.174999999999998
 74
     0
 49
0.0
 74
     0
 49
-3.174999999999998
 74
     0
 49
0.0
 74
     0
 49
-3.174999999999998
 74
     0
  0
LTYPE
  5
8F
330
5
100
AcDbSymbolTableRecord
100
AcDbLinetypeTableRecord
  2
DIVIDEX2
 70
     0
  3
Divide (2x) ________  .  .  ________  .  .  _
 72
    65
 73
     6
 40
63.49999999999999
 49
25.4
 74
     0
 49
-12.7
 74
     0
 49
0.0
 74
     0
 49
-12.7
 74
     0
 49
0.0
 74
     0
 49
-12.7
 74
     0
  0
LTYPE
  5
90
330
5
100
AcDbSymbolTableRecord
100
AcDbLinetypeTableRecord
  2
DOT2
 70
     0
  3
Dot (.5x) .....................................
 72
    65
 73
     2
 40
3.174999999999998
 49
0.0
 74
     0
 49
-3.174999999999998
 74
     0
  0
LTYPE
  5
91
330
5
100
AcDbSymbolTableRecord
100
AcDbLinetypeTableRecord
  2
DOTX2
 70
     0
  3
Dot (2x) .  .  .  .  .  .  .  .  .  .  .  .  . 
 72
    65
 73
     2
 40
12.7
 49
0.0
 74
     0
 49
-12.7
 74
     0
  0
LTYPE
  5
92
330
5
100
AcDbSymbolTableRecord
100
AcDbLinetypeTableRecord
  2
HIDDEN
 70
     0
  3
Hidden __ __ __ __ __ __ __ __ __ __ __ __ __ _
 72
    65
 73
     2
 40
9.524999999999996
 49
6.349999999999997
 74
     0
 49
-3.174999999999998
 74
     0
  0
LTYPE
  5
93
330
5
100
AcDbSymbolTableRecord
100
AcDbLinetypeTableRecord
  2
HIDDEN2
 70
     0
  3
Hidden (.5x) _ _ _ _ _ _ _ _ _ _ _ _ _ _ _ _ _
 72
    65
 73
     2
 40
4.762499999999998
 49
3.174999999999998
 74
     0
 49
-1.587499999999999
 74
     0
  0
LTYPE
  5
94
330
5
100
AcDbSymbolTableRecord
100
AcDbLinetypeTableRecord
  2
HIDDENX2
 70
     0
  3
Hidden (2x) ____ ____ ____ ____ ____ ____ ____
 72
    65
 73
     2
 40
19.05
 49
12.7
 74
     0
 49
-6.349999999999997
 74
     0
  0
LTYPE
  5
95
330
5
100
AcDbSymbolTableRecord
100
AcDbLinetypeTableRecord
  2
PHANTOM
 70
     0
  3
Phantom ______  __  __  ______  __  __  ______
 72
    65
 73
     6
 40
63.5
 49
31.75
 74
     0
 49
-6.349999999999997
 74
     0
 49
6.349999999999997
 74
     0
 49
-6.349999999999997
 74
     0
 49
6.349999999999997
 74
     0
 49
-6.349999999999997
 74
     0
  0
LTYPE
  5
96
330
5
100
AcDbSymbolTableRecord
100
AcDbLinetypeTableRecord
  2
PHANTOM2
 70
     0
  3
Phantom (.5x) ___ _ _ ___ _ _ ___ _ _ ___ _ _
 72
    65
 73
     6
 40
1.25
 49
0.625
 74
     0
 49
-0.125
 74
     0
 49
0.125
 74
     0
 49
-0.125
 74
     0
 49
0.125
 74
     0
 49
-0.125
 74
     0
  0
LTYPE
  5
97
330
5
100
AcDbSymbolTableRecord
100
AcDbLinetypeTableRecord
  2
PHANTOMX2
 70
     0
  3
Phantom (2x) ____________    ____    ____   _
 72
    65
 73
     6
 40
127.0
 49
63.5
 74
     0
 49
-12.7
 74
     0
 49
12.7
 74
     0
 49
-12.7
 74
     0
 49
12.7
 74
     0
 49
-12.7
 74
     0
  0
LTYPE
  5
98
330
5
100
AcDbSymbolTableRecord
100
AcDbLinetypeTableRecord
  2
ACAD_ISO02W100
 70
     0
  3
ISO dash __ __ __ __ __ __ __ __ __ __ __ __ __
 72
    65
 73
     2
 40
15.0
 49
12.0
 74
     0
 49
-3.0
 74
     0
  0
LTYPE
  5
99
330
5
100
AcDbSymbolTableRecord
100
AcDbLinetypeTableRecord
  2
ACAD_ISO03W100
 70
     0
  3
ISO dash space __    __    __    __    __    __
 72
    65
 73
     2
 40
30.0
 49
12.0
 74
     0
 49
-18.0
 74
     0
  0
LTYPE
  5
9A
330
5
100
AcDbSymbolTableRecord
100
AcDbLinetypeTableRecord
  2
ACAD_ISO04W100
 70
     0
  3
ISO long-dash dot ____ . ____ . ____ . ____ . _
 72
    65
 73
     4
 40
30.0
 49
24.0
 74
     0
 49
-3.0
 74
     0
 49
0.0
 74
     0
 49
-3.0
 74
     0
  0
LTYPE
  5
9B
330
5
100
AcDbSymbolTableRecord
100
AcDbLinetypeTableRecord
  2
ACAD_ISO05W100
 70
     0
  3
ISO long-dash double-dot ____ .. ____ .. ____ .
 72
    65
 73
     6
 40
33.0
 49
24.0
 74
     0
 49
-3.0
 74
     0
 49
0.0
 74
     0
 49
-3.0
 74
     0
 49
0.0
 74
     0
 49
-3.0
 74
     0
  0
LTYPE
  5
9C
330
5
100
AcDbSymbolTableRecord
100
AcDbLinetypeTableRecord
  2
ACAD_ISO06W100
 70
     0
  3
ISO long-dash triple-dot ____ ... ____ ... ____
 72
    65
 73
     8
 40
36.0
 49
24.0
 74
     0
 49
-3.0
 74
     0
 49
0.0
 74
     0
 49
-3.0
 74
     0
 49
0.0
 74
     0
 49
-3.0
 74
     0
 49
0.0
 74
     0
 49
-3.0
 74
     0
  0
LTYPE
  5
9D
330
5
100
AcDbSymbolTableRecord
100
AcDbLinetypeTableRecord
  2
ACAD_ISO07W100
 70
     0
  3
ISO dot . . . . . . . . . . . . . . . . . . . .
 72
    65
 73
     2
 40
3.0
 49
0.0
 74
     0
 49
-3.0
 74
     0
  0
LTYPE
  5
9E
330
5
100
AcDbSymbolTableRecord
100
AcDbLinetypeTableRecord
  2
ACAD_ISO08W100
 70
     0
  3
ISO long-dash short-dash ____ __ ____ __ ____ _
 72
    65
 73
     4
 40
36.0
 49
24.0
 74
     0
 49
-3.0
 74
     0
 49
6.0
 74
     0
 49
-3.0
 74
     0
  0
LTYPE
  5
9F
330
5
100
AcDbSymbolTableRecord
100
AcDbLinetypeTableRecord
  2
ACAD_ISO09W100
 70
     0
  3
ISO long-dash double-short-dash ____ __ __ ____
 72
    65
 73
     6
 40
45.0
 49
24.0
 74
     0
 49
-3.0
 74
     0
 49
6.0
 74
     0
 49
-3.0
 74
     0
 49
6.0
 74
     0
 49
-3.0
 74
     0
  0
LTYPE
  5
A0
330
5
100
AcDbSymbolTableRecord
100
AcDbLinetypeTableRecord
  2
ACAD_ISO10W100
 70
     0
  3
ISO dash dot __ . __ . __ . __ . __ . __ . __ .
 72
    65
 73
     4
 40
18.0
 49
12.0
 74
     0
 49
-3.0
 74
     0
 49
0.0
 74
     0
 49
-3.0
 74
     0
  0
LTYPE
  5
A1
330
5
100
AcDbSymbolTableRecord
100
AcDbLinetypeTableRecord
  2
ACAD_ISO11W100
 70
     0
  3
ISO double-dash dot __ __ . __ __ . __ __ . __ 
 72
    65
 73
     6
 40
33.0
 49
12.0
 74
     0
 49
-3.0
 74
     0
 49
12.0
 74
     0
 49
-3.0
 74
     0
 49
0.0
 74
     0
 49
-3.0
 74
     0
  0
LTYPE
  5
A2
330
5
100
AcDbSymbolTableRecord
100
AcDbLinetypeTableRecord
  2
ACAD_ISO12W100
 70
     0
  3
ISO dash double-dot __ . . __ . . __ . . __ . .
 72
    65
 73
     6
 40
21.0
 49
12.0
 74
     0
 49
-3.0
 74
     0
 49
0.0
 74
     0
 49
-3.0
 74
     0
 49
0.0
 74
     0
 49
-3.0
 74
     0
  0
LTYPE
  5
A3
330
5
100
AcDbSymbolTableRecord
100
AcDbLinetypeTableRecord
  2
ACAD_ISO13W100
 70
     0
  3
ISO double-dash double-dot __ __ . . __ __ . . 
 72
    65
 73
     8
 40
36.0
 49
12.0
 74
     0
 49
-3.0
 74
     0
 49
12.0
 74
     0
 49
-3.0
 74
     0
 49
0.0
 74
     0
 49
-3.0
 74
     0
 49
0.0
 74
     0
 49
-3.0
 74
     0
  0
LTYPE
  5
A4
330
5
100
AcDbSymbolTableRecord
100
AcDbLinetypeTableRecord
  2
ACAD_ISO14W100
 70
     0
  3
ISO dash triple-dot __ . . . __ . . . __ . . . 
 72
    65
 73
     8
 40
24.0
 49
12.0
 74
     0
 49
-3.0
 74
     0
 49
0.0
 74
     0
 49
-3.0
 74
     0
 49
0.0
 74
     0
 49
-3.0
 74
     0
 49
0.0
 74
     0
 49
-3.0
 74
     0
  0
LTYPE
  5
A5
330
5
100
AcDbSymbolTableRecord
100
AcDbLinetypeTableRecord
  2
ACAD_ISO15W100
 70
     0
  3
ISO double-dash triple-dot __ __ . . . __ __ . 
 72
    65
 73
    10
 40
39.0
 49
12.0
 74
     0
 49
-3.0
 74
     0
 49
12.0
 74
     0
 49
-3.0
 74
     0
 49
0.0
 74
     0
 49
-3.0
 74
     0
 49
0.0
 74
     0
 49
-3.0
 74
     0
 49
0.0
 74
     0
 49
-3.0
 74
     0
  0
LTYPE
  5
A8
330
5
100
AcDbSymbolTableRecord
100
AcDbLinetypeTableRecord
  2
FENCELINE1
 70
     0
  3
Fenceline circle ----0-----0----0-----0----0---
 72
    65
 73
     4
 40
36.83
 49
6.349999999999997
 74
     0
 49
-2.54
 74
     4
 75
   133
340
A7
 46
2.54
 50
0.0
 44
-2.54
 45
0.0
 49
-2.54
 74
     0
 49
25.4
 74
     0
  0
LTYPE
  5
A9
330
5
100
AcDbSymbolTableRecord
100
AcDbLinetypeTableRecord
  2
FENCELINE2
 70
     0
  3
Fenceline square ----[]-----[]----[]-----[]----
 72
    65
 73
     4
 40
36.83
 49
6.349999999999997
 74
     0
 49
-2.54
 74
     4
 75
   132
340
A7
 46
2.54
 50
0.0
 44
-2.54
 45
0.0
 49
-2.54
 74
     0
 49
25.4
 74
     0
  0
LTYPE
  5
AA
330
5
100
AcDbSymbolTableRecord
100
AcDbLinetypeTableRecord
  2
TRACKS
 70
     0
  3
Tracks -|-|-|-|-|-|-|-|-|-|-|-|-|-|-|-|-|-|-|-|
 72
    65
 73
     2
 40
7.62
 49
3.81
 74
     4
 75
   130
340
A7
 46
6.349999999999997
 50
0.0
 44
0.0
 45
0.0
 49
3.81
 74
     0
  0
LTYPE
  5
AB
330
5
100
AcDbSymbolTableRecord
100
AcDbLinetypeTableRecord
  2
BATTING
 70
     0
  3
Batting SSSSSSSSSSSSSSSSSSSSSSSSSSSSSSSSSSSSSSS
 72
    65
 73
     4
 40
10.16254
 49
0.00254
 74
     0
 49
-2.54
 74
     4
 75
   134
340
A7
 46
2.54
 50
0.0
 44
-2.54
 45
0.0
 49
-5.08
 74
     4
 75
   134
340
A7
 46
2.54
 50
180.0
 44
2.54
 45
0.0
 49
-2.54
 74
     0
  0
LTYPE
  5
AC
330
5
100
AcDbSymbolTableRecord
100
AcDbLinetypeTableRecord
  2
HOT_WATER_SUPPLY
 70
     0
  3
Hot water supply ---- HW ---- HW ---- HW ----
 72
    65
 73
     3
 40
22.86
 49
12.7
 74
     0
 49
-5.08
 74
     2
 75
     0
340
55
 46
2.54
 50
0.0
 44
-2.54
 45
-1.27
  9
HW
 49
-5.08
 74
     0
  0
LTYPE
  5
AD
330
5
100
AcDbSymbolTableRecord
100
AcDbLinetypeTableRecord
  2
GAS_LINE
 70
     0
  3
Gas line ----GAS----GAS----GAS----GAS----GAS---
 72
    65
 73
     3
 40
24.13
 49
12.7
 74
     0
 49
-5.08
 74
     2
 75
     0
340
55
 46
2.54
 50
0.0
 44
-2.54
 45
-1.27
  9
GAS
 49
-6.349999999999997
 74
     0
  0
LTYPE
  5
AE
330
5
100
AcDbSymbolTableRecord
100
AcDbLinetypeTableRecord
  2
ZIGZAG
 70
     0
  3
Zig zag /\/\/\/\/\/\/\/\/\/\/\/\/\/\/\/\/\/\/\/
 72
    65
 73
     4
 40
20.32254
 49
0.00254
 74
     0
 49
-5.08
 74
     4
 75
   131
340
A7
 46
5.08
 50
0.0
 44
-5.08
 45
0.0
 49
-10.16
 74
     4
 75
   131
340
A7
 46
5.08
 50
180.0
 44
5.08
 45
0.0
 49
-5.08
 74
     0
  0
LTYPE
  5
648
330
5
100
AcDbSymbolTableRecord
100
AcDbLinetypeTableRecord
  2
AM_ISO02W050
 70
     0
  3
__ __ __ __ __ __ __ __ __ __ __ __ __ __ __
 72
    65
 73
     2
 40
7.5
 49
6.0
 74
     0
 49
-1.5
 74
     0
  0
LTYPE
  5
649
330
5
100
AcDbSymbolTableRecord
100
AcDbLinetypeTableRecord
  2
AM_ISO08W050
 70
     0
  3
____ . ____ . ____ . ____ . ____ . ____ . ____
 72
    65
 73
     4
 40
18.0
 49
12.0
 74
     0
 49
-1.5
 74
     0
 49
3.0
 74
     0
 49
-1.5
 74
     0
  0
LTYPE
  5
64A
330
5
100
AcDbSymbolTableRecord
100
AcDbLinetypeTableRecord
  2
AM_ISO09W050
 70
     0
  3
_____ . . _____ . . _____ . . ____ .. ____
 72
    65
 73
     6
 40
22.5
 49
12.0
 74
     0
 49
-1.5
 74
     0
 49
3.0
 74
     0
 49
-1.5
 74
     0
 49
3.0
 74
     0
 49
-1.5
 74
     0
  0
LTYPE
  5
64B
330
5
100
AcDbSymbolTableRecord
100
AcDbLinetypeTableRecord
  2
Amconstr
 70
     0
  3
_______________________
 72
    65
 73
     2
 40
9999.0
 49
9999.0
 74
     0
 49
0.0
 74
     0
  0
LTYPE
  5
64C
330
5
100
AcDbSymbolTableRecord
100
AcDbLinetypeTableRecord
  2
AM_ISO08W050x2
 70
     0
  3
__ . __ . __ . __ . __ . __
 72
    65
 73
     4
 40
9.0
 49
6.0
 74
     0
 49
-0.75
 74
     0
 49
1.5
 74
     0
 49
-0.75
 74
     0
  0
LTYPE
  5
64D
330
5
100
AcDbSymbolTableRecord
100
AcDbLinetypeTableRecord
  2
AM_ISO02W050x2
 70
     0
  3
 _ _ _ _ _ _ _ _ _ _ _ _
 72
    65
 73
     2
 40
3.75
 49
3.0
 74
     0
 49
-0.75
 74
     0
  0
LTYPE
  5
64E
330
5
100
AcDbSymbolTableRecord
100
AcDbLinetypeTableRecord
  2
Amzigzag
 70
     0
  3
/\/-/\/-/\/-/\/-/\/-/\/
 72
    65
 73
     2
 40
11.0001
 49
0.0001
 74
     4
 75
   135
340
A7
 46
0.04
 50
0.0
 44
0.0
 45
0.0
 49
-11.0
 74
     0
  0
LTYPE
  5
68D
330
5
100
AcDbSymbolTableRecord
100
AcDbLinetypeTableRecord
  2
ACANSTGB
 70
     0
  3
__ . . __ . .
 72
    65
 73
     6
 40
0.35433070866
 49
0.15748031496
 74
     0
 49
-0.03937007874
 74
     0
 49
0.03937007874
 74
     0
 49
-0.03937007874
 74
     0
 49
0.03937007874
 74
     0
 49
-0.03937007874
 74
     0
  0
LTYPE
  5
68E
330
5
100
AcDbSymbolTableRecord
100
AcDbLinetypeTableRecord
  2
ACANSTGL
 70
     0
  3
_ _ _ _ _
 72
    65
 73
     2
 40
0.11811023622
 49
0.07874015748
 74
     0
 49
-0.03937007874
 74
     0
  0
LTYPE
  5
6B6
330
5
100
AcDbSymbolTableRecord
100
AcDbLinetypeTableRecord
  2
ACJISTGB
 70
     0
  3
__ . . __ . .
 72
    65
 73
     6
 40
9.0
 49
4.0
 74
     0
 49
-1.0
 74
     0
 49
1.0
 74
     0
 49
-1.0
 74
     0
 49
1.0
 74
     0
 49
-1.0
 74
     0
  0
LTYPE
  5
6B7
330
5
100
AcDbSymbolTableRecord
100
AcDbLinetypeTableRecord
  2
ACJISTGL
 70
     0
  3
_ _ _ _ _
 72
    65
 73
     2
 40
3.0
 49
2.0
 74
     0
 49
-1.0
 74
     0
  0
ENDTAB
  0
TABLE
  2
LAYER
  5
2
330
0
100
AcDbSymbolTable
 70
     4
  0
LAYER
  5
54
330
2
100
AcDbSymbolTableRecord
100
AcDbLayerTableRecord
  2
0
 70
     0
 62
     7
  6
Continuous
370
    25
390
F
  0
LAYER
  5
BF
330
2
100
AcDbSymbolTableRecord
100
AcDbLayerTableRecord
  2
Overlay (ISO)
 70
     0
 62
     7
  6
LONG_DASH_DOTTED
370
    18
390
F
  0
LAYER
  5
C6
330
2
100
AcDbSymbolTableRecord
100
AcDbLayerTableRecord
  2
Visible (ISO)
 70
     0
 62
     7
  6
Continuous
370
    35
390
F
  0
LAYER
  5
C7
330
2
100
AcDbSymbolTableRecord
100
AcDbLayerTableRecord
  2
Visible Narrow (ISO)
 70
     0
 62
     7
  6
Continuous
370
    35
390
F
  0
ENDTAB
  0
TABLE
  2
STYLE
  5
3
330
0
100
AcDbSymbolTable
 70
     7
  0
STYLE
  5
55
330
3
100
AcDbSymbolTableRecord
100
AcDbTextStyleTableRecord
  2
Standard
 70
     0
 40
0.0
 41
1.0
 50
0.0
 71
     0
 42
0.2
  3

  4

1001
ACAD
1000
MS PGothic
1071
      256
  0
STYLE
  5
5A
330
3
100
AcDbSymbolTableRecord
100
AcDbTextStyleTableRecord
  2
Annotative
 70
     0
 40
0.0
 41
1.0
 50
0.0
 71
     0
 42
0.2
  3
txt
  4

1001
AcadAnnotative
1000
AnnotativeData
1002
{
1070
     1
1070
     1
1002
}
  0
STYLE
  5
A7
330
3
100
AcDbSymbolTableRecord
100
AcDbTextStyleTableRecord
  2

 70
     1
 40
0.0
 41
1.0
 50
0.0
 71
     0
 42
0.2
  3
ltypeshp.shx
  4

  0
STYLE
  5
686
330
3
100
AcDbSymbolTableRecord
100
AcDbTextStyleTableRecord
  2
ACANSTS
 70
     0
 40
1.0
 41
1.0
 50
0.0
 71
     0
 42
0.2
  3
romans.shx
  4

  0
STYLE
  5
689
330
3
100
AcDbSymbolTableRecord
100
AcDbTextStyleTableRecord
  2
ACANSGDT
 70
     0
 40
0.0
 41
1.0
 50
0.0
 71
     0
 42
0.2
  3
amgdtans.shx
  4

  0
STYLE
  5
6AF
330
3
100
AcDbSymbolTableRecord
100
AcDbTextStyleTableRecord
  2
ACJISTS
 70
     0
 40
1.0
 41
1.0
 50
0.0
 71
     0
 42
0.2
  3
isocp.shx
  4
extfont.shx
  0
STYLE
  5
6B2
330
3
100
AcDbSymbolTableRecord
100
AcDbTextStyleTableRecord
  2
ACJISGDT
 70
     0
 40
0.0
 41
1.0
 50
0.0
 71
     0
 42
0.2
  3
amgdt.shx
  4

  0
ENDTAB
  0
TABLE
  2
VIEW
  5
6
330
0
100
AcDbSymbolTable
 70
     0
  0
ENDTAB
  0
TABLE
  2
UCS
  5
7
330
0
100
AcDbSymbolTable
 70
     0
  0
ENDTAB
  0
TABLE
  2
APPID
  5
9
330
0
100
AcDbSymbolTable
 70
    17
  0
APPID
  5
56
330
9
100
AcDbSymbolTableRecord
100
AcDbRegAppTableRecord
  2
ACAD
 70
     0
  0
APPID
  5
5E
330
9
100
AcDbSymbolTableRecord
100
AcDbRegAppTableRecord
  2
AcadAnnotative
 70
     0
  0
APPID
  5
633
330
9
100
AcDbSymbolTableRecord
100
AcDbRegAppTableRecord
  2
ACAD_MLEADERVER
 70
     0
  0
APPID
  5
63C
330
9
100
AcDbSymbolTableRecord
100
AcDbRegAppTableRecord
  2
MCAD_NO_VIS
 70
     0
  0
APPID
  5
63D
330
9
100
AcDbSymbolTableRecord
100
AcDbRegAppTableRecord
  2
ACAD_TEMP_GRAPHIC
 70
     0
  0
APPID
  5
63E
330
9
100
AcDbSymbolTableRecord
100
AcDbRegAppTableRecord
  2
ACATTRIBSERVICES
 70
     0
  0
APPID
  5
63F
330
9
100
AcDbSymbolTableRecord
100
AcDbRegAppTableRecord
  2
AD_DRAW
 70
     0
  0
APPID
  5
640
330
9
100
AcDbSymbolTableRecord
100
AcDbRegAppTableRecord
  2
DESIGNERASSEMBLIES
 70
     0
  0
APPID
  5
641
330
9
100
AcDbSymbolTableRecord
100
AcDbRegAppTableRecord
  2
ACADM_DIM_EDIT
 70
     0
  0
APPID
  5
642
330
9
100
AcDbSymbolTableRecord
100
AcDbRegAppTableRecord
  2
AMDT_DM_ADJ
 70
     0
  0
APPID
  5
643
330
9
100
AcDbSymbolTableRecord
100
AcDbRegAppTableRecord
  2
ACAD_DSTYLE_DIMJAG
 70
     0
  0
APPID
  5
644
330
9
100
AcDbSymbolTableRecord
100
AcDbRegAppTableRecord
  2
ACAD_DSTYLE_DIMBREAK
 70
     0
  0
APPID
  5
6FA
330
9
100
AcDbSymbolTableRecord
100
AcDbRegAppTableRecord
  2
ACAD_EXEMPT_FROM_CAD_STANDARDS
 70
     0
  0
APPID
  5
732
330
9
100
AcDbSymbolTableRecord
100
AcDbRegAppTableRecord
  2
ACAD_DSTYLE_DIMARC_LENGTH_SYMBOL
 70
     0
  0
APPID
  5
733
330
9
100
AcDbSymbolTableRecord
100
AcDbRegAppTableRecord
  2
ACAD_DSTYLE_DIM_LINETYPE
 70
     0
  0
APPID
  5
734
330
9
100
AcDbSymbolTableRecord
100
AcDbRegAppTableRecord
  2
ACAD_DSTYLE_DIM_EXT1_LINETYPE
 70
     0
  0
APPID
  5
735
330
9
100
AcDbSymbolTableRecord
100
AcDbRegAppTableRecord
  2
ACAD_DSTYLE_DIM_EXT2_LINETYPE
 70
     0
  0
ENDTAB
  0
TABLE
  2
DIMSTYLE
  5
A
330
0
100
AcDbSymbolTable
 70
    16
100
AcDbDimStyleTable
 71
     0
  0
DIMSTYLE
105
58
330
A
100
AcDbSymbolTableRecord
100
AcDbDimStyleTableRecord
  2
Standard
 70
     0
340
55
  0
DIMSTYLE
105
59
330
A
100
AcDbSymbolTableRecord
100
AcDbDimStyleTableRecord
  2
Annotative
 70
     0
340
55
1001
AcadAnnotative
1000
AnnotativeData
1002
{
1070
     1
1070
     1
1002
}
  0
DIMSTYLE
105
69F
330
A
100
AcDbSymbolTableRecord
100
AcDbDimStyleTableRecord
  2
AM_ANSI
 70
     0
  4
mm
 40
0.5
 41
0.1
 42
0.05
 43
0.5
 44
0.1
 47
0.1
 48
0.1
 78
     7
 79
     2
140
0.12
141
0.0
146
0.71
147
0.06
176
   256
177
   256
178
     2
274
     4
284
     7
340
55
371
    -1
372
    -1
  0
DIMSTYLE
105
6A0
330
A
100
AcDbSymbolTableRecord
100
AcDbDimStyleTableRecord
  2
AM_ANSI$3
 70
     0
  4
mm
 40
0.5
 41
0.1
 42
0.05
 43
0.5
 44
0.1
 47
0.1
 48
0.1
 78
     7
 79
     2
140
0.12
141
0.0
146
0.71
147
0.06
176
   256
177
   256
178
     2
274
     4
284
     7
288
     1
289
     0
340
55
371
    -1
372
    -1
  0
DIMSTYLE
105
6A1
330
A
100
AcDbSymbolTableRecord
100
AcDbDimStyleTableRecord
  2
AM_ANSI$4
 70
     0
  4
mm
 40
0.5
 41
0.1
 42
0.05
 43
0.5
 44
0.1
 47
0.1
 48
0.1
 78
     7
 79
     2
140
0.12
141
0.0
146
0.71
147
0.06
176
   256
177
   256
178
     2
274
     4
284
     7
288
     1
289
     0
340
55
371
    -1
372
    -1
  0
DIMSTYLE
105
6A2
330
A
100
AcDbSymbolTableRecord
100
AcDbDimStyleTableRecord
  2
AM_ANSI$7
 70
     0
  4
mm
 40
0.5
 41
0.1
 42
0.05
 43
0.5
 44
0.1
 47
0.1
 48
0.1
 78
     7
 79
     2
140
0.24
141
0.0
146
0.71
147
0.06
176
   256
177
   256
178
     2
274
     4
284
     7
340
55
371
    -1
372
    -1
  0
DIMSTYLE
105
6A3
330
A
100
AcDbSymbolTableRecord
100
AcDbDimStyleTableRecord
  2
AM_ANSI$SF
 70
     0
  4
mm
 40
0.5
 41
0.1
 42
0.05
 43
0.5
 44
0.1
 47
0.1
 48
0.1
 75
     1
 76
     1
 78
     7
 79
     2
140
0.12
141
0.0
146
0.71
147
0.06
176
   256
177
   256
178
     2
274
     4
284
     7
340
55
371
    -1
372
    -1
  0
DIMSTYLE
105
6A4
330
A
100
AcDbSymbolTableRecord
100
AcDbDimStyleTableRecord
  2
AM_ANSI$SH
 70
     0
  4
mm
 40
0.5
 41
0.1
 42
0.05
 43
0.5
 44
0.1
 47
0.1
 48
0.1
 75
     1
 76
     1
 78
     7
 79
     2
140
0.12
141
0.0
146
0.71
147
0.06
173
     1
176
   256
177
   256
178
     2
274
     4
284
     7
340
55
343
6A5
371
    -1
372
    -1
  0
DIMSTYLE
105
6C8
330
A
100
AcDbSymbolTableRecord
100
AcDbDimStyleTableRecord
  2
AM_JIS
 70
     0
  4
"
 40
0.5
 41
2.5
 42
1.0
 43
10.0
 44
1.0
 47
0.1
 48
0.1
 73
     0
 74
     0
 77
     3
 78
     8
 79
     2
140
3.5
141
0.0
143
0.0393701
146
0.71
147
1.5
172
     1
176
   256
177
   256
178
     2
271
     2
272
     3
274
     4
283
     0
284
     8
340
55
341
6C9
342
6C9
343
6C9
344
6C9
371
    -1
372
    -1
1001
ACAD_DSTYLE_DIMJAG
1070
   388
1040
1.5
1001
ACAD_DSTYLE_DIMBREAK
1070
   391
1040
3.75
1001
ACAD_DSTYLE_DIMARC_LENGTH_SYMBOL
1070
   379
1070
     1
1001
ACAD_DSTYLE_DIM_LINETYPE
1070
   380
1005
5B
1001
ACAD_DSTYLE_DIM_EXT1_LINETYPE
1070
   381
1005
5B
1001
ACAD_DSTYLE_DIM_EXT2_LINETYPE
1070
   382
1005
5B
  0
DIMSTYLE
105
6CF
330
A
100
AcDbSymbolTableRecord
100
AcDbDimStyleTableRecord
  2
AM_JIS$3
 70
     0
  4
"
 40
0.5
 41
2.5
 42
1.0
 43
10.0
 44
1.0
 47
0.1
 48
0.1
 73
     0
 77
     3
 78
     8
 79
     2
140
3.5
141
0.0
143
0.0393701
146
0.71
147
1.5
172
     1
176
   256
177
   256
178
     2
271
     2
272
     3
274
     4
283
     0
284
     8
288
     1
289
     0
340
55
341
6C9
342
6C9
343
6C9
344
6C9
371
    -1
372
    -1
1001
ACAD_DSTYLE_DIMBREAK
1070
   391
1040
3.75
1001
ACAD_DSTYLE_DIMJAG
1070
   388
1040
1.5
1001
ACAD_DSTYLE_DIMARC_LENGTH_SYMBOL
1070
   379
1070
     1
1001
ACAD_DSTYLE_DIM_LINETYPE
1070
   380
1005
5B
1001
ACAD_DSTYLE_DIM_EXT1_LINETYPE
1070
   381
1005
5B
1001
ACAD_DSTYLE_DIM_EXT2_LINETYPE
1070
   382
1005
5B
  0
DIMSTYLE
105
6D0
330
A
100
AcDbSymbolTableRecord
100
AcDbDimStyleTableRecord
  2
AM_JIS$4
 70
     0
  4
"
 40
0.5
 41
2.5
 42
1.0
 43
10.0
 44
1.0
 47
0.1
 48
0.1
 73
     0
 74
     0
 77
     3
 78
     8
 79
     2
140
3.5
141
0.0
143
0.0393701
146
0.71
147
1.5
172
     1
176
   256
177
   256
178
     2
271
     2
272
     3
274
     4
283
     0
284
     8
340
55
341
6C9
342
6C9
343
6C9
344
6C9
371
    -1
372
    -1
1001
ACAD_DSTYLE_DIMBREAK
1070
   391
1040
3.75
1001
ACAD_DSTYLE_DIMJAG
1070
   388
1040
1.5
1001
ACAD_DSTYLE_DIMARC_LENGTH_SYMBOL
1070
   379
1070
     1
1001
ACAD_DSTYLE_DIM_LINETYPE
1070
   380
1005
5B
1001
ACAD_DSTYLE_DIM_EXT1_LINETYPE
1070
   381
1005
5B
1001
ACAD_DSTYLE_DIM_EXT2_LINETYPE
1070
   382
1005
5B
  0
DIMSTYLE
105
6D1
330
A
100
AcDbSymbolTableRecord
100
AcDbDimStyleTableRecord
  2
AM_JIS$6
 70
     0
  4
"
 40
0.5
 41
2.5
 42
1.0
 43
10.0
 44
1.0
 47
0.1
 48
0.1
 73
     0
 74
     0
 78
     8
 79
     2
140
3.5
141
0.0
143
0.0393701
146
0.71
147
1.5
172
     1
176
   256
177
   256
178
     2
271
     2
272
     3
274
     4
283
     0
284
     8
340
55
341
6C9
342
6C9
343
6C9
344
6C9
371
    -1
372
    -1
1001
ACAD_DSTYLE_DIMBREAK
1070
   391
1040
3.75
1001
ACAD_DSTYLE_DIMJAG
1070
   388
1040
1.5
1001
ACAD_DSTYLE_DIMARC_LENGTH_SYMBOL
1070
   379
1070
     1
1001
ACAD_DSTYLE_DIM_LINETYPE
1070
   380
1005
5B
1001
ACAD_DSTYLE_DIM_EXT1_LINETYPE
1070
   381
1005
5B
1001
ACAD_DSTYLE_DIM_EXT2_LINETYPE
1070
   382
1005
5B
  0
DIMSTYLE
105
6D2
330
A
100
AcDbSymbolTableRecord
100
AcDbDimStyleTableRecord
  2
AM_JIS$7
 70
     0
  4
"
 40
0.5
 41
2.5
 42
1.0
 43
10.0
 44
1.0
 47
0.1
 48
0.1
 73
     0
 74
     0
 77
     3
 78
     8
 79
     2
140
3.5
141
0.0
143
0.0393701
146
0.71
147
1.5
172
     1
176
   256
177
   256
178
     2
271
     2
272
     3
274
     4
283
     0
284
     8
340
55
341
6C9
342
6C9
343
6C9
344
6C9
371
    -1
372
    -1
1001
ACAD_DSTYLE_DIMBREAK
1070
   391
1040
3.75
1001
ACAD_DSTYLE_DIMJAG
1070
   388
1040
1.5
1001
ACAD_DSTYLE_DIMARC_LENGTH_SYMBOL
1070
   379
1070
     1
1001
ACAD_DSTYLE_DIM_LINETYPE
1070
   380
1005
5B
1001
ACAD_DSTYLE_DIM_EXT1_LINETYPE
1070
   381
1005
5B
1001
ACAD_DSTYLE_DIM_EXT2_LINETYPE
1070
   382
1005
5B
  0
DIMSTYLE
105
6D3
330
A
100
AcDbSymbolTableRecord
100
AcDbDimStyleTableRecord
  2
AM_JIS$SF
 70
     0
  4
"
 40
0.5
 41
2.5
 42
1.0
 43
10.0
 44
1.0
 47
0.1
 48
0.1
 73
     0
 74
     0
 75
     1
 76
     1
 77
     3
 78
     8
 79
     2
140
3.5
141
0.0
143
0.0393701
146
0.71
147
1.5
172
     1
176
   256
177
   256
178
     2
271
     2
272
     3
274
     4
283
     0
284
     8
340
55
341
6C9
342
6C9
343
6C9
344
6C9
371
    -1
372
    -1
1001
ACAD_DSTYLE_DIMBREAK
1070
   391
1040
3.75
1001
ACAD_DSTYLE_DIMJAG
1070
   388
1040
1.5
1001
ACAD_DSTYLE_DIMARC_LENGTH_SYMBOL
1070
   379
1070
     1
1001
ACAD_DSTYLE_DIM_LINETYPE
1070
   380
1005
5B
1001
ACAD_DSTYLE_DIM_EXT1_LINETYPE
1070
   381
1005
5B
1001
ACAD_DSTYLE_DIM_EXT2_LINETYPE
1070
   382
1005
5B
  0
DIMSTYLE
105
6D4
330
A
100
AcDbSymbolTableRecord
100
AcDbDimStyleTableRecord
  2
AM_JIS$SH
 70
     0
  4
"
 40
0.5
 41
2.5
 42
1.0
 43
10.0
 44
1.0
 47
0.1
 48
0.1
 73
     0
 74
     0
 75
     1
 76
     1
 77
     3
 78
     8
 79
     2
140
3.5
141
0.0
143
0.0393701
144
2.0
146
0.71
147
1.5
172
     1
173
     1
176
   256
177
   256
178
     2
271
     2
272
     3
274
     4
283
     0
284
     8
340
55
341
6C9
342
6C9
343
6A5
344
6C9
371
    -1
372
    -1
1001
ACAD_DSTYLE_DIMBREAK
1070
   391
1040
3.75
1001
ACAD_DSTYLE_DIMJAG
1070
   388
1040
1.5
1001
ACAD_DSTYLE_DIMARC_LENGTH_SYMBOL
1070
   379
1070
     1
1001
ACAD_DSTYLE_DIM_LINETYPE
1070
   380
1005
5B
1001
ACAD_DSTYLE_DIM_EXT1_LINETYPE
1070
   381
1005
5B
1001
ACAD_DSTYLE_DIM_EXT2_LINETYPE
1070
   382
1005
5B
  0
ENDTAB
  0
TABLE
  2
BLOCK_RECORD
  5
1
330
0
100
AcDbSymbolTable
 70
     5
  0
BLOCK_RECORD
  5
6C
330
1
100
AcDbSymbolTableRecord
100
AcDbBlockTableRecord
  2
*Model_Space
340
6F
  0
BLOCK_RECORD
  5
68
330
1
100
AcDbSymbolTableRecord
100
AcDbBlockTableRecord
  2
*Paper_Space
340
6B
  0
BLOCK_RECORD
  5
70
330
1
100
AcDbSymbolTableRecord
100
AcDbBlockTableRecord
  2
*Paper_Space0
340
73
  0
BLOCK_RECORD
  5
6A5
330
1
100
AcDbSymbolTableRecord
100
AcDbBlockTableRecord
  2
GENAXEH
340
0
  0
BLOCK_RECORD
  5
6C9
330
1
100
AcDbSymbolTableRecord
100
AcDbBlockTableRecord
  2
_Open30
340
0
  0
ENDTAB
  0
ENDSEC
  0
SECTION
  2
BLOCKS
  0
BLOCK
  5
6D
330
6C
100
AcDbEntity
  8
0
100
AcDbBlockBegin
  2
*Model_Space
 70
     0
 10
0.0
 20
0.0
 30
0.0
  3
*Model_Space
  1

  0
ENDBLK
  5
6E
330
6C
100
AcDbEntity
  8
0
100
AcDbBlockEnd
  0
BLOCK
  5
69
330
68
100
AcDbEntity
 67
     1
  8
0
100
AcDbBlockBegin
  2
*Paper_Space
 70
     0
 10
0.0
 20
0.0
 30
0.0
  3
*Paper_Space
  1

  0
ENDBLK
  5
6A
330
68
100
AcDbEntity
 67
     1
  8
0
100
AcDbBlockEnd
  0
BLOCK
  5
71
330
70
100
AcDbEntity
 67
     1
  8
0
100
AcDbBlockBegin
  2
*Paper_Space0
 70
     0
 10
0.0
 20
0.0
 30
0.0
  3
*Paper_Space0
  1

  0
ENDBLK
  5
72
330
70
100
AcDbEntity
 67
     1
  8
0
100
AcDbBlockEnd
  0
BLOCK
  5
79B
330
6A5
100
AcDbEntity
  8
0
100
AcDbBlockBegin
  2
GENAXEH
 70
     0
 10
0.0
 20
0.0
 30
0.0
  3
GENAXEH
  1

  0
LINE
  5
79C
330
6A5
100
AcDbEntity
  8
0
100
AcDbLine
 10
-1.0
 20
0.0
 30
0.0
 11
1.0
 21
0.0
 31
0.0
  0
ENDBLK
  5
79D
330
6A5
100
AcDbEntity
  8
0
100
AcDbBlockEnd
  0
BLOCK
  5
7BF
330
6C9
100
AcDbEntity
  8
0
100
AcDbBlockBegin
  2
_Open30
 70
     0
 10
0.0
 20
0.0
 30
0.0
  3
_Open30
  1

  0
LINE
  5
7C0
330
6C9
100
AcDbEntity
  8
0
  6
ByBlock
 62
     0
370
    -2
100
AcDbLine
 10
-1.0
 20
0.26794919
 30
0.0
 11
0.0
 21
0.0
 31
0.0
  0
LINE
  5
7C1
330
6C9
100
AcDbEntity
  8
0
  6
ByBlock
 62
     0
370
    -2
100
AcDbLine
 10
0.0
 20
0.0
 30
0.0
 11
-1.0
 21
-0.26794919
 31
0.0
  0
LINE
  5
7C2
330
6C9
100
AcDbEntity
  8
0
  6
ByBlock
 62
     0
370
    -2
100
AcDbLine
 10
0.0
 20
0.0
 30
0.0
 11
-1.0
 21
0.0
 31
0.0
  0
ENDBLK
  5
7C3
330
6C9
100
AcDbEntity
  8
0
100
AcDbBlockEnd
  0
ENDSEC
  0
SECTION
  2
ENTITIES
  0
LINE
  5
CC
330
6C
100
AcDbEntity
  8
Visible (ISO)
100
AcDbLine
 10
136.1006778105059
 20
37.33747892908759
 30
0.0
 11
136.1006778105059
 21
53.83747892908758
 31
0.0
  0
LINE
  5
CD
330
6C
100
AcDbEntity
  8
Visible (ISO)
100
AcDbLine
 10
136.6006778105059
 20
53.3374789290876
 30
0.0
 11
136.6006778105059
 21
37.8374789290876
 31
0.0
  0
LINE
  5
CE
330
6C
100
AcDbEntity
  8
Visible (ISO)
100
AcDbLine
 10
136.6006778105059
 20
37.8374789290876
 30
0.0
 11
136.1006778105059
 21
37.33747892908759
 31
0.0
  0
LINE
  5
CF
330
6C
100
AcDbEntity
  8
Visible (ISO)
100
AcDbLine
 10
136.6006778105059
 20
53.3374789290876
 30
0.0
 11
136.1006778105059
 21
53.83747892908758
 31
0.0
  0
SPLINE
  5
D0
330
6C
100
AcDbEntity
  8
Visible (ISO)
100
AcDbSpline
210
0.0
220
0.0
230
1.0
 70
    12
 71
     2
 72
     6
 73
     3
 74
     0
 42
0.0000000001
 43
0.0000000001
 40
0.4256073096284686
 40
0.4256073096284686
 40
0.4256073096284686
 40
0.8365524254088846
 40
0.8365524254088846
 40
0.8365524254088846
 10
123.1676651086137
 20
41.93884904925596
 30
0.0
 41
1.045691116018826
 10
123.6006778105059
 20
43.84024771902736
 30
0.0
 41
1.044904085362813
 10
123.6006778105059
 20
45.58747892908757
 30
0.0
 41
1.0
  0
LINE
  5
D1
330
6C
100
AcDbEntity
  8
Visible (ISO)
100
AcDbLine
 10
123.1676651086137
 20
41.93884904925596
 30
0.0
 11
123.1676651086137
 21
40.05057793683564
 31
0.0
  0
LINE
  5
D2
330
6C
100
AcDbEntity
  8
Visible (ISO)
100
AcDbLine
 10
123.6006778105059
 20
38.22626299691986
 30
0.0
 11
123.6006778105059
 21
45.58747892908757
 31
0.0
  0
LINE
  5
D3
330
6C
100
AcDbEntity
  8
Visible (ISO)
100
AcDbLine
 10
123.1676651086137
 20
51.1243799213395
 30
0.0
 11
123.1676651086137
 21
49.23610880891921
 31
0.0
  0
SPLINE
  5
D4
330
6C
100
AcDbEntity
  8
Visible (ISO)
100
AcDbSpline
210
0.0
220
0.0
230
1.0
 70
    12
 71
     2
 72
     6
 73
     3
 74
     0
 42
0.0000000001
 43
0.0000000001
 40
0.8365524254088846
 40
0.8365524254088846
 40
0.8365524254088846
 40
1.2474975411893
 40
1.2474975411893
 40
1.2474975411893
 10
123.6006778105059
 20
45.58747892908757
 30
0.0
 41
1.0
 10
123.6006778105059
 20
47.33471013914779
 30
0.0
 41
1.044904085362809
 10
123.1676651086137
 20
49.23610880891921
 30
0.0
 41
1.045691116018822
  0
LINE
  5
D5
330
6C
100
AcDbEntity
  8
Visible (ISO)
100
AcDbLine
 10
123.6006778105059
 20
45.58747892908757
 30
0.0
 11
123.6006778105059
 21
52.94869486125531
 31
0.0
  0
LINE
  5
D6
330
6C
100
AcDbEntity
  8
Visible (ISO)
100
AcDbLine
 10
123.6006778105059
 20
52.94869486125531
 30
0.0
 11
123.6006778105059
 21
54.08747892908758
 31
0.0
  0
LINE
  5
D7
330
6C
100
AcDbEntity
  8
Visible (ISO)
100
AcDbLine
 10
123.6006778105059
 20
37.0874789290876
 30
0.0
 11
123.6006778105059
 21
38.22626299691986
 31
0.0
  0
LINE
  5
D8
330
6C
100
AcDbEntity
  8
Visible (ISO)
100
AcDbLine
 10
123.6006778105059
 20
54.08747892908758
 30
0.0
 11
123.1676651086137
 21
54.83747892908759
 31
0.0
  0
LINE
  5
D9
330
6C
100
AcDbEntity
  8
Visible (ISO)
100
AcDbLine
 10
123.6006778105059
 20
37.0874789290876
 30
0.0
 11
123.1676651086137
 21
36.3374789290876
 31
0.0
  0
SPLINE
  5
DA
330
6C
100
AcDbEntity
  8
Visible (ISO)
100
AcDbSpline
210
0.0
220
0.0
230
1.0
 70
    12
 71
     2
 72
     6
 73
     3
 74
     0
 42
0.0000000001
 43
0.0000000001
 40
0.8365524254088846
 40
0.8365524254088846
 40
0.8365524254088846
 40
1.2474975411893
 40
1.2474975411893
 40
1.2474975411893
 10
123.6006778105059
 20
38.22626299691986
 30
0.0
 41
1.0
 10
123.6006778105059
 20
39.09987860194997
 30
0.0
 41
1.044904085362819
 10
123.1676651086137
 20
40.05057793683568
 30
0.0
 41
1.045691116018833
  0
SPLINE
  5
DB
330
6C
100
AcDbEntity
  8
Visible (ISO)
100
AcDbSpline
210
0.0
220
0.0
230
1.0
 70
    12
 71
     2
 72
     6
 73
     3
 74
     0
 42
0.0000000001
 43
0.0000000001
 40
0.4256073096284686
 40
0.4256073096284686
 40
0.4256073096284686
 40
0.8365524254088844
 40
0.8365524254088844
 40
0.8365524254088844
 10
123.1676651086137
 20
51.12437992133951
 30
0.0
 41
1.045691116018839
 10
123.6006778105059
 20
52.07507925622517
 30
0.0
 41
1.044904085362823
 10
123.6006778105059
 20
52.94869486125531
 30
0.0
 41
1.0
  0
LINE
  5
DC
330
6C
100
AcDbEntity
  8
Visible (ISO)
100
AcDbLine
 10
123.1676651086137
 20
54.83747892908759
 30
0.0
 11
123.1676651086137
 21
54.77300980117113
 31
0.0
  0
SPLINE
  5
DD
330
6C
100
AcDbEntity
  8
Visible (ISO)
100
AcDbSpline
210
0.0
220
0.0
230
1.0
 70
    12
 71
     2
 72
     6
 73
     3
 74
     0
 42
0.0000000001
 43
0.0000000001
 40
0.8365524254088844
 40
0.8365524254088844
 40
0.8365524254088844
 40
1.2474975411893
 40
1.2474975411893
 40
1.2474975411893
 10
123.6006778105059
 20
52.94869486125531
 30
0.0
 41
1.0
 10
123.6006778105059
 20
53.82231046628543
 30
0.0
 41
1.044904085362819
 10
123.1676651086137
 20
54.77300980117113
 30
0.0
 41
1.045691116018834
  0
SPLINE
  5
DE
330
6C
100
AcDbEntity
  8
Visible (ISO)
100
AcDbSpline
210
0.0
220
0.0
230
1.0
 70
    12
 71
     2
 72
     6
 73
     3
 74
     0
 42
0.0000000001
 43
0.0000000001
 40
0.4256073096284692
 40
0.4256073096284692
 40
0.4256073096284692
 40
0.8365524254088846
 40
0.8365524254088846
 40
0.8365524254088846
 10
123.1676651086137
 20
36.40194805700405
 30
0.0
 41
1.045691116018834
 10
123.6006778105059
 20
37.35264739188975
 30
0.0
 41
1.044904085362819
 10
123.6006778105059
 20
38.22626299691986
 30
0.0
 41
1.0
  0
LINE
  5
DF
330
6C
100
AcDbEntity
  8
Visible (ISO)
100
AcDbLine
 10
123.1676651086137
 20
36.40194805700405
 30
0.0
 11
123.1676651086137
 21
36.3374789290876
 31
0.0
  0
LINE
  5
E0
330
6C
100
AcDbEntity
  8
Visible (ISO)
100
AcDbLine
 10
118.5336905123981
 20
36.40194805700405
 30
0.0
 11
123.1676651086137
 21
36.40194805700405
 31
0.0
  0
LINE
  5
E1
330
6C
100
AcDbEntity
  8
Visible (ISO)
100
AcDbLine
 10
118.5336905123981
 20
36.3374789290876
 30
0.0
 11
118.5336905123981
 21
36.40194805700405
 31
0.0
  0
LINE
  5
E2
330
6C
100
AcDbEntity
  8
Visible (ISO)
100
AcDbLine
 10
123.1676651086137
 20
40.05057793683568
 30
0.0
 11
118.5336905123981
 21
40.05057793683568
 31
0.0
  0
SPLINE
  5
E3
330
6C
100
AcDbEntity
  8
Visible (ISO)
100
AcDbSpline
210
0.0
220
0.0
230
1.0
 70
    12
 71
     2
 72
     6
 73
     3
 74
     0
 42
0.0000000001
 43
0.0000000001
 40
0.3847937513989837
 40
0.3847937513989837
 40
0.3847937513989837
 40
0.7911618380462638
 40
0.7911618380462638
 40
0.7911618380462638
 10
118.5336905123981
 20
40.05057793683568
 30
0.0
 41
1.041774167103256
 10
118.1006778105059
 20
39.09987860194997
 30
0.0
 41
1.042945248861377
 10
118.1006778105059
 20
38.22626299691986
 30
0.0
 41
1.0
  0
SPLINE
  5
E4
330
6C
100
AcDbEntity
  8
Visible (ISO)
100
AcDbSpline
210
0.0
220
0.0
230
1.0
 70
    12
 71
     2
 72
     6
 73
     3
 74
     0
 42
0.0000000001
 43
0.0000000001
 40
0.7911618380462638
 40
0.7911618380462638
 40
0.7911618380462638
 40
1.197529924693542
 40
1.197529924693542
 40
1.197529924693542
 10
118.1006778105059
 20
38.22626299691986
 30
0.0
 41
1.0
 10
118.1006778105059
 20
37.35264739188976
 30
0.0
 41
1.04294524886138
 10
118.5336905123981
 20
36.40194805700405
 30
0.0
 41
1.041774167103257
  0
LINE
  5
E5
330
6C
100
AcDbEntity
  8
Visible (ISO)
100
AcDbLine
 10
118.5336905123981
 20
40.8374789290876
 30
0.0
 11
118.1006778105059
 21
41.58747892908757
 31
0.0
  0
LINE
  5
E6
330
6C
100
AcDbEntity
  8
Visible (ISO)
100
AcDbLine
 10
118.5336905123981
 20
40.05057793683564
 30
0.0
 11
118.5336905123981
 21
40.8374789290876
 31
0.0
  0
LINE
  5
E7
330
6C
100
AcDbEntity
  8
Visible (ISO)
100
AcDbLine
 10
118.5336905123981
 20
51.12437992133951
 30
0.0
 11
123.1676651086137
 21
51.12437992133951
 31
0.0
  0
LINE
  5
E8
330
6C
100
AcDbEntity
  8
Visible (ISO)
100
AcDbLine
 10
118.5336905123981
 20
50.33747892908758
 30
0.0
 11
118.5336905123981
 21
51.1243799213395
 31
0.0
  0
LINE
  5
E9
330
6C
100
AcDbEntity
  8
Visible (ISO)
100
AcDbLine
 10
118.1006778105059
 20
49.5874789290876
 30
0.0
 11
118.5336905123981
 21
50.33747892908758
 31
0.0
  0
LINE
  5
EA
330
6C
100
AcDbEntity
  8
Visible (ISO)
100
AcDbLine
 10
123.1676651086137
 20
54.77300980117113
 30
0.0
 11
118.5336905123981
 21
54.77300980117113
 31
0.0
  0
SPLINE
  5
EB
330
6C
100
AcDbEntity
  8
Visible (ISO)
100
AcDbSpline
210
0.0
220
0.0
230
1.0
 70
    12
 71
     2
 72
     6
 73
     3
 74
     0
 42
0.0000000001
 43
0.0000000001
 40
0.3847937513989835
 40
0.3847937513989835
 40
0.3847937513989835
 40
0.7911618380462635
 40
0.7911618380462635
 40
0.7911618380462635
 10
118.5336905123981
 20
54.77300980117113
 30
0.0
 41
1.041774167103255
 10
118.1006778105059
 20
53.82231046628541
 30
0.0
 41
1.042945248861377
 10
118.1006778105059
 20
52.94869486125531
 30
0.0
 41
1.0
  0
SPLINE
  5
EC
330
6C
100
AcDbEntity
  8
Visible (ISO)
100
AcDbSpline
210
0.0
220
0.0
230
1.0
 70
    12
 71
     2
 72
     6
 73
     3
 74
     0
 42
0.0000000001
 43
0.0000000001
 40
0.7911618380462635
 40
0.7911618380462635
 40
0.7911618380462635
 40
1.197529924693542
 40
1.197529924693542
 40
1.197529924693542
 10
118.1006778105059
 20
52.94869486125531
 30
0.0
 41
1.0
 10
118.1006778105059
 20
52.07507925622522
 30
0.0
 41
1.042945248861377
 10
118.5336905123981
 20
51.12437992133951
 30
0.0
 41
1.041774167103256
  0
LINE
  5
ED
330
6C
100
AcDbEntity
  8
Visible (ISO)
100
AcDbLine
 10
118.5336905123981
 20
54.77300980117113
 30
0.0
 11
118.5336905123981
 21
54.83747892908759
 31
0.0
  0
LINE
  5
EE
330
6C
100
AcDbEntity
  8
Visible (ISO)
100
AcDbLine
 10
118.1006778105059
 20
49.5874789290876
 30
0.0
 11
118.1006778105059
 21
52.94869486125531
 31
0.0
  0
LINE
  5
EF
330
6C
100
AcDbEntity
  8
Visible (ISO)
100
AcDbLine
 10
118.1006778105059
 20
52.94869486125531
 30
0.0
 11
118.1006778105059
 21
54.08747892908758
 31
0.0
  0
LINE
  5
F0
330
6C
100
AcDbEntity
  8
Visible (ISO)
100
AcDbLine
 10
118.1006778105059
 20
38.22626299691986
 30
0.0
 11
118.1006778105059
 21
41.58747892908759
 31
0.0
  0
LINE
  5
F1
330
6C
100
AcDbEntity
  8
Visible (ISO)
100
AcDbLine
 10
118.1006778105059
 20
37.0874789290876
 30
0.0
 11
118.1006778105059
 21
38.22626299691986
 31
0.0
  0
LINE
  5
F2
330
6C
100
AcDbEntity
  8
Visible (ISO)
100
AcDbLine
 10
118.5336905123981
 20
36.3374789290876
 30
0.0
 11
123.1676651086137
 21
36.3374789290876
 31
0.0
  0
LINE
  5
F3
330
6C
100
AcDbEntity
  8
Visible (ISO)
100
AcDbLine
 10
118.5336905123981
 20
54.83747892908759
 30
0.0
 11
123.1676651086137
 21
54.83747892908759
 31
0.0
  0
LINE
  5
F4
330
6C
100
AcDbEntity
  8
Visible (ISO)
100
AcDbLine
 10
118.1006778105059
 20
54.08747892908758
 30
0.0
 11
118.5336905123981
 21
54.83747892908759
 31
0.0
  0
LINE
  5
F5
330
6C
100
AcDbEntity
  8
Visible (ISO)
100
AcDbLine
 10
118.1006778105059
 20
37.0874789290876
 30
0.0
 11
118.5336905123981
 21
36.3374789290876
 31
0.0
  0
LINE
  5
F6
330
6C
100
AcDbEntity
  8
Visible (ISO)
100
AcDbLine
 10
101.0336905123981
 20
41.93884904925596
 30
0.0
 11
123.1676651086137
 21
41.93884904925596
 31
0.0
  0
LINE
  5
F7
330
6C
100
AcDbEntity
  8
Visible (ISO)
100
AcDbLine
 10
101.0336905123981
 20
40.05057793683564
 30
0.0
 11
101.0336905123981
 21
41.93884904925596
 31
0.0
  0
LINE
  5
F8
330
6C
100
AcDbEntity
  8
Visible (ISO)
100
AcDbLine
 10
105.6676651086137
 20
40.05057793683568
 30
0.0
 11
101.0336905123981
 21
40.05057793683568
 31
0.0
  0
LINE
  5
F9
330
6C
100
AcDbEntity
  8
Visible (ISO)
100
AcDbLine
 10
123.1676651086137
 20
49.23610880891921
 30
0.0
 11
101.0336905123981
 21
49.23610880891921
 31
0.0
  0
LINE
  5
FA
330
6C
100
AcDbEntity
  8
Visible (ISO)
100
AcDbLine
 10
101.0336905123981
 20
51.12437992133951
 30
0.0
 11
105.6676651086137
 21
51.12437992133951
 31
0.0
  0
LINE
  5
FB
330
6C
100
AcDbEntity
  8
Visible (ISO)
100
AcDbLine
 10
101.0336905123981
 20
49.23610880891921
 30
0.0
 11
101.0336905123981
 21
51.12437992133951
 31
0.0
  0
LINE
  5
FC
330
6C
100
AcDbEntity
  8
Visible (ISO)
100
AcDbLine
 10
101.0336905123981
 20
36.3374789290876
 30
0.0
 11
101.0336905123981
 21
36.40194805700405
 31
0.0
  0
LINE
  5
FD
330
6C
100
AcDbEntity
  8
Visible (ISO)
100
AcDbLine
 10
101.0336905123981
 20
54.77300980117113
 30
0.0
 11
101.0336905123981
 21
54.83747892908759
 31
0.0
  0
LINE
  5
FE
330
6C
100
AcDbEntity
  8
Visible (ISO)
100
AcDbLine
 10
105.6676651086137
 20
54.77300980117113
 30
0.0
 11
101.0336905123981
 21
54.77300980117113
 31
0.0
  0
LINE
  5
FF
330
6C
100
AcDbEntity
  8
Visible (ISO)
100
AcDbLine
 10
101.0336905123981
 20
36.40194805700405
 30
0.0
 11
105.6676651086137
 21
36.40194805700405
 31
0.0
  0
LINE
  5
100
330
6C
100
AcDbEntity
  8
Visible (ISO)
100
AcDbLine
 10
101.0336905123981
 20
54.83747892908759
 30
0.0
 11
105.6676651086137
 21
54.83747892908759
 31
0.0
  0
LINE
  5
101
330
6C
100
AcDbEntity
  8
Visible (ISO)
100
AcDbLine
 10
101.0336905123981
 20
36.3374789290876
 30
0.0
 11
105.6676651086137
 21
36.3374789290876
 31
0.0
  0
LINE
  5
102
330
6C
100
AcDbEntity
  8
Visible (ISO)
100
AcDbLine
 10
105.6676651086137
 20
40.83747892908757
 30
0.0
 11
105.6676651086137
 21
40.05057793683568
 31
0.0
  0
LINE
  5
103
330
6C
100
AcDbEntity
  8
Visible (ISO)
100
AcDbLine
 10
106.1006778105059
 20
41.58747892908757
 30
0.0
 11
105.6676651086137
 21
40.83747892908757
 31
0.0
  0
LINE
  5
104
330
6C
100
AcDbEntity
  8
Visible (ISO)
100
AcDbLine
 10
105.6676651086137
 20
50.33747892908758
 30
0.0
 11
106.1006778105059
 21
49.5874789290876
 31
0.0
  0
LINE
  5
105
330
6C
100
AcDbEntity
  8
Visible (ISO)
100
AcDbLine
 10
105.6676651086137
 20
51.12437992133951
 30
0.0
 11
105.6676651086137
 21
50.3374789290876
 31
0.0
  0
LINE
  5
106
330
6C
100
AcDbEntity
  8
Visible (ISO)
100
AcDbLine
 10
105.6676651086137
 20
54.83747892908759
 30
0.0
 11
105.6676651086137
 21
54.77300980117113
 31
0.0
  0
SPLINE
  5
107
330
6C
100
AcDbEntity
  8
Visible (ISO)
100
AcDbSpline
210
0.0
220
0.0
230
1.0
 70
    12
 71
     2
 72
     6
 73
     3
 74
     0
 42
0.0000000001
 43
0.0000000001
 40
0.3847937513989829
 40
0.3847937513989829
 40
0.3847937513989829
 40
0.7911618380462635
 40
0.7911618380462635
 40
0.7911618380462635
 10
105.6676651086137
 20
51.12437992133951
 30
0.0
 41
1.041774167103256
 10
106.1006778105059
 20
52.07507925622522
 30
0.0
 41
1.042945248861377
 10
106.1006778105059
 20
52.94869486125531
 30
0.0
 41
1.0
  0
SPLINE
  5
108
330
6C
100
AcDbEntity
  8
Visible (ISO)
100
AcDbSpline
210
0.0
220
0.0
230
1.0
 70
    12
 71
     2
 72
     6
 73
     3
 74
     0
 42
0.0000000001
 43
0.0000000001
 40
0.7911618380462635
 40
0.7911618380462635
 40
0.7911618380462635
 40
1.197529924693542
 40
1.197529924693542
 40
1.197529924693542
 10
106.1006778105059
 20
52.94869486125531
 30
0.0
 41
1.0
 10
106.1006778105059
 20
53.82231046628541
 30
0.0
 41
1.042945248861377
 10
105.6676651086137
 20
54.77300980117113
 30
0.0
 41
1.041774167103254
  0
LINE
  5
109
330
6C
100
AcDbEntity
  8
Visible (ISO)
100
AcDbLine
 10
106.1006778105059
 20
52.94869486125531
 30
0.0
 11
106.1006778105059
 21
54.08747892908758
 31
0.0
  0
LINE
  5
10A
330
6C
100
AcDbEntity
  8
Visible (ISO)
100
AcDbLine
 10
106.1006778105059
 20
49.5874789290876
 30
0.0
 11
106.1006778105059
 21
52.94869486125531
 31
0.0
  0
SPLINE
  5
10B
330
6C
100
AcDbEntity
  8
Visible (ISO)
100
AcDbSpline
210
0.0
220
0.0
230
1.0
 70
    12
 71
     2
 72
     6
 73
     3
 74
     0
 42
0.0000000001
 43
0.0000000001
 40
0.7911618380462631
 40
0.7911618380462631
 40
0.7911618380462631
 40
1.197529924693542
 40
1.197529924693542
 40
1.197529924693542
 10
106.1006778105059
 20
38.22626299691986
 30
0.0
 41
1.0
 10
106.1006778105059
 20
39.09987860194997
 30
0.0
 41
1.042945248861377
 10
105.6676651086137
 20
40.05057793683568
 30
0.0
 41
1.041774167103256
  0
LINE
  5
10C
330
6C
100
AcDbEntity
  8
Visible (ISO)
100
AcDbLine
 10
106.1006778105059
 20
38.22626299691986
 30
0.0
 11
106.1006778105059
 21
41.58747892908759
 31
0.0
  0
SPLINE
  5
10D
330
6C
100
AcDbEntity
  8
Visible (ISO)
100
AcDbSpline
210
0.0
220
0.0
230
1.0
 70
    12
 71
     2
 72
     6
 73
     3
 74
     0
 42
0.0000000001
 43
0.0000000001
 40
0.384793751398983
 40
0.384793751398983
 40
0.384793751398983
 40
0.7911618380462631
 40
0.7911618380462631
 40
0.7911618380462631
 10
105.6676651086137
 20
36.40194805700405
 30
0.0
 41
1.041774167103257
 10
106.1006778105059
 20
37.35264739188976
 30
0.0
 41
1.04294524886138
 10
106.1006778105059
 20
38.22626299691986
 30
0.0
 41
1.0
  0
LINE
  5
10E
330
6C
100
AcDbEntity
  8
Visible (ISO)
100
AcDbLine
 10
105.6676651086137
 20
36.40194805700405
 30
0.0
 11
105.6676651086137
 21
36.3374789290876
 31
0.0
  0
LINE
  5
10F
330
6C
100
AcDbEntity
  8
Visible (ISO)
100
AcDbLine
 10
106.1006778105059
 20
37.0874789290876
 30
0.0
 11
106.1006778105059
 21
38.22626299691986
 31
0.0
  0
LINE
  5
110
330
6C
100
AcDbEntity
  8
Visible (ISO)
100
AcDbLine
 10
106.1006778105059
 20
54.08747892908758
 30
0.0
 11
105.6676651086137
 21
54.83747892908759
 31
0.0
  0
LINE
  5
111
330
6C
100
AcDbEntity
  8
Visible (ISO)
100
AcDbLine
 10
106.1006778105059
 20
37.0874789290876
 30
0.0
 11
105.6676651086137
 21
36.3374789290876
 31
0.0
  0
LINE
  5
112
330
6C
100
AcDbEntity
  8
Visible (ISO)
100
AcDbLine
 10
118.1006778105059
 20
41.58747892908757
 30
0.0
 11
106.1006778105059
 21
41.58747892908757
 31
0.0
  0
LINE
  5
113
330
6C
100
AcDbEntity
  8
Visible (ISO)
100
AcDbLine
 10
106.1006778105059
 20
49.5874789290876
 30
0.0
 11
118.1006778105059
 21
49.5874789290876
 31
0.0
  0
SPLINE
  5
114
330
6C
100
AcDbEntity
  8
Visible (ISO)
100
AcDbSpline
210
0.0
220
0.0
230
1.0
 70
    12
 71
     2
 72
     6
 73
     3
 74
     0
 42
0.0000000001
 43
0.0000000001
 40
0.4226777092670462
 40
0.4226777092670462
 40
0.4226777092670462
 40
0.8332926396892185
 40
0.8332926396892185
 40
0.8332926396892185
 10
101.0336905123981
 20
49.23610880891921
 30
0.0
 41
1.045413293158438
 10
100.6006778105059
 20
47.33471013914781
 30
0.0
 41
1.044765269262242
 10
100.6006778105059
 20
45.58747892908757
 30
0.0
 41
1.0
  0
SPLINE
  5
115
330
6C
100
AcDbEntity
  8
Visible (ISO)
100
AcDbSpline
210
0.0
220
0.0
230
1.0
 70
    12
 71
     2
 72
     6
 73
     3
 74
     0
 42
0.0000000001
 43
0.0000000001
 40
0.8332926396892185
 40
0.8332926396892185
 40
0.8332926396892185
 40
1.243907570111389
 40
1.243907570111389
 40
1.243907570111389
 10
100.6006778105059
 20
45.58747892908757
 30
0.0
 41
1.0
 10
100.6006778105059
 20
43.84024771902736
 30
0.0
 41
1.044765269262244
 10
101.0336905123981
 20
41.93884904925596
 30
0.0
 41
1.045413293158438
  0
SPLINE
  5
116
330
6C
100
AcDbEntity
  8
Visible (ISO)
100
AcDbSpline
210
0.0
220
0.0
230
1.0
 70
    12
 71
     2
 72
     6
 73
     3
 74
     0
 42
0.0000000001
 43
0.0000000001
 40
0.4226777092670475
 40
0.4226777092670475
 40
0.4226777092670475
 40
0.8332926396892188
 40
0.8332926396892188
 40
0.8332926396892188
 10
101.0336905123981
 20
40.05057793683568
 30
0.0
 41
1.045413293158431
 10
100.6006778105059
 20
39.09987860194997
 30
0.0
 41
1.044765269262237
 10
100.6006778105059
 20
38.22626299691986
 30
0.0
 41
1.0
  0
LINE
  5
117
330
6C
100
AcDbEntity
  8
Visible (ISO)
100
AcDbLine
 10
100.6006778105059
 20
45.58747892908757
 30
0.0
 11
100.6006778105059
 21
38.22626299691986
 31
0.0
  0
SPLINE
  5
118
330
6C
100
AcDbEntity
  8
Visible (ISO)
100
AcDbSpline
210
0.0
220
0.0
230
1.0
 70
    12
 71
     2
 72
     6
 73
     3
 74
     0
 42
0.0000000001
 43
0.0000000001
 40
0.8332926396892188
 40
0.8332926396892188
 40
0.8332926396892188
 40
1.243907570111389
 40
1.243907570111389
 40
1.243907570111389
 10
100.6006778105059
 20
38.22626299691986
 30
0.0
 41
1.0
 10
100.6006778105059
 20
37.35264739188976
 30
0.0
 41
1.044765269262234
 10
101.0336905123981
 20
36.40194805700405
 30
0.0
 41
1.045413293158427
  0
LINE
  5
119
330
6C
100
AcDbEntity
  8
Visible (ISO)
100
AcDbLine
 10
100.6006778105059
 20
38.22626299691986
 30
0.0
 11
100.6006778105059
 21
37.0874789290876
 31
0.0
  0
LINE
  5
11A
330
6C
100
AcDbEntity
  8
Visible (ISO)
100
AcDbLine
 10
100.6006778105059
 20
54.08747892908758
 30
0.0
 11
100.6006778105059
 21
52.94869486125531
 31
0.0
  0
SPLINE
  5
11B
330
6C
100
AcDbEntity
  8
Visible (ISO)
100
AcDbSpline
210
0.0
220
0.0
230
1.0
 70
    12
 71
     2
 72
     6
 73
     3
 74
     0
 42
0.0000000001
 43
0.0000000001
 40
0.4226777092670467
 40
0.4226777092670467
 40
0.4226777092670467
 40
0.8332926396892183
 40
0.8332926396892183
 40
0.8332926396892183
 10
101.0336905123981
 20
54.77300980117113
 30
0.0
 41
1.045413293158434
 10
100.6006778105059
 20
53.82231046628541
 30
0.0
 41
1.044765269262239
 10
100.6006778105059
 20
52.94869486125531
 30
0.0
 41
1.0
  0
SPLINE
  5
11C
330
6C
100
AcDbEntity
  8
Visible (ISO)
100
AcDbSpline
210
0.0
220
0.0
230
1.0
 70
    12
 71
     2
 72
     6
 73
     3
 74
     0
 42
0.0000000001
 43
0.0000000001
 40
0.8332926396892183
 40
0.8332926396892183
 40
0.8332926396892183
 40
1.243907570111389
 40
1.243907570111389
 40
1.243907570111389
 10
100.6006778105059
 20
52.94869486125531
 30
0.0
 41
1.0
 10
100.6006778105059
 20
52.07507925622522
 30
0.0
 41
1.044765269262239
 10
101.0336905123981
 20
51.12437992133951
 30
0.0
 41
1.045413293158434
  0
LINE
  5
11D
330
6C
100
AcDbEntity
  8
Visible (ISO)
100
AcDbLine
 10
100.6006778105059
 20
52.94869486125531
 30
0.0
 11
100.6006778105059
 21
45.58747892908757
 31
0.0
  0
LINE
  5
11E
330
6C
100
AcDbEntity
  8
Visible (ISO)
100
AcDbLine
 10
100.6006778105059
 20
37.0874789290876
 30
0.0
 11
101.0336905123981
 21
36.3374789290876
 31
0.0
  0
LINE
  5
11F
330
6C
100
AcDbEntity
  8
Visible (ISO)
100
AcDbLine
 10
100.6006778105059
 20
54.08747892908758
 30
0.0
 11
101.0336905123981
 21
54.83747892908759
 31
0.0
  0
LINE
  5
120
330
6C
100
AcDbEntity
  8
Visible (ISO)
100
AcDbLine
 10
106.9620597469919
 20
44.83801933120502
 30
0.0
 11
108.0541554588571
 21
47.89147082323522
 31
0.0
  0
ELLIPSE
  5
121
330
6C
100
AcDbEntity
  8
Visible (ISO)
100
AcDbEllipse
 10
108.5666447284162
 20
47.66400654838328
 30
0.0
 11
0.5653269642954283
 21
0.0000000000008308
 31
0.0
210
0.0
220
0.0
230
1.0
 40
0.9531667975378875
 41
0.4357918987539078
 42
2.705800754833092
  0
LINE
  5
122
330
6C
100
AcDbEntity
  8
Visible (ISO)
100
AcDbLine
 10
109.0791339979753
 20
47.89147082323533
 30
0.0
 11
110.1714842674708
 21
44.83730759928659
 31
0.0
  0
ELLIPSE
  5
123
330
6C
100
AcDbEntity
  8
Visible (ISO)
100
AcDbEllipse
 10
110.7283235326235
 20
45.01824874671004
 30
0.0
 11
-0.5883077352017581
 21
-0.0000000000000282
 31
0.0
210
0.0
220
0.0
230
1.0
 40
0.9531667975376029
 41
0.3285531705514044
 42
2.110876526947181
  0
LINE
  5
124
330
6C
100
AcDbEntity
  8
Visible (ISO)
100
AcDbLine
 10
111.0308341812142
 20
44.53730709568371
 30
0.0
 11
111.0669526030237
 21
44.5579473409649
 31
0.0
  0
LINE
  5
125
330
6C
100
AcDbEntity
  8
Visible (ISO)
100
AcDbLine
 10
111.0669526030237
 20
44.5579473409649
 30
0.0
 11
110.3764424747352
 21
43.24160468566875
 31
0.0
  0
ELLIPSE
  5
126
330
6C
100
AcDbEntity
  8
Visible (ISO)
100
AcDbEllipse
 10
110.3106676703552
 20
43.27295186549354
 30
0.0
 11
0.0735384669001882
 21
0.0000000000000271
 31
0.0
210
0.0
220
0.0
230
1.0
 40
0.9531667975395267
 41
3.962594650552751
 42
5.819537698179257
  0
ELLIPSE
  5
127
330
6C
100
AcDbEntity
  8
Visible (ISO)
100
AcDbEllipse
 10
108.5666447284162
 20
41.48781152635442
 30
0.0
 11
2.485600181227439
 21
-0.0000000000002831
 31
0.0
210
0.0
220
0.0
230
1.0
 40
0.9531667975375935
 41
0.8210019969645859
 42
2.320590656625419
  0
ELLIPSE
  5
128
330
6C
100
AcDbEntity
  8
Visible (ISO)
100
AcDbEllipse
 10
106.8226217864773
 20
43.27295186549354
 30
0.0
 11
0.0735384669002225
 21
0.0000000000000042
 31
0.0
210
0.0
220
0.0
230
1.0
 40
0.9531667975374901
 41
3.605240262590537
 42
5.462183310214954
  0
LINE
  5
129
330
6C
100
AcDbEntity
  8
Visible (ISO)
100
AcDbLine
 10
106.7568469820973
 20
43.24160468566875
 30
0.0
 11
106.0663368538087
 21
44.5579473409649
 31
0.0
  0
LINE
  5
12A
330
6C
100
AcDbEntity
  8
Visible (ISO)
100
AcDbLine
 10
106.0663368538087
 20
44.5579473409649
 30
0.0
 11
106.1110666142384
 21
44.53333205698078
 31
0.0
  0
ELLIPSE
  5
12B
330
6C
100
AcDbEntity
  8
Visible (ISO)
100
AcDbEllipse
 10
106.4052204818393
 20
45.01896047862847
 30
0.0
 11
-0.5883077352017625
 21
0.0000000000000488
 31
0.0
210
0.0
220
0.0
230
1.0
 40
0.9531667975375855
 41
1.047197551196687
 42
2.813039483038433
  0
LINE
  5
12C
330
6C
100
AcDbEntity
  8
Visible (ISO)
100
AcDbLine
 10
116.6218924093643
 20
44.87569944318417
 30
0.0
 11
116.6218924093643
 21
44.38010472952778
 31
0.0
  0
LINE
  5
12D
330
6C
100
AcDbEntity
  8
Visible (ISO)
100
AcDbLine
 10
116.6218924093643
 20
44.38010472952778
 30
0.0
 11
114.8841843693286
 21
44.38010472952778
 31
0.0
  0
ARC
  5
12E
330
6C
100
AcDbEntity
  8
Visible (ISO)
100
AcDbCircle
 10
115.6721297449483
 20
44.62790208635597
 30
0.0
 40
0.8259911894273129
100
AcDbArc
 50
197.457603123722
 51
316.5096153456693
  0
LINE
  5
12F
330
6C
100
AcDbEntity
  8
Visible (ISO)
100
AcDbLine
 10
116.2713779939107
 20
44.05942782913135
 30
0.0
 11
116.6218924093643
 21
43.70891341367772
 31
0.0
  0
ARC
  5
130
330
6C
100
AcDbEntity
  8
Visible (ISO)
100
AcDbCircle
 10
115.6721297449483
 20
44.62790208635597
 30
0.0
 40
1.321585903083698
100
AcDbArc
 50
44.05655693703279
 51
315.9434430629681
  0
LINE
  5
131
330
6C
100
AcDbEntity
  8
Visible (ISO)
100
AcDbLine
 10
116.6218924093643
 20
45.54689075903424
 30
0.0
 11
116.2713779939107
 21
45.19637634358057
 31
0.0
  0
ARC
  5
132
330
6C
100
AcDbEntity
  8
Visible (ISO)
100
AcDbCircle
 10
115.6721297449483
 20
44.62790208635597
 30
0.0
 40
0.8259911894273136
100
AcDbArc
 50
43.49038465433067
 51
162.5423968762779
  0
LINE
  5
133
330
6C
100
AcDbEntity
  8
Visible (ISO)
100
AcDbLine
 10
114.8841843693286
 20
44.87569944318417
 30
0.0
 11
116.6218924093643
 21
44.87569944318417
 31
0.0
  0
ARC
  5
134
330
6C
100
AcDbEntity
  8
Visible (ISO)
100
AcDbCircle
 10
112.9256999070662
 20
44.61837719618142
 30
0.0
 40
1.321585903083698
100
AcDbArc
 50
45.00000000000055
 51
315.0
  0
LINE
  5
135
330
6C
100
AcDbEntity
  8
Visible (ISO)
100
AcDbLine
 10
113.8602022610572
 20
45.55287955017245
 30
0.0
 11
113.5097638783105
 21
45.20244116742579
 31
0.0
  0
ARC
  5
136
330
6C
100
AcDbEntity
  8
Visible (ISO)
100
AcDbCircle
 10
112.9256999070662
 20
44.61837719618142
 30
0.0
 40
0.8259911894273129
100
AcDbArc
 50
45.0
 51
315.0
  0
LINE
  5
137
330
6C
100
AcDbEntity
  8
Visible (ISO)
100
AcDbLine
 10
113.5097638783105
 20
44.03431322493702
 30
0.0
 11
113.8602022610572
 21
43.68387484219037
 31
0.0
  0
LINE
  5
138
330
6C
100
AcDbEntity
  8
Visible (ISO)
100
AcDbLine
 10
108.4973904737752
 20
45.63481658901166
 30
0.0
 11
108.2340495834167
 21
44.93199477239445
 31
0.0
  0
ELLIPSE
  5
139
330
6C
100
AcDbEntity
  8
Visible (ISO)
100
AcDbEllipse
 10
108.5666447301695
 20
45.6112412826605
 30
0.0
 11
0.0735384669002193
 21
0.0000000000000001
 31
0.0
210
0.0
220
0.0
230
1.0
 40
0.9531667975375063
 41
0.3430239404206459
 42
2.798568713169143
  0
LINE
  5
13A
330
6C
100
AcDbEntity
  8
Visible (ISO)
100
AcDbLine
 10
108.8992398739202
 20
44.93199477214878
 30
0.0
 11
108.6358989865639
 21
45.63481658901166
 31
0.0
  0
ELLIPSE
  5
13B
330
6C
100
AcDbEntity
  8
Visible (ISO)
100
AcDbEllipse
 10
108.8299856174798
 20
44.90841946592046
 30
0.0
 11
0.0735384669002201
 21
0.0000000000000141
 31
0.0
210
0.0
220
0.0
230
1.0
 40
0.9531667975375228
 41
4.712388980384504
 42
6.626209245739198
  0
LINE
  5
13C
330
6C
100
AcDbEntity
  8
Visible (ISO)
100
AcDbLine
 10
108.3033038397651
 20
44.83832504092935
 30
0.0
 11
108.8299856174798
 21
44.83832504092935
 31
0.0
  0
ELLIPSE
  5
13D
330
6C
100
AcDbEntity
  8
Visible (ISO)
100
AcDbEllipse
 10
108.3033038397651
 20
44.90841946592046
 30
0.0
 11
-0.0735384669002224
 21
0.0000000000000012
 31
0.0
210
0.0
220
0.0
230
1.0
 40
0.9531667975374929
 41
5.940161364897996
 42
7.853981633974497
  0
SPLINE
  5
13E
330
6C
100
AcDbEntity
  8
Visible (ISO)
100
AcDbSpline
210
0.0
220
0.0
230
1.0
 70
     8
 71
     3
 72
    22
 73
    18
 74
     0
 42
0.0000000001
 43
0.0000000001
 40
0.930303521037988
 40
0.930303521037988
 40
0.9303035210404583
 40
0.9303035210404583
 40
1.161283013875379
 40
1.161283013875379
 40
1.392262506710301
 40
1.392262506710301
 40
1.62643477439561
 40
1.62643477439561
 40
1.860607042080914
 40
1.860607042080914
 40
2.094779309766223
 40
2.094779309766223
 40
2.328951577451529
 40
2.328951577451529
 40
2.559931070286451
 40
2.559931070286451
 40
2.790910563121121
 40
2.790910563121121
 40
2.790910563121374
 40
2.790910563121374
 10
118.0006778105059
 20
54.08747892908758
 30
0.0
 10
118.0006778105059
 20
54.08747892908758
 30
0.0
 10
117.8410670726545
 20
53.9743592993776
 30
0.0
 10
117.2292945222943
 20
53.56810572578772
 30
0.0
 10
116.7783817686131
 20
53.27814126671924
 30
0.0
 10
115.7598426768318
 20
52.70436022401064
 30
0.0
 10
115.1157043645009
 20
52.37553032415128
 30
0.0
 10
113.6783620185229
 20
51.87050217017217
 30
0.0
 10
112.8812520361236
 20
51.70630234539892
 30
0.0
 10
111.3201035848883
 20
51.70630234539892
 30
0.0
 10
110.522993602489
 20
51.87050217017217
 30
0.0
 10
109.0856512565109
 20
52.37553032415128
 30
0.0
 10
108.44151294418
 20
52.70436022401064
 30
0.0
 10
107.4229738523987
 20
53.27814126671924
 30
0.0
 10
106.9720610987176
 20
53.56810572578772
 30
0.0
 10
106.3602885483577
 20
53.97435929937739
 30
0.0
 10
106.2006778105063
 20
54.08747892908735
 30
0.0
 10
106.2006778105059
 20
54.08747892908758
 30
0.0
  0
LINE
  5
13F
330
6C
100
AcDbEntity
  8
Visible (ISO)
100
AcDbLine
 10
106.2006778105059
 20
54.08747892908758
 30
0.0
 11
106.2006778105059
 21
56.08747892908761
 31
0.0
  0
LINE
  5
140
330
6C
100
AcDbEntity
  8
Visible (ISO)
100
AcDbLine
 10
118.0006778105059
 20
54.08747892908758
 30
0.0
 11
118.0006778105059
 21
56.08747892908761
 31
0.0
  0
LINE
  5
141
330
6C
100
AcDbEntity
  8
Visible (ISO)
100
AcDbLine
 10
136.1006778105059
 20
37.33747892908759
 30
0.0
 11
123.6006778105059
 21
37.33747892908759
 31
0.0
  0
LINE
  5
142
330
6C
100
AcDbEntity
  8
Visible (ISO)
100
AcDbLine
 10
136.1006778105059
 20
53.83747892908758
 30
0.0
 11
123.6006778105059
 21
53.83747892908758
 31
0.0
  0
LINE
  5
143
330
6C
100
AcDbEntity
  8
Visible (ISO)
100
AcDbLine
 10
118.1006778105059
 20
54.08747892908758
 30
0.0
 11
118.0006778105059
 21
54.08747892908758
 31
0.0
  0
LINE
  5
144
330
6C
100
AcDbEntity
  8
Visible (ISO)
100
AcDbLine
 10
106.2006778105059
 20
54.08747892908758
 30
0.0
 11
106.1006778105059
 21
54.08747892908758
 31
0.0
  0
LINE
  5
145
330
6C
100
AcDbEntity
  8
Visible (ISO)
100
AcDbLine
 10
118.1006778105059
 20
37.0874789290876
 30
0.0
 11
106.1006778105059
 21
37.0874789290876
 31
0.0
  0
LINE
  5
146
330
6C
100
AcDbEntity
  8
Visible (ISO)
100
AcDbLine
 10
115.600677810506
 20
74.08747892908758
 30
0.0
 11
108.6006778105059
 21
74.08747892908758
 31
0.0
  0
LINE
  5
147
330
6C
100
AcDbEntity
  8
Visible (ISO)
100
AcDbLine
 10
115.600677810506
 20
67.0874789290876
 30
0.0
 11
115.600677810506
 21
62.0874789290876
 31
0.0
  0
LINE
  5
148
330
6C
100
AcDbEntity
  8
Visible Narrow (ISO)
100
AcDbLine
 10
115.600677810506
 20
67.0874789290876
 30
0.0
 11
108.6006778105059
 21
67.0874789290876
 31
0.0
  0
LINE
  5
149
330
6C
100
AcDbEntity
  8
Visible (ISO)
100
AcDbLine
 10
108.6006778105059
 20
62.0874789290876
 30
0.0
 11
108.6006778105059
 21
67.0874789290876
 31
0.0
  0
LINE
  5
14A
330
6C
100
AcDbEntity
  8
Visible (ISO)
100
AcDbLine
 10
108.6006778105059
 20
62.0874789290876
 30
0.0
 11
115.600677810506
 21
62.0874789290876
 31
0.0
  0
LINE
  5
14B
330
6C
100
AcDbEntity
  8
Visible (ISO)
100
AcDbLine
 10
115.600677810506
 20
62.0874789290876
 30
0.0
 11
115.600677810506
 21
61.83973368385853
 31
0.0
  0
SPLINE
  5
14C
330
6C
100
AcDbEntity
  8
Visible (ISO)
100
AcDbSpline
210
0.0
220
0.0
230
1.0
 70
     8
 71
     3
 72
    14
 73
    10
 74
     0
 42
0.0000000001
 43
0.0000000001
 40
0.0979815127343829
 40
0.0979815127343829
 40
0.0979815127343829
 40
0.0979815127343829
 40
0.1506624850332004
 40
0.1506624850332004
 40
0.3013249700664007
 40
0.3013249700664007
 40
0.4554237426914714
 40
0.4554237426914714
 40
0.5051911393277391
 40
0.5051911393277391
 40
0.5051911393277391
 40
0.5051911393277391
 10
106.6822177346388
 20
56.08747892908763
 30
0.0
 10
106.6936969274883
 20
56.26639098862949
 30
0.0
 10
106.7082903742605
 20
56.44308728572617
 30
0.0
 10
106.7754145410599
 20
57.10493171221025
 30
0.0
 10
106.8490607837573
 20
57.55127956242528
 30
0.0
 10
107.0122715402256
 20
58.2634152146689
 30
0.0
 10
107.1132799749164
 20
58.5740652439804
 30
0.0
 10
107.2505235329915
 20
58.84661831179369
 30
0.0
 10
107.2843080852833
 20
58.90274090986602
 30
0.0
 10
107.3178154804014
 20
58.94783268059478
 30
0.0
  0
ELLIPSE
  5
14D
330
6C
100
AcDbEntity
  8
Visible (ISO)
100
AcDbEllipse
 10
43.60067781050593
 20
62.43535336141203
 30
0.0
 11
-64.99999999999997
 21
-0.0000000000000034
 31
0.0
210
0.0
220
0.0
230
1.0
 40
0.271399209557084
 41
2.942587086109377
 42
3.032609081529037
  0
SPLINE
  5
14E
330
6C
100
AcDbEntity
  8
Visible (ISO)
100
AcDbSpline
210
0.0
220
0.0
230
1.0
 70
     8
 71
     3
 72
    10
 73
     6
 74
     0
 42
0.0000000001
 43
0.0000000001
 40
5.578615183636051
 40
5.578615183636051
 40
5.578615183636051
 40
5.578615183636051
 40
6.021510703961547
 40
6.021510703961547
 40
6.267952460891861
 40
6.267952460891861
 40
6.267952460891861
 40
6.267952460891861
 10
108.2150436153779
 20
60.51658337526141
 30
0.0
 10
108.3733392154108
 20
60.90922123152036
 30
0.0
 10
108.4880746392423
 20
61.23861240622142
 30
0.0
 10
108.5831845876745
 20
61.63138549744616
 30
0.0
 10
108.6006778105059
 20
61.74809667388907
 30
0.0
 10
108.6006778105059
 20
61.83973368385854
 30
0.0
  0
LINE
  5
14F
330
6C
100
AcDbEntity
  8
Visible (ISO)
100
AcDbLine
 10
117.519137886373
 20
56.08747892908763
 30
0.0
 11
114.6987540218593
 21
56.08747892908763
 31
0.0
  0
SPLINE
  5
150
330
6C
100
AcDbEntity
  8
Visible (ISO)
100
AcDbSpline
210
0.0
220
0.0
230
1.0
 70
     8
 71
     3
 72
    14
 73
    10
 74
     0
 42
0.0000000001
 43
0.0000000001
 40
1.926793397172414
 40
1.926793397172414
 40
1.926793397172414
 40
1.926793397172414
 40
1.976560793808679
 40
1.976560793808679
 40
2.130659566433751
 40
2.130659566433751
 40
2.28132205146695
 40
2.28132205146695
 40
2.334003023765768
 40
2.334003023765768
 40
2.334003023765768
 40
2.334003023765768
 10
116.8835401406105
 20
58.94783268059478
 30
0.0
 10
116.9170475357286
 20
58.90274090986602
 30
0.0
 10
116.9508320880204
 20
58.84661831179369
 30
0.0
 10
117.0880756460954
 20
58.5740652439804
 30
0.0
 10
117.1890840807863
 20
58.2634152146689
 30
0.0
 10
117.3522948372545
 20
57.55127956242528
 30
0.0
 10
117.4259410799519
 20
57.10493171221025
 30
0.0
 10
117.4930652467513
 20
56.44308728572617
 30
0.0
 10
117.5076586935235
 20
56.26639098862949
 30
0.0
 10
117.519137886373
 20
56.08747892908763
 30
0.0
  0
LINE
  5
151
330
6C
100
AcDbEntity
  8
Visible Narrow (ISO)
100
AcDbLine
 10
116.8835401406105
 20
58.94783268059478
 30
0.0
 11
107.3178154804014
 21
58.94783268059478
 31
0.0
  0
LINE
  5
152
330
6C
100
AcDbEntity
  8
Visible (ISO)
100
AcDbLine
 10
109.5026015991526
 20
56.08747892908763
 30
0.0
 11
106.6822177346388
 21
56.08747892908763
 31
0.0
  0
ELLIPSE
  5
153
330
6C
100
AcDbEntity
  8
Visible (ISO)
100
AcDbEllipse
 10
180.6006778105059
 20
62.43535336141203
 30
0.0
 11
64.99999999999999
 21
-0.0000000000000022
 31
0.0
210
0.0
220
0.0
230
1.0
 40
0.2713992095570839
 41
3.250576225650547
 42
3.340598221070206
  0
LINE
  5
154
330
6C
100
AcDbEntity
  8
Visible Narrow (ISO)
100
AcDbLine
 10
115.986312005634
 20
60.51658337526141
 30
0.0
 11
108.2150436153779
 21
60.51658337526141
 31
0.0
  0
SPLINE
  5
155
330
6C
100
AcDbEntity
  8
Visible (ISO)
100
AcDbSpline
210
0.0
220
0.0
230
1.0
 70
     8
 71
     3
 72
    10
 73
     6
 74
     0
 42
0.0000000001
 43
0.0000000001
 40
4.585290746366443
 40
4.585290746366443
 40
4.585290746366443
 40
4.585290746366443
 40
4.831732503296846
 40
4.831732503296846
 40
5.274628023622251
 40
5.274628023622251
 40
5.274628023622251
 40
5.274628023622251
 10
115.600677810506
 20
61.83973368385854
 30
0.0
 10
115.600677810506
 20
61.74809667388903
 30
0.0
 10
115.6181710333374
 20
61.63138549744608
 30
0.0
 10
115.7132809817696
 20
61.23861240622129
 30
0.0
 10
115.8280164056011
 20
60.90922123152029
 30
0.0
 10
115.986312005634
 20
60.51658337526141
 30
0.0
  0
LINE
  5
156
330
6C
100
AcDbEntity
  8
Visible (ISO)
100
AcDbLine
 10
108.6006778105059
 20
61.83973368385854
 30
0.0
 11
108.6006778105059
 21
62.0874789290876
 31
0.0
  0
LINE
  5
157
330
6C
100
AcDbEntity
  8
Visible (ISO)
100
AcDbLine
 10
115.600677810506
 20
67.0874789290876
 30
0.0
 11
115.600677810506
 21
74.08747892908758
 31
0.0
  0
SPLINE
  5
158
330
6C
100
AcDbEntity
  8
Visible (ISO)
100
AcDbSpline
210
0.0
220
0.0
230
1.0
 70
     8
 71
     3
 72
    10
 73
     6
 74
     0
 42
0.0000000001
 43
0.0000000001
 40
1.75851045369192
 40
1.75851045369192
 40
1.75851045369192
 40
1.75851045369192
 40
1.769985036102441
 40
1.769985036102441
 40
1.77528265148158
 40
1.77528265148158
 40
1.77528265148158
 40
1.77528265148158
 10
118.7604000327282
 20
56.08747892908766
 30
0.0
 10
118.7721803048465
 20
56.08747892908766
 30
0.0
 10
118.7839643328579
 20
56.09376769569021
 30
0.0
 10
118.8007310758712
 20
56.11103494750988
 30
0.0
 10
118.8059611943256
 20
56.11765867740484
 30
0.0
 10
118.8111014448587
 20
56.12529585288761
 30
0.0
  0
LINE
  5
159
330
6C
100
AcDbEntity
  8
Visible (ISO)
100
AcDbLine
 10
118.8088817430053
 20
56.08747892908763
 30
0.0
 11
118.7604000327288
 21
56.08747892908763
 31
0.0
  0
SPLINE
  5
15A
330
6C
100
AcDbEntity
  8
Visible (ISO)
100
AcDbSpline
210
0.0
220
0.0
230
1.0
 70
     8
 71
     3
 72
     8
 73
     4
 74
     0
 42
0.0000000001
 43
0.0000000001
 40
-0.0038487373741095
 40
-0.0038487373741095
 40
-0.0038487373741095
 40
-0.0038487373741095
 40
0.0
 40
0.0
 40
0.0
 40
0.0
 10
118.8111014448587
 20
56.12529585288758
 30
0.0
 10
118.8103615495945
 20
56.11269013268636
 30
0.0
 10
118.809621648927
 20
56.10008449051903
 30
0.0
 10
118.8088817430053
 20
56.08747892908763
 30
0.0
  0
SPLINE
  5
15B
330
6C
100
AcDbEntity
  8
Visible (ISO)
100
AcDbSpline
210
0.0
220
0.0
230
1.0
 70
     8
 71
     3
 72
    10
 73
     6
 74
     0
 42
0.0000000001
 43
0.0000000001
 40
1.741738255902264
 40
1.741738255902264
 40
1.741738255902264
 40
1.741738255902264
 40
1.7470358712814
 40
1.7470358712814
 40
1.758510453691921
 40
1.758510453691921
 40
1.758510453691921
 40
1.758510453691921
 10
105.3902541761531
 20
56.12529585288761
 30
0.0
 10
105.3953944266862
 20
56.11765867740484
 30
0.0
 10
105.4006245451407
 20
56.11103494750977
 30
0.0
 10
105.417391288154
 20
56.0937676956901
 30
0.0
 10
105.4291753161653
 20
56.08747892908763
 30
0.0
 10
105.4409555882837
 20
56.08747892908761
 30
0.0
  0
SPLINE
  5
15C
330
6C
100
AcDbEntity
  8
Visible (ISO)
100
AcDbSpline
210
0.0
220
0.0
230
1.0
 70
     8
 71
     3
 72
     8
 73
     4
 74
     0
 42
0.0000000001
 43
0.0000000001
 40
-0.0038487374224739
 40
-0.0038487374224739
 40
-0.0038487374224739
 40
-0.0038487374224739
 40
0.0
 40
0.0
 40
0.0
 40
0.0
 10
105.3924738780066
 20
56.08747892908763
 30
0.0
 10
105.3917339720816
 20
56.10008449057509
 30
0.0
 10
105.3909940714108
 20
56.11269013279869
 30
0.0
 10
105.3902541761531
 20
56.1252958528876
 30
0.0
  0
LINE
  5
15D
330
6C
100
AcDbEntity
  8
Visible (ISO)
100
AcDbLine
 10
105.4409555882837
 20
56.08747892908763
 30
0.0
 11
105.3924738780069
 21
56.08747892908763
 31
0.0
  0
SPLINE
  5
15E
330
6C
100
AcDbEntity
  8
Visible (ISO)
100
AcDbSpline
210
0.0
220
0.0
230
1.0
 70
     8
 71
     3
 72
    22
 73
    18
 74
     0
 42
0.0000000001
 43
0.0000000001
 40
1.758510453691921
 40
1.758510453691921
 40
1.758510453691921
 40
1.758510453691921
 40
1.769985036102444
 40
1.769985036102444
 40
1.781459618512965
 40
1.781459618512965
 40
1.804408783334004
 40
1.804408783334004
 40
1.879967807849264
 40
1.879967807849264
 40
1.955526832364521
 40
1.955526832364521
 40
2.150713591741938
 40
2.150713591741938
 40
2.345900351119353
 40
2.345900351119353
 40
2.573780108621498
 40
2.573780108621498
 40
2.573780108621498
 40
2.573780108621498
 10
105.4409555882837
 20
56.08747892908761
 30
0.0
 10
105.4527358604021
 20
56.08747892908761
 30
0.0
 10
105.4644544528477
 20
56.09376769569045
 30
0.0
 10
105.4871502647783
 20
56.11739423605122
 30
0.0
 10
105.4981284616985
 20
56.13472254306103
 30
0.0
 10
105.5293148508064
 20
56.19817524416045
 30
0.0
 10
105.5478312960087
 20
56.25591153129935
 30
0.0
 10
105.6137352748449
 20
56.5013435899598
 30
0.0
 10
105.6506724779125
 20
56.74219042333035
 30
0.0
 10
105.7165553281364
 20
57.24114630127381
 30
0.0
 10
105.7441325424109
 20
57.5012093126487
 30
0.0
 10
105.8269933775517
 20
58.35793124437099
 30
0.0
 10
105.8736143236604
 20
58.99982002057782
 30
0.0
 10
105.9587224796543
 20
60.31250834721527
 30
0.0
 10
105.996378254228
 20
60.9839193041197
 30
0.0
 10
106.0722449135703
 20
62.46144524664772
 30
0.0
 10
106.1093689084031
 20
63.2710550390983
 30
0.0
 10
106.1440906851324
 20
64.08747892908761
 30
0.0
  0
LINE
  5
15F
330
6C
100
AcDbEntity
  8
Visible (ISO)
100
AcDbLine
 10
106.6822177346388
 20
56.08747892908763
 30
0.0
 11
105.4409555882837
 21
56.08747892908763
 31
0.0
  0
LINE
  5
160
330
6C
100
AcDbEntity
  8
Visible (ISO)
100
AcDbLine
 10
105.9239299698501
 20
65.08222250707826
 30
0.0
 11
108.6006778105059
 21
65.08222250707826
 31
0.0
  0
SPLINE
  5
161
330
6C
100
AcDbEntity
  8
Visible (ISO)
100
AcDbSpline
210
0.0
220
0.0
230
1.0
 70
     8
 71
     3
 72
    10
 73
     6
 74
     0
 42
0.0000000001
 43
0.0000000001
 40
1.026679612955202
 40
1.026679612955202
 40
1.026679612955202
 40
1.026679612955202
 40
1.0549869503969
 40
1.0549869503969
 40
1.150372975748467
 40
1.150372975748467
 40
1.150372975748467
 40
1.150372975748467
 10
106.1440906851324
 20
64.08747892908761
 30
0.0
 10
106.1296043029287
 20
64.16608418863261
 30
0.0
 10
106.1148116612097
 20
64.24373251447383
 30
0.0
 10
106.0486371293384
 20
64.57836573739152
 30
0.0
 10
105.9899799365701
 20
64.84301564258839
 30
0.0
 10
105.9239299698501
 20
65.08222250707826
 30
0.0
  0
SPLINE
  5
162
330
6C
100
AcDbEntity
  8
Visible (ISO)
100
AcDbSpline
210
0.0
220
0.0
230
1.0
 70
     8
 71
     3
 72
    22
 73
    18
 74
     0
 42
0.0000000001
 43
0.0000000001
 40
0.9432407987623507
 40
0.9432407987623507
 40
0.9432407987623507
 40
0.9432407987623507
 40
1.171120556264495
 40
1.171120556264495
 40
1.366307315641912
 40
1.366307315641912
 40
1.561494075019328
 40
1.561494075019328
 40
1.637053099534583
 40
1.637053099534583
 40
1.712612124049838
 40
1.712612124049838
 40
1.735561288870879
 40
1.735561288870879
 40
1.7470358712814
 40
1.7470358712814
 40
1.75851045369192
 40
1.75851045369192
 40
1.75851045369192
 40
1.75851045369192
 10
118.0572649358795
 20
64.08747892908761
 30
0.0
 10
118.0919867126088
 20
63.2710550390983
 30
0.0
 10
118.1291107074416
 20
62.46144524664771
 30
0.0
 10
118.2049773667839
 20
60.98391930411968
 30
0.0
 10
118.2426331413575
 20
60.31250834721526
 30
0.0
 10
118.3277412973514
 20
58.99982002057782
 30
0.0
 10
118.3743622434602
 20
58.35793124437095
 30
0.0
 10
118.457223078601
 20
57.50120931264866
 30
0.0
 10
118.4848002928755
 20
57.24114630127382
 30
0.0
 10
118.5506831430994
 20
56.7421904233304
 30
0.0
 10
118.5876203461669
 20
56.50134358995984
 30
0.0
 10
118.6535243250032
 20
56.25591153129938
 30
0.0
 10
118.6720407702054
 20
56.19817524416045
 30
0.0
 10
118.7032271593134
 20
56.13472254306103
 30
0.0
 10
118.7142053562336
 20
56.11739423605119
 30
0.0
 10
118.7369011681641
 20
56.09376769569043
 30
0.0
 10
118.7486197606098
 20
56.08747892908766
 30
0.0
 10
118.7604000327282
 20
56.08747892908766
 30
0.0
  0
SPLINE
  5
163
330
6C
100
AcDbEntity
  8
Visible (ISO)
100
AcDbSpline
210
0.0
220
0.0
230
1.0
 70
     8
 71
     3
 72
    10
 73
     6
 74
     0
 42
0.0000000001
 43
0.0000000001
 40
1.5278493950117
 40
1.5278493950117
 40
1.5278493950117
 40
1.5278493950117
 40
1.623235420363269
 40
1.623235420363269
 40
1.651542757804969
 40
1.651542757804969
 40
1.651542757804969
 40
1.651542757804969
 10
118.2774256511618
 20
65.08222250707826
 30
0.0
 10
118.2113756844417
 20
64.84301564258839
 30
0.0
 10
118.1527184916734
 20
64.57836573739155
 30
0.0
 10
118.0865439598022
 20
64.24373251447384
 30
0.0
 10
118.0717513180831
 20
64.16608418863261
 30
0.0
 10
118.0572649358795
 20
64.08747892908761
 30
0.0
  0
LINE
  5
164
330
6C
100
AcDbEntity
  8
Visible (ISO)
100
AcDbLine
 10
115.6006778105059
 20
65.08222250707826
 30
0.0
 11
118.2774256511618
 21
65.08222250707826
 31
0.0
  0
LINE
  5
165
330
6C
100
AcDbEntity
  8
Visible (ISO)
100
AcDbLine
 10
118.7604000327282
 20
56.08747892908763
 30
0.0
 11
117.519137886373
 21
56.08747892908763
 31
0.0
  0
LINE
  5
166
330
6C
100
AcDbEntity
  8
Visible (ISO)
100
AcDbLine
 10
108.6006778105059
 20
67.0874789290876
 30
0.0
 11
108.6006778105059
 21
74.08747892908758
 31
0.0
  0
SPLINE
  5
167
330
6C
100
AcDbEntity
  8
Visible (ISO)
100
AcDbSpline
210
0.0
220
0.0
230
1.0
 70
     8
 71
     3
 72
    22
 73
    18
 74
     0
 42
0.0000000001
 43
0.0000000001
 40
0.080169667649563
 40
0.080169667649563
 40
0.080169667649563
 40
0.080169667649563
 40
0.1449225509834109
 40
0.1449225509834109
 40
0.2230755465214004
 40
0.2230755465214004
 40
0.2985369780978444
 40
0.2985369780978444
 40
0.3739984096742883
 40
0.3739984096742883
 40
0.4494598412507325
 40
0.4494598412507325
 40
0.5249212728271763
 40
0.5249212728271763
 40
0.6030742683651658
 40
0.6030742683651658
 40
0.6678271516990139
 40
0.6678271516990139
 40
0.6678271516990139
 40
0.6678271516990139
 10
109.5026015991526
 20
56.08747892908763
 30
0.0
 10
109.6009797360825
 20
56.28645548369255
 30
0.0
 10
109.7388739932383
 20
56.46357025372847
 30
0.0
 10
110.0723708830566
 20
56.77823707094916
 30
0.0
 10
110.3274708927592
 20
56.93911728235254
 30
0.0
 10
110.7834998119509
 20
57.14228315511576
 30
0.0
 10
111.0419863446662
 20
57.22132477199988
 30
0.0
 10
111.574837044695
 20
57.32232119066058
 30
0.0
 10
111.8491397052511
 20
57.34470027660254
 30
0.0
 10
112.3522159157607
 20
57.34470027660254
 30
0.0
 10
112.6265185763168
 20
57.32232119066058
 30
0.0
 10
113.1593692763456
 20
57.22132477199988
 30
0.0
 10
113.417855809061
 20
57.14228315511576
 30
0.0
 10
113.8738847282526
 20
56.93911728235254
 30
0.0
 10
114.1289847379553
 20
56.77823707094916
 30
0.0
 10
114.4624816277736
 20
56.46357025372847
 30
0.0
 10
114.6003758849293
 20
56.28645548369255
 30
0.0
 10
114.6987540218593
 20
56.08747892908763
 30
0.0
  0
LINE
  5
168
330
6C
100
AcDbEntity
  8
Visible (ISO)
100
AcDbLine
 10
109.5026015991526
 20
56.08747892908763
 30
0.0
 11
114.6987540218593
 21
56.08747892908763
 31
0.0
  0
LINE
  5
169
330
6C
100
AcDbEntity
  8
Visible (ISO)
100
AcDbLine
 10
105.1006778105059
 20
56.08747892908763
 30
0.0
 11
105.3924738780065
 21
56.08747892908763
 31
0.0
  0
LINE
  5
16A
330
6C
100
AcDbEntity
  8
Visible (ISO)
100
AcDbLine
 10
118.8088817430053
 20
56.08747892908763
 30
0.0
 11
119.1006778105059
 21
56.08747892908763
 31
0.0
  0
LINE
  5
16B
330
6C
100
AcDbEntity
  8
Visible (ISO)
100
AcDbLine
 10
106.6006778105059
 20
72.08747892908758
 30
0.0
 11
108.6006778105059
 21
72.08747892908758
 31
0.0
  0
LINE
  5
16C
330
6C
100
AcDbEntity
  8
Visible (ISO)
100
AcDbLine
 10
115.600677810506
 20
72.08747892908758
 30
0.0
 11
117.6006778105059
 21
72.08747892908758
 31
0.0
  0
LINE
  5
16D
330
6C
100
AcDbEntity
  8
Visible (ISO)
100
AcDbLine
 10
104.6506778105059
 20
64.08747892908761
 30
0.0
 11
106.1440906851324
 21
64.08747892908761
 31
0.0
  0
LINE
  5
16E
330
6C
100
AcDbEntity
  8
Visible (ISO)
100
AcDbLine
 10
118.0572649358795
 20
64.08747892908761
 30
0.0
 11
119.5506778105059
 21
64.08747892908761
 31
0.0
  0
LINE
  5
16F
330
6C
100
AcDbEntity
  8
Visible (ISO)
100
AcDbLine
 10
117.6006778105059
 20
72.08747892908758
 30
0.0
 11
119.5506778105059
 21
64.08747892908761
 31
0.0
  0
LINE
  5
170
330
6C
100
AcDbEntity
  8
Visible (ISO)
100
AcDbLine
 10
106.6006778105059
 20
72.08747892908758
 30
0.0
 11
104.6506778105059
 21
64.08747892908761
 31
0.0
  0
LINE
  5
171
330
6C
100
AcDbEntity
  8
Visible (ISO)
100
AcDbLine
 10
105.1006778105059
 20
56.08747892908763
 30
0.0
 11
104.6506778105059
 21
64.08747892908761
 31
0.0
  0
LINE
  5
172
330
6C
100
AcDbEntity
  8
Visible (ISO)
100
AcDbLine
 10
119.1006778105059
 20
56.08747892908763
 30
0.0
 11
119.5506778105059
 21
64.08747892908761
 31
0.0
  0
LINE
  5
173
330
6C
100
AcDbEntity
  8
Visible (ISO)
100
AcDbLine
 10
115.600677810506
 20
72.88747892908759
 30
0.0
 11
117.1006778105059
 21
72.88747892908759
 31
0.0
  0
LINE
  5
174
330
6C
100
AcDbEntity
  8
Visible Narrow (ISO)
100
AcDbLine
 10
117.6006778105059
 20
72.38747892908759
 30
0.0
 11
115.600677810506
 21
72.38747892908759
 31
0.0
  0
LINE
  5
175
330
6C
100
AcDbEntity
  8
Visible (ISO)
100
AcDbLine
 10
107.1006778105059
 20
72.88747892908759
 30
0.0
 11
108.6006778105059
 21
72.88747892908759
 31
0.0
  0
LINE
  5
176
330
6C
100
AcDbEntity
  8
Visible Narrow (ISO)
100
AcDbLine
 10
108.6006778105059
 20
72.38747892908759
 30
0.0
 11
106.6006778105059
 21
72.38747892908759
 31
0.0
  0
ARC
  5
177
330
6C
100
AcDbEntity
  8
Visible (ISO)
100
AcDbCircle
 10
117.1006778105059
 20
72.38747892908759
 30
0.0
 40
0.5
100
AcDbArc
 50
0.0
 51
90.0
  0
ARC
  5
178
330
6C
100
AcDbEntity
  8
Visible (ISO)
100
AcDbCircle
 10
107.1006778105059
 20
72.38747892908759
 30
0.0
 40
0.5
100
AcDbArc
 50
90.0
 51
180.0
  0
LINE
  5
179
330
6C
100
AcDbEntity
  8
Visible (ISO)
100
AcDbLine
 10
117.6006778105059
 20
72.0874789290876
 30
0.0
 11
115.600677810506
 21
72.0874789290876
 31
0.0
  0
LINE
  5
17A
330
6C
100
AcDbEntity
  8
Visible (ISO)
100
AcDbLine
 10
108.6006778105059
 20
72.0874789290876
 30
0.0
 11
106.6006778105059
 21
72.0874789290876
 31
0.0
  0
LINE
  5
17B
330
6C
100
AcDbEntity
  8
Visible (ISO)
100
AcDbLine
 10
117.6006778105059
 20
72.38747892908759
 30
0.0
 11
117.6006778105059
 21
72.0874789290876
 31
0.0
  0
LINE
  5
17C
330
6C
100
AcDbEntity
  8
Visible (ISO)
100
AcDbLine
 10
106.6006778105059
 20
72.38747892908759
 30
0.0
 11
106.6006778105059
 21
72.0874789290876
 31
0.0
  0
SPLINE
  5
17D
330
6C
100
AcDbEntity
  8
Visible (ISO)
100
AcDbSpline
210
0.0
220
0.0
230
1.0
 70
    12
 71
     2
 72
     6
 73
     3
 74
     0
 42
0.0000000001
 43
0.0000000001
 40
0.2934711240705181
 40
0.2934711240705181
 40
0.2934711240705181
 40
0.8365524254088843
 40
0.8365524254088843
 40
0.8365524254088843
 10
99.84148843195113
 20
40.68000164097575
 30
0.0
 41
1.041636008661481
 10
100.6006778105059
 20
43.3099107934229
 30
0.0
 41
1.05934264255201
 10
100.6006778105059
 20
45.58747892908757
 30
0.0
 41
1.0
  0
SPLINE
  5
17E
330
6C
100
AcDbEntity
  8
Visible (ISO)
100
AcDbSpline
210
0.0
220
0.0
230
1.0
 70
    12
 71
     2
 72
     6
 73
     3
 74
     0
 42
0.0000000001
 43
0.0000000001
 40
0.836552425408885
 40
0.836552425408885
 40
0.836552425408885
 40
1.379633726747249
 40
1.379633726747249
 40
1.379633726747249
 10
100.6006778105059
 20
38.22626299691985
 30
0.0
 41
1.0
 10
100.6006778105059
 20
39.36504706475218
 30
0.0
 41
1.059342642551996
 10
99.84148843195113
 20
40.68000164097575
 30
0.0
 41
1.041636008661469
  0
LINE
  5
17F
330
6C
100
AcDbEntity
  8
Visible (ISO)
100
AcDbLine
 10
100.6006778105059
 20
38.22626299691985
 30
0.0
 11
100.6006778105059
 21
45.58747892908757
 31
0.0
  0
SPLINE
  5
180
330
6C
100
AcDbEntity
  8
Visible (ISO)
100
AcDbSpline
210
0.0
220
0.0
230
1.0
 70
    12
 71
     2
 72
     6
 73
     3
 74
     0
 42
0.0000000001
 43
0.0000000001
 40
0.2934711240705192
 40
0.2934711240705192
 40
0.2934711240705192
 40
0.836552425408885
 40
0.836552425408885
 40
0.836552425408885
 10
99.84148843195113
 20
50.4949562171994
 30
0.0
 41
1.041636008661477
 10
100.6006778105059
 20
51.80991079342296
 30
0.0
 41
1.059342642552006
 10
100.6006778105059
 20
52.94869486125533
 30
0.0
 41
1.0
  0
SPLINE
  5
181
330
6C
100
AcDbEntity
  8
Visible (ISO)
100
AcDbSpline
210
0.0
220
0.0
230
1.0
 70
    12
 71
     2
 72
     6
 73
     3
 74
     0
 42
0.0000000001
 43
0.0000000001
 40
0.8365524254088843
 40
0.8365524254088843
 40
0.8365524254088843
 40
1.379633726747249
 40
1.379633726747249
 40
1.379633726747249
 10
100.6006778105059
 20
45.58747892908757
 30
0.0
 41
1.0
 10
100.6006778105059
 20
47.86504706475227
 30
0.0
 41
1.059342642552006
 10
99.84148843195113
 20
50.4949562171994
 30
0.0
 41
1.041636008661477
  0
LINE
  5
182
330
6C
100
AcDbEntity
  8
Visible (ISO)
100
AcDbLine
 10
100.6006778105059
 20
45.58747892908757
 30
0.0
 11
100.6006778105059
 21
52.94869486125533
 31
0.0
  0
SPLINE
  5
183
330
6C
100
AcDbEntity
  8
Visible (ISO)
100
AcDbSpline
210
0.0
220
0.0
230
1.0
 70
    12
 71
     2
 72
     6
 73
     3
 74
     0
 42
0.0000000001
 43
0.0000000001
 40
0.836552425408885
 40
0.836552425408885
 40
0.836552425408885
 40
1.37963372674725
 40
1.37963372674725
 40
1.37963372674725
 10
100.6006778105059
 20
52.94869486125533
 30
0.0
 41
1.0
 10
100.6006778105059
 20
54.08747892908767
 30
0.0
 41
1.059342642552004
 10
99.84148843195113
 20
55.40243350531124
 30
0.0
 41
1.041636008661477
  0
LINE
  5
184
330
6C
100
AcDbEntity
  8
Visible (ISO)
100
AcDbLine
 10
100.6006778105059
 20
52.94869486125534
 30
0.0
 11
100.6006778105059
 21
54.0874789290876
 31
0.0
  0
LINE
  5
185
330
6C
100
AcDbEntity
  8
Visible (ISO)
100
AcDbLine
 10
100.6006778105059
 20
37.08747892908757
 30
0.0
 11
100.6006778105059
 21
38.22626299691985
 31
0.0
  0
SPLINE
  5
186
330
6C
100
AcDbEntity
  8
Visible (ISO)
100
AcDbSpline
210
0.0
220
0.0
230
1.0
 70
    12
 71
     2
 72
     6
 73
     3
 74
     0
 42
0.0000000001
 43
0.0000000001
 40
0.2934711240705199
 40
0.2934711240705199
 40
0.2934711240705199
 40
0.836552425408885
 40
0.836552425408885
 40
0.836552425408885
 10
99.84148843195113
 20
35.77252435286394
 30
0.0
 41
1.041636008661475
 10
100.6006778105059
 20
37.08747892908751
 30
0.0
 41
1.059342642552002
 10
100.6006778105059
 20
38.22626299691985
 30
0.0
 41
1.0
  0
LINE
  5
187
330
6C
100
AcDbEntity
  8
Visible (ISO)
100
AcDbLine
 10
100.6006778105059
 20
54.0874789290876
 30
0.0
 11
99.84148843195113
 21
55.40243350531124
 31
0.0
  0
LINE
  5
188
330
6C
100
AcDbEntity
  8
Visible (ISO)
100
AcDbLine
 10
100.6006778105059
 20
37.08747892908757
 30
0.0
 11
99.84148843195113
 21
35.77252435286394
 31
0.0
  0
LINE
  5
189
330
6C
100
AcDbEntity
  8
Visible (ISO)
100
AcDbLine
 10
88.35986718906083
 20
55.40243350531124
 30
0.0
 11
99.84148843195113
 21
55.40243350531124
 31
0.0
  0
LINE
  5
18A
330
6C
100
AcDbEntity
  8
Visible (ISO)
100
AcDbLine
 10
88.35986718906083
 20
35.77252435286393
 30
0.0
 11
99.84148843195113
 21
35.77252435286394
 31
0.0
  0
LINE
  5
18B
330
6C
100
AcDbEntity
  8
Visible (ISO)
100
AcDbLine
 10
88.35986718906083
 20
50.4949562171994
 30
0.0
 11
99.84148843195113
 21
50.4949562171994
 31
0.0
  0
LINE
  5
18C
330
6C
100
AcDbEntity
  8
Visible (ISO)
100
AcDbLine
 10
88.35986718906083
 20
40.68000164097575
 30
0.0
 11
99.84148843195113
 21
40.68000164097575
 31
0.0
  0
LINE
  5
18D
330
6C
100
AcDbEntity
  8
Visible (ISO)
100
AcDbLine
 10
87.60067781050596
 20
54.0874789290876
 30
0.0
 11
87.60067781050596
 21
52.94869486125532
 31
0.0
  0
SPLINE
  5
18E
330
6C
100
AcDbEntity
  8
Visible (ISO)
100
AcDbSpline
210
0.0
220
0.0
230
1.0
 70
    12
 71
     2
 72
     6
 73
     3
 74
     0
 42
0.0000000001
 43
0.0000000001
 40
0.2934711240705224
 40
0.2934711240705224
 40
0.2934711240705224
 40
0.836552425408885
 40
0.836552425408885
 40
0.836552425408885
 10
88.35986718906083
 20
55.40243350531124
 30
0.0
 41
1.041636008661464
 10
87.60067781050601
 20
54.08747892908763
 30
0.0
 41
1.059342642551986
 10
87.60067781050596
 20
52.94869486125533
 30
0.0
 41
1.0
  0
SPLINE
  5
18F
330
6C
100
AcDbEntity
  8
Visible (ISO)
100
AcDbSpline
210
0.0
220
0.0
230
1.0
 70
    12
 71
     2
 72
     6
 73
     3
 74
     0
 42
0.0000000001
 43
0.0000000001
 40
0.836552425408885
 40
0.836552425408885
 40
0.836552425408885
 40
1.379633726747248
 40
1.379633726747248
 40
1.379633726747248
 10
87.60067781050596
 20
52.94869486125533
 30
0.0
 41
1.0
 10
87.60067781050601
 20
51.80991079342299
 30
0.0
 41
1.059342642551986
 10
88.35986718906083
 20
50.4949562171994
 30
0.0
 41
1.041636008661464
  0
LINE
  5
190
330
6C
100
AcDbEntity
  8
Visible (ISO)
100
AcDbLine
 10
87.60067781050596
 20
52.94869486125532
 30
0.0
 11
87.60067781050596
 21
45.58747892908757
 31
0.0
  0
SPLINE
  5
191
330
6C
100
AcDbEntity
  8
Visible (ISO)
100
AcDbSpline
210
0.0
220
0.0
230
1.0
 70
    12
 71
     2
 72
     6
 73
     3
 74
     0
 42
0.0000000001
 43
0.0000000001
 40
0.2934711240705217
 40
0.2934711240705217
 40
0.2934711240705217
 40
0.836552425408885
 40
0.836552425408885
 40
0.836552425408885
 10
88.35986718906083
 20
50.4949562171994
 30
0.0
 41
1.041636008661465
 10
87.60067781050604
 20
47.86504706475225
 30
0.0
 41
1.05934264255199
 10
87.60067781050596
 20
45.58747892908757
 30
0.0
 41
1.0
  0
SPLINE
  5
192
330
6C
100
AcDbEntity
  8
Visible (ISO)
100
AcDbSpline
210
0.0
220
0.0
230
1.0
 70
    12
 71
     2
 72
     6
 73
     3
 74
     0
 42
0.0000000001
 43
0.0000000001
 40
0.836552425408885
 40
0.836552425408885
 40
0.836552425408885
 40
1.379633726747248
 40
1.379633726747248
 40
1.379633726747248
 10
87.60067781050596
 20
45.58747892908757
 30
0.0
 41
1.0
 10
87.60067781050601
 20
43.3099107934229
 30
0.0
 41
1.05934264255199
 10
88.35986718906083
 20
40.68000164097575
 30
0.0
 41
1.041636008661465
  0
LINE
  5
193
330
6C
100
AcDbEntity
  8
Visible (ISO)
100
AcDbLine
 10
87.60067781050596
 20
45.58747892908757
 30
0.0
 11
87.60067781050596
 21
38.22626299691986
 31
0.0
  0
SPLINE
  5
194
330
6C
100
AcDbEntity
  8
Visible (ISO)
100
AcDbSpline
210
0.0
220
0.0
230
1.0
 70
    12
 71
     2
 72
     6
 73
     3
 74
     0
 42
0.0000000001
 43
0.0000000001
 40
0.2934711240705221
 40
0.2934711240705221
 40
0.2934711240705221
 40
0.8365524254088846
 40
0.8365524254088846
 40
0.8365524254088846
 10
88.35986718906083
 20
40.68000164097575
 30
0.0
 41
1.041636008661461
 10
87.60067781050601
 20
39.36504706475218
 30
0.0
 41
1.059342642551984
 10
87.60067781050596
 20
38.22626299691985
 30
0.0
 41
1.0
  0
SPLINE
  5
195
330
6C
100
AcDbEntity
  8
Visible (ISO)
100
AcDbSpline
210
0.0
220
0.0
230
1.0
 70
    12
 71
     2
 72
     6
 73
     3
 74
     0
 42
0.0000000001
 43
0.0000000001
 40
0.8365524254088846
 40
0.8365524254088846
 40
0.8365524254088846
 40
1.379633726747245
 40
1.379633726747245
 40
1.379633726747245
 10
87.60067781050596
 20
38.22626299691985
 30
0.0
 41
1.0
 10
87.60067781050599
 20
37.08747892908752
 30
0.0
 41
1.059342642551986
 10
88.35986718906083
 20
35.77252435286393
 30
0.0
 41
1.041636008661464
  0
LINE
  5
196
330
6C
100
AcDbEntity
  8
Visible (ISO)
100
AcDbLine
 10
87.60067781050596
 20
38.22626299691986
 30
0.0
 11
87.60067781050596
 21
37.08747892908757
 31
0.0
  0
LINE
  5
197
330
6C
100
AcDbEntity
  8
Visible (ISO)
100
AcDbLine
 10
87.60067781050596
 20
54.0874789290876
 30
0.0
 11
88.35986718906083
 21
55.40243350531124
 31
0.0
  0
LINE
  5
198
330
6C
100
AcDbEntity
  8
Visible (ISO)
100
AcDbLine
 10
87.60067781050596
 20
37.08747892908757
 30
0.0
 11
88.35986718906083
 21
35.77252435286394
 31
0.0
  0
SPLINE
  5
199
330
6C
100
AcDbEntity
  8
Visible (ISO)
100
AcDbSpline
210
0.0
220
0.0
230
1.0
 70
    28
 71
     2
 72
     6
 73
     3
 74
     0
 42
0.0000000001
 43
0.0000000001
 40
1.095568088175592
 40
1.095568088175592
 40
1.095568088175592
 40
1.37963372674725
 40
1.37963372674725
 40
1.37963372674725
 10
114.3782459461705
 20
37.0874789290876
 30
0.0
 41
1.039079097512459
 10
113.3015623358452
 20
36.46585535683421
 30
0.0
 41
1.050897690569271
 10
112.1006778105059
 20
35.77252435286396
 30
0.0
 41
1.041636008661477
  0
SPLINE
  5
19A
330
6C
100
AcDbEntity
  8
Visible (ISO)
100
AcDbSpline
210
0.0
220
0.0
230
1.0
 70
    28
 71
     2
 72
     6
 73
     3
 74
     0
 42
0.0000000001
 43
0.0000000001
 40
0.2934711240705186
 40
0.2934711240705186
 40
0.2934711240705186
 40
0.5775367626421769
 40
0.5775367626421769
 40
0.5775367626421769
 10
112.1006778105059
 20
35.77252435286396
 30
0.0
 41
1.041636008661481
 10
110.8997932851667
 20
36.46585535683421
 30
0.0
 41
1.050897690569279
 10
109.8231096748414
 20
37.0874789290876
 30
0.0
 41
1.039079097512463
  0
CIRCLE
  5
19B
330
6C
100
AcDbEntity
  8
Visible (ISO)
100
AcDbCircle
 10
192.3988737680837
 20
45.58747892908757
 30
0.0
 40
3.0
  0
CIRCLE
  5
19C
330
6C
100
AcDbEntity
  8
Visible (ISO)
100
AcDbCircle
 10
192.3988737680868
 20
45.58747892908757
 30
0.0
 40
5.663702418655371
  0
CIRCLE
  5
19D
330
6C
100
AcDbEntity
  8
Visible (ISO)
100
AcDbCircle
 10
192.3988737680873
 20
45.58747892908757
 30
0.0
 40
6.75
  0
CIRCLE
  5
19E
330
6C
100
AcDbEntity
  8
Visible (ISO)
100
AcDbCircle
 10
192.3988737680841
 20
45.58747892908757
 30
0.0
 40
5.378749999999997
  0
CIRCLE
  5
19F
330
6C
100
AcDbEntity
  8
Visible (ISO)
100
AcDbCircle
 10
192.3988737680872
 20
45.58747892908757
 30
0.0
 40
8.25
  0
CIRCLE
  5
1A0
330
6C
100
AcDbEntity
  8
Visible (ISO)
100
AcDbCircle
 10
192.3988737680873
 20
45.58747892908757
 30
0.0
 40
7.75
  0
SPLINE
  5
1A1
330
6C
100
AcDbEntity
  8
Visible (ISO)
100
AcDbSpline
210
0.0
220
0.0
230
1.0
 70
    28
 71
     2
 72
     6
 73
     3
 74
     0
 42
0.0000000001
 43
0.0000000001
 40
0.4256073096284686
 40
0.4256073096284686
 40
0.4256073096284686
 40
0.8365524254088846
 40
0.8365524254088846
 40
0.8365524254088846
 10
183.8988737680833
 20
41.93884904925596
 30
0.0
 41
1.045691116018826
 10
183.8988737680834
 20
43.84024771902736
 30
0.0
 41
1.044904085362813
 10
183.8988737680836
 20
45.58747892908757
 30
0.0
 41
1.0
  0
ARC
  5
1A2
330
6C
100
AcDbEntity
  8
Visible (ISO)
100
AcDbCircle
 10
192.3988737680833
 20
45.58747892908754
 30
0.0
 40
9.24999999999992
100
AcDbArc
 50
203.2314565050076
 51
216.7685434949927
  0
ARC
  5
1A3
330
6C
100
AcDbEntity
  8
Visible (ISO)
100
AcDbCircle
 10
192.3988737680836
 20
45.58747892908757
 30
0.0
 40
8.499999999999987
100
AcDbArc
 50
180.0
 51
240.0
  0
ARC
  5
1A4
330
6C
100
AcDbEntity
  8
Visible (ISO)
100
AcDbCircle
 10
192.3988737680833
 20
45.58747892908761
 30
0.0
 40
9.249999999999916
100
AcDbArc
 50
143.2314565050073
 51
156.7685434949924
  0
SPLINE
  5
1A5
330
6C
100
AcDbEntity
  8
Visible (ISO)
100
AcDbSpline
210
0.0
220
0.0
230
1.0
 70
    28
 71
     2
 72
     6
 73
     3
 74
     0
 42
0.0000000001
 43
0.0000000001
 40
0.8365524254088846
 40
0.8365524254088846
 40
0.8365524254088846
 40
1.2474975411893
 40
1.2474975411893
 40
1.2474975411893
 10
183.8988737680836
 20
45.58747892908757
 30
0.0
 41
1.0
 10
183.8988737680836
 20
47.33471013914779
 30
0.0
 41
1.044904085362809
 10
183.8988737680833
 20
49.23610880891922
 30
0.0
 41
1.045691116018822
  0
ARC
  5
1A6
330
6C
100
AcDbEntity
  8
Visible (ISO)
100
AcDbCircle
 10
192.3988737680836
 20
45.58747892908757
 30
0.0
 40
8.499999999999996
100
AcDbArc
 50
120.0
 51
180.0
  0
ARC
  5
1A7
330
6C
100
AcDbEntity
  8
Visible (ISO)
100
AcDbCircle
 10
192.3988737680836
 20
45.58747892908757
 30
0.0
 40
8.499999999999996
100
AcDbArc
 50
60.0
 51
120.0
  0
SPLINE
  5
1A8
330
6C
100
AcDbEntity
  8
Visible (ISO)
100
AcDbSpline
210
0.0
220
0.0
230
1.0
 70
    28
 71
     2
 72
     6
 73
     3
 74
     0
 42
0.0000000001
 43
0.0000000001
 40
0.4256073096284699
 40
0.4256073096284699
 40
0.4256073096284699
 40
0.8365524254088839
 40
0.8365524254088839
 40
0.8365524254088839
 10
200.8988737680833
 20
49.23610880891919
 30
0.0
 41
1.045691116018829
 10
200.8988737680836
 20
47.33471013914779
 30
0.0
 41
1.044904085362813
 10
200.8988737680836
 20
45.58747892908757
 30
0.0
 41
1.0
  0
ARC
  5
1A9
330
6C
100
AcDbEntity
  8
Visible (ISO)
100
AcDbCircle
 10
192.3988737680833
 20
45.58747892908757
 30
0.0
 40
9.250000000000015
100
AcDbArc
 50
23.23145650500757
 51
36.76854349499269
  0
ARC
  5
1AA
330
6C
100
AcDbEntity
  8
Visible (ISO)
100
AcDbCircle
 10
192.3988737680836
 20
45.58747892908757
 30
0.0
 40
8.499999999999987
100
AcDbArc
 50
0.0
 51
60.0
  0
SPLINE
  5
1AB
330
6C
100
AcDbEntity
  8
Visible (ISO)
100
AcDbSpline
210
0.0
220
0.0
230
1.0
 70
    28
 71
     2
 72
     6
 73
     3
 74
     0
 42
0.0000000001
 43
0.0000000001
 40
0.8365524254088839
 40
0.8365524254088839
 40
0.8365524254088839
 40
1.247497541189297
 40
1.247497541189297
 40
1.247497541189297
 10
200.8988737680836
 20
45.58747892908757
 30
0.0
 41
1.0
 10
200.8988737680836
 20
43.84024771902736
 30
0.0
 41
1.044904085362817
 10
200.8988737680833
 20
41.93884904925599
 30
0.0
 41
1.04569111601883
  0
ARC
  5
1AC
330
6C
100
AcDbEntity
  8
Visible (ISO)
100
AcDbCircle
 10
192.3988737680836
 20
45.58747892908757
 30
0.0
 40
8.499999999999996
100
AcDbArc
 50
300.0
 51
0.0
  0
ARC
  5
1AD
330
6C
100
AcDbEntity
  8
Visible (ISO)
100
AcDbCircle
 10
192.3988737680831
 20
45.58747892908765
 30
0.0
 40
9.250000000000159
100
AcDbArc
 50
323.2314565050078
 51
336.7685434949923
  0
ARC
  5
1AE
330
6C
100
AcDbEntity
  8
Visible (ISO)
100
AcDbCircle
 10
192.3988737680836
 20
45.58747892908757
 30
0.0
 40
8.499999999999996
100
AcDbArc
 50
240.0
 51
300.0
  0
SPLINE
  5
1AF
330
6C
100
AcDbEntity
  8
Visible (ISO)
100
AcDbSpline
210
0.0
220
0.0
230
1.0
 70
    28
 71
     2
 72
     6
 73
     3
 74
     0
 42
0.0000000001
 43
0.0000000001
 40
0.8365524254088846
 40
0.8365524254088846
 40
0.8365524254088846
 40
1.2474975411893
 40
1.2474975411893
 40
1.2474975411893
 10
188.1488737680836
 20
38.22626299691986
 30
0.0
 41
1.0
 10
186.6357271538863
 20
39.09987860194997
 30
0.0
 41
1.044904085362819
 10
184.9890676031422
 20
40.05057793683568
 30
0.0
 41
1.045691116018833
  0
SPLINE
  5
1B0
330
6C
100
AcDbEntity
  8
Visible (ISO)
100
AcDbSpline
210
0.0
220
0.0
230
1.0
 70
    28
 71
     2
 72
     6
 73
     3
 74
     0
 42
0.0000000001
 43
0.0000000001
 40
0.4256073096284686
 40
0.4256073096284686
 40
0.4256073096284686
 40
0.8365524254088844
 40
0.8365524254088844
 40
0.8365524254088844
 10
184.9890676031422
 20
51.12437992133951
 30
0.0
 41
1.045691116018839
 10
186.6357271538863
 20
52.07507925622518
 30
0.0
 41
1.044904085362823
 10
188.1488737680836
 20
52.94869486125532
 30
0.0
 41
1.0
  0
SPLINE
  5
1B1
330
6C
100
AcDbEntity
  8
Visible (ISO)
100
AcDbSpline
210
0.0
220
0.0
230
1.0
 70
    28
 71
     2
 72
     6
 73
     3
 74
     0
 42
0.0000000001
 43
0.0000000001
 40
0.4256073096284702
 40
0.4256073096284702
 40
0.4256073096284702
 40
0.8365524254088839
 40
0.8365524254088839
 40
0.8365524254088839
 10
193.4890676031422
 20
54.77300980117112
 30
0.0
 41
1.04569111601883
 10
195.1357271538863
 20
53.82231046628543
 30
0.0
 41
1.044904085362817
 10
196.6488737680835
 20
52.94869486125532
 30
0.0
 41
1.0
  0
ARC
  5
1B2
330
6C
100
AcDbEntity
  8
Visible (ISO)
100
AcDbCircle
 10
192.3988737680833
 20
45.58747892908757
 30
0.0
 40
9.250000000000023
100
AcDbArc
 50
83.23145650500768
 51
96.76854349499231
  0
SPLINE
  5
1B3
330
6C
100
AcDbEntity
  8
Visible (ISO)
100
AcDbSpline
210
0.0
220
0.0
230
1.0
 70
    28
 71
     2
 72
     6
 73
     3
 74
     0
 42
0.0000000001
 43
0.0000000001
 40
0.8365524254088844
 40
0.8365524254088844
 40
0.8365524254088844
 40
1.2474975411893
 40
1.2474975411893
 40
1.2474975411893
 10
188.1488737680836
 20
52.94869486125532
 30
0.0
 41
1.0
 10
189.6620203822807
 20
53.82231046628543
 30
0.0
 41
1.044904085362819
 10
191.3086799330244
 20
54.77300980117114
 30
0.0
 41
1.045691116018834
  0
SPLINE
  5
1B4
330
6C
100
AcDbEntity
  8
Visible (ISO)
100
AcDbSpline
210
0.0
220
0.0
230
1.0
 70
    28
 71
     2
 72
     6
 73
     3
 74
     0
 42
0.0000000001
 43
0.0000000001
 40
0.8365524254088839
 40
0.8365524254088839
 40
0.8365524254088839
 40
1.247497541189297
 40
1.247497541189297
 40
1.247497541189297
 10
196.6488737680835
 20
52.94869486125532
 30
0.0
 41
1.0
 10
198.1620203822807
 20
52.07507925622522
 30
0.0
 41
1.044904085362814
 10
199.8086799330245
 20
51.12437992133951
 30
0.0
 41
1.04569111601883
  0
SPLINE
  5
1B5
330
6C
100
AcDbEntity
  8
Visible (ISO)
100
AcDbSpline
210
0.0
220
0.0
230
1.0
 70
    28
 71
     2
 72
     6
 73
     3
 74
     0
 42
0.0000000001
 43
0.0000000001
 40
0.4256073096284691
 40
0.4256073096284691
 40
0.4256073096284691
 40
0.8365524254088837
 40
0.8365524254088837
 40
0.8365524254088837
 10
199.8086799330245
 20
40.05057793683564
 30
0.0
 41
1.045691116018833
 10
198.1620203822807
 20
39.09987860194997
 30
0.0
 41
1.044904085362819
 10
196.6488737680835
 20
38.22626299691986
 30
0.0
 41
1.0
  0
SPLINE
  5
1B6
330
6C
100
AcDbEntity
  8
Visible (ISO)
100
AcDbSpline
210
0.0
220
0.0
230
1.0
 70
    28
 71
     2
 72
     6
 73
     3
 74
     0
 42
0.0000000001
 43
0.0000000001
 40
0.8365524254088837
 40
0.8365524254088837
 40
0.8365524254088837
 40
1.247497541189299
 40
1.247497541189299
 40
1.247497541189299
 10
196.6488737680835
 20
38.22626299691986
 30
0.0
 41
1.0
 10
195.1357271538863
 20
37.35264739188976
 30
0.0
 41
1.044904085362823
 10
193.4890676031422
 20
36.40194805700406
 30
0.0
 41
1.045691116018837
  0
SPLINE
  5
1B7
330
6C
100
AcDbEntity
  8
Visible (ISO)
100
AcDbSpline
210
0.0
220
0.0
230
1.0
 70
    28
 71
     2
 72
     6
 73
     3
 74
     0
 42
0.0000000001
 43
0.0000000001
 40
0.4256073096284692
 40
0.4256073096284692
 40
0.4256073096284692
 40
0.8365524254088846
 40
0.8365524254088846
 40
0.8365524254088846
 10
191.3086799330244
 20
36.40194805700406
 30
0.0
 41
1.045691116018834
 10
189.6620203822807
 20
37.35264739188976
 30
0.0
 41
1.044904085362819
 10
188.1488737680836
 20
38.22626299691986
 30
0.0
 41
1.0
  0
ARC
  5
1B8
330
6C
100
AcDbEntity
  8
Visible (ISO)
100
AcDbCircle
 10
192.3988737680833
 20
45.58747892908757
 30
0.0
 40
9.25
100
AcDbArc
 50
263.2314565050076
 51
276.7685434949923
  0
LINE
  5
1B9
330
6C
100
AcDbEntity
  8
Visible (ISO)
100
AcDbLine
 10
206.8988737680801
 20
37.0874789290876
 30
0.0
 11
206.8988737680801
 21
54.08747892908759
 31
0.0
  0
SPLINE
  5
1BA
330
6C
100
AcDbEntity
  8
Visible (ISO)
100
AcDbSpline
210
0.0
220
0.0
230
1.0
 70
     8
 71
     3
 72
    10
 73
     6
 74
     0
 42
0.0000000001
 43
0.0000000001
 40
0.4684177548466585
 40
0.4684177548466585
 40
0.4684177548466585
 40
0.4684177548466585
 40
0.6993240282055356
 40
0.6993240282055356
 40
0.9303035210404576
 40
0.9303035210404576
 40
0.9303035210607802
 40
0.9303035210607802
 10
196.5712847448449
 20
52.99349090326089
 30
0.0
 10
197.0768635863062
 20
53.27832509289136
 30
0.0
 10
197.5275874444635
 20
53.56817011607933
 30
0.0
 10
198.1392630302291
 20
53.97435929937761
 30
0.0
 10
198.2988737680803
 20
54.08747892908761
 30
0.0
 10
198.2988737680801
 20
54.08747892908761
 30
0.0
  0
LINE
  5
1BB
330
6C
100
AcDbEntity
  8
Visible (ISO)
100
AcDbLine
 10
198.2988737680801
 20
54.08747892908761
 30
0.0
 11
206.8988737680801
 21
54.08747892908761
 31
0.0
  0
LINE
  5
1BC
330
6C
100
AcDbEntity
  8
Visible (ISO)
100
AcDbLine
 10
194.6764419037446
 20
37.0874789290876
 30
0.0
 11
206.8988737680801
 21
37.0874789290876
 31
0.0
  0
LINE
  5
1BD
330
6C
100
AcDbEntity
  8
Visible (ISO)
100
AcDbLine
 10
207.39887376808
 20
37.5874789290876
 30
0.0
 11
206.8988737680801
 21
37.08747892908757
 31
0.0
  0
LINE
  5
1BE
330
6C
100
AcDbEntity
  8
Visible (ISO)
100
AcDbLine
 10
207.39887376808
 20
53.58747892908759
 30
0.0
 11
206.8988737680801
 21
54.08747892908761
 31
0.0
  0
LINE
  5
1BF
330
6C
100
AcDbEntity
  8
Visible (ISO)
100
AcDbLine
 10
186.4988737680801
 20
51.99606691709242
 30
0.0
 11
186.4988737680801
 21
56.08747892908762
 31
0.0
  0
LINE
  5
1C0
330
6C
100
AcDbEntity
  8
Visible (ISO)
100
AcDbLine
 10
198.2988737680801
 20
54.08747892908759
 30
0.0
 11
198.2988737680801
 21
56.08747892908762
 31
0.0
  0
CIRCLE
  5
1C1
330
6C
100
AcDbEntity
  8
Visible Narrow (ISO)
100
AcDbCircle
 10
192.3988737680873
 20
45.58747892908757
 30
0.0
 40
6.569127875860302
  0
ARC
  5
1C2
330
6C
100
AcDbEntity
  8
Visible (ISO)
100
AcDbCircle
 10
178.398873768081
 20
72.10643445246529
 30
0.0
 40
5.999999999999982
100
AcDbArc
 50
180.0
 51
275.5801667844743
  0
LINE
  5
1C3
330
6C
100
AcDbEntity
  8
Visible (ISO)
100
AcDbLine
 10
172.3988737680811
 20
72.10643445246526
 30
0.0
 11
172.3988737680811
 21
74.08747892908758
 31
0.0
  0
ARC
  5
1C4
330
6C
100
AcDbEntity
  8
Visible (ISO)
100
AcDbCircle
 10
178.0099202038151
 20
76.08747892908758
 30
0.0
 40
9.999999999999976
100
AcDbArc
 50
275.5801667844743
 51
336.4218215217976
  0
LINE
  5
1C5
330
6C
100
AcDbEntity
  8
Visible (ISO)
100
AcDbLine
 10
170.2234369065446
 20
74.08747892908758
 30
0.0
 11
152.3988737680812
 21
74.08747892908758
 31
0.0
  0
LINE
  5
1C6
330
6C
100
AcDbEntity
  8
Visible (ISO)
100
AcDbLine
 10
172.3988737680811
 20
74.08747892908758
 30
0.0
 11
170.2234369065446
 21
74.08747892908758
 31
0.0
  0
ARC
  5
1C7
330
6C
100
AcDbEntity
  8
Visible (ISO)
100
AcDbCircle
 10
157.3988737680812
 20
67.0874789290876
 30
0.0
 40
4.999999999999983
100
AcDbArc
 50
180.0
 51
270.0
  0
LINE
  5
1C8
330
6C
100
AcDbEntity
  8
Visible (ISO)
100
AcDbLine
 10
157.3988737680812
 20
62.0874789290876
 30
0.0
 11
165.3988737680812
 21
62.0874789290876
 31
0.0
  0
ARC
  5
1C9
330
6C
100
AcDbEntity
  8
Visible (ISO)
100
AcDbCircle
 10
165.5067296591815
 20
17.08747892908402
 30
0.0
 40
45.00012925418731
100
AcDbArc
 50
83.98346803219537
 51
90.13732612271907
  0
SPLINE
  5
1CA
330
6C
100
AcDbEntity
  8
Visible (ISO)
100
AcDbSpline
210
0.0
220
0.0
230
1.0
 70
     8
 71
     3
 72
    14
 73
    10
 74
     0
 42
0.0000000001
 43
0.0000000001
 40
1.926793397172414
 40
1.926793397172414
 40
1.926793397172414
 40
1.926793397172414
 40
1.976560793808679
 40
1.976560793808679
 40
2.130659566433751
 40
2.130659566433751
 40
2.28132205146695
 40
2.28132205146695
 40
2.334003023765768
 40
2.334003023765768
 40
2.334003023765768
 40
2.334003023765768
 10
183.0735873786439
 20
58.94783268059478
 30
0.0
 10
183.2397329278603
 20
58.90274090986602
 30
0.0
 10
183.4038689468703
 20
58.8466183117937
 30
0.0
 10
184.0583517245098
 20
58.5740652439804
 30
0.0
 10
184.5099329923698
 20
58.2634152146689
 30
0.0
 10
185.2157790546663
 20
57.55127956242528
 30
0.0
 10
185.5203692766671
 20
57.10493171221025
 30
0.0
 10
185.7937469597768
 20
56.44308728572617
 30
0.0
 10
185.8526788729456
 20
56.2663909886295
 30
0.0
 10
185.8988737680817
 20
56.08747892908763
 30
0.0
  0
LINE
  5
1CB
330
6C
100
AcDbEntity
  8
Visible (ISO)
100
AcDbLine
 10
177.2933542776452
 20
60.51658337526141
 30
0.0
 11
183.0735873786439
 21
58.94783268059478
 31
0.0
  0
SPLINE
  5
1CC
330
6C
100
AcDbEntity
  8
Visible (ISO)
100
AcDbSpline
210
0.0
220
0.0
230
1.0
 70
     8
 71
     3
 72
    10
 73
     6
 74
     0
 42
0.0000000001
 43
0.0000000001
 40
4.585290746366443
 40
4.585290746366443
 40
4.585290746366443
 40
4.585290746366443
 40
4.831732503296846
 40
4.831732503296846
 40
5.274628023622251
 40
5.274628023622251
 40
5.274628023622251
 40
5.274628023622251
 10
170.2234369065446
 20
61.83973368385855
 30
0.0
 10
171.0928915069786
 20
61.74809667388904
 30
0.0
 10
171.9565783381281
 20
61.63138549744608
 30
0.0
 10
174.3445252207349
 20
61.23861240622129
 30
0.0
 10
175.8466372555151
 20
60.90922123152029
 30
0.0
 10
177.2933542776453
 20
60.51658337526141
 30
0.0
  0
LINE
  5
1CD
330
6C
100
AcDbEntity
  8
Visible Narrow (ISO)
100
AcDbLine
 10
170.2234369065446
 20
65.08222250707826
 30
0.0
 11
170.2234369065446
 21
61.83973368385855
 31
0.0
  0
LINE
  5
1CE
330
6C
100
AcDbEntity
  8
Visible (ISO)
100
AcDbLine
 10
152.3988737680812
 20
67.0874789290876
 30
0.0
 11
152.3988737680812
 21
74.08747892908758
 31
0.0
  0
SPLINE
  5
1CF
330
6C
100
AcDbEntity
  8
Visible (ISO)
100
AcDbSpline
210
0.0
220
0.0
230
1.0
 70
     8
 71
     3
 72
    10
 73
     6
 74
     0
 42
0.0000000001
 43
0.0000000001
 40
1.75851045369192
 40
1.75851045369192
 40
1.75851045369192
 40
1.75851045369192
 40
1.769985036102441
 40
1.769985036102441
 40
1.77528265148158
 40
1.77528265148158
 40
1.77528265148158
 40
1.77528265148158
 10
190.2429285176549
 20
56.08747892908766
 30
0.0
 10
190.2793178183549
 20
56.08747892908766
 30
0.0
 10
190.315607063983
 20
56.09376769569021
 30
0.0
 10
190.367092946046
 20
56.11103494750988
 30
0.0
 10
190.3831311645868
 20
56.11765867740484
 30
0.0
 10
190.3988737680821
 20
56.12529585288761
 30
0.0
  0
LINE
  5
1D0
330
6C
100
AcDbEntity
  8
Visible (ISO)
100
AcDbLine
 10
190.392074410165
 20
56.08747892908763
 30
0.0
 11
190.2429285176569
 21
56.08747892908763
 31
0.0
  0
SPLINE
  5
1D1
330
6C
100
AcDbEntity
  8
Visible (ISO)
100
AcDbSpline
210
0.0
220
0.0
230
1.0
 70
     8
 71
     3
 72
     8
 73
     4
 74
     0
 42
0.0000000001
 43
0.0000000001
 40
-0.0038487373741095
 40
-0.0038487373741095
 40
-0.0038487373741095
 40
-0.0038487373741095
 40
0.0
 40
0.0
 40
0.0
 40
0.0
 10
190.3988737680821
 20
56.12529585288759
 30
0.0
 10
190.3966077544514
 20
56.11269013268636
 30
0.0
 10
190.3943413018087
 20
56.10008449051903
 30
0.0
 10
190.392074410165
 20
56.08747892908763
 30
0.0
  0
SPLINE
  5
1D2
330
6C
100
AcDbEntity
  8
Visible (ISO)
100
AcDbSpline
210
0.0
220
0.0
230
1.0
 70
     8
 71
     3
 72
    22
 73
    18
 74
     0
 42
0.0000000001
 43
0.0000000001
 40
0.9432407987623507
 40
0.9432407987623507
 40
0.9432407987623507
 40
0.9432407987623507
 40
1.171120556264495
 40
1.171120556264495
 40
1.366307315641912
 40
1.366307315641912
 40
1.561494075019328
 40
1.561494075019328
 40
1.637053099534583
 40
1.637053099534583
 40
1.712612124049838
 40
1.712612124049838
 40
1.735561288870879
 40
1.735561288870879
 40
1.7470358712814
 40
1.7470358712814
 40
1.75851045369192
 40
1.75851045369192
 40
1.75851045369192
 40
1.75851045369192
 10
187.9243268840014
 20
64.08747892908761
 30
0.0
 10
188.0470110213802
 20
63.2710550390983
 30
0.0
 10
188.1768433116243
 20
62.46144524664772
 30
0.0
 10
188.4386069756698
 20
60.9839193041197
 30
0.0
 10
188.5672818634709
 20
60.31250834721527
 30
0.0
 10
188.854157931342
 20
58.99982002057782
 30
0.0
 10
189.0098014708344
 20
58.35793124437095
 30
0.0
 10
189.28117298185
 20
57.50120931264867
 30
0.0
 10
189.3710247980041
 20
57.24114630127383
 30
0.0
 10
189.5834610487037
 20
56.7421904233304
 30
0.0
 10
189.7018531501493
 20
56.50134358995984
 30
0.0
 10
189.9097965901165
 20
56.25591153129938
 30
0.0
 10
189.9680201697515
 20
56.19817524416045
 30
0.0
 10
190.0654823257372
 20
56.13472254306103
 30
0.0
 10
190.0997017705611
 20
56.11739423605119
 30
0.0
 10
190.1702287879359
 20
56.09376769569044
 30
0.0
 10
190.2065392169548
 20
56.08747892908766
 30
0.0
 10
190.2429285176549
 20
56.08747892908766
 30
0.0
  0
SPLINE
  5
1D3
330
6C
100
AcDbEntity
  8
Visible (ISO)
100
AcDbSpline
210
0.0
220
0.0
230
1.0
 70
     8
 71
     3
 72
    10
 73
     6
 74
     0
 42
0.0000000001
 43
0.0000000001
 40
1.5278493950117
 40
1.5278493950117
 40
1.5278493950117
 40
1.5278493950117
 40
1.623235420363269
 40
1.623235420363269
 40
1.651542757804969
 40
1.651542757804969
 40
1.651542757804969
 40
1.651542757804969
 10
188.6845376397845
 20
65.08222250707826
 30
0.0
 10
188.4615580466122
 20
64.84301564258839
 30
0.0
 10
188.2591481594627
 20
64.57836573739155
 30
0.0
 10
188.0275405801939
 20
64.24373251447386
 30
0.0
 10
187.9755123206872
 20
64.16608418863262
 30
0.0
 10
187.9243268840014
 20
64.08747892908761
 30
0.0
  0
LINE
  5
1D4
330
6C
100
AcDbEntity
  8
Visible (ISO)
100
AcDbLine
 10
170.2234369065446
 20
65.08222250707826
 30
0.0
 11
188.6845376397845
 21
65.08222250707826
 31
0.0
  0
LINE
  5
1D5
330
6C
100
AcDbEntity
  8
Visible (ISO)
100
AcDbLine
 10
190.2429285176549
 20
56.08747892908763
 30
0.0
 11
185.8988737680818
 21
56.08747892908763
 31
0.0
  0
LINE
  5
1D6
330
6C
100
AcDbEntity
  8
Visible (ISO)
100
AcDbLine
 10
170.2234369065446
 20
65.08222250707826
 30
0.0
 11
170.2234369065446
 21
74.08747892908758
 31
0.0
  0
SPLINE
  5
1D7
330
6C
100
AcDbEntity
  8
Visible (ISO)
100
AcDbSpline
210
0.0
220
0.0
230
1.0
 70
    12
 71
     2
 72
     6
 73
     3
 74
     0
 42
0.0000000001
 43
0.0000000001
 40
0.0
 40
0.0
 40
0.0
 40
0.735020748025817
 40
0.735020748025817
 40
0.735020748025817
 10
187.1750715937265
 20
72.08747892908758
 30
0.0
 41
1.0
 10
186.4271086367446
 20
69.07224258922845
 30
0.0
 41
1.010647833931205
 10
185.4469329297636
 20
65.08222250707826
 30
0.0
 41
1.002310889209607
  0
LINE
  5
1D8
330
6C
100
AcDbEntity
  8
Visible (ISO)
100
AcDbLine
 10
185.3988737680801
 20
56.08747892908763
 30
0.0
 11
185.898873768081
 21
56.08747892908763
 31
0.0
  0
LINE
  5
1D9
330
6C
100
AcDbEntity
  8
Visible (ISO)
100
AcDbLine
 10
185.3988737680801
 20
56.08747892908763
 30
0.0
 11
185.3281550672824
 21
57.34470027660254
 31
0.0
  0
LINE
  5
1DA
330
6C
100
AcDbEntity
  8
Visible (ISO)
100
AcDbLine
 10
190.3988737680821
 20
56.08747892908763
 30
0.0
 11
190.392074410165
 21
56.08747892908763
 31
0.0
  0
SPLINE
  5
1DB
330
6C
100
AcDbEntity
  8
Visible (ISO)
100
AcDbSpline
210
0.0
220
0.0
230
1.0
 70
    28
 71
     2
 72
     6
 73
     3
 74
     0
 42
0.0000000001
 43
0.0000000001
 40
0.7974519034631254
 40
0.7974519034631254
 40
0.7974519034631254
 40
0.8013696042749975
 40
0.8013696042749975
 40
0.8013696042749975
 10
190.3988737680821
 20
56.12529585288761
 30
0.0
 41
1.000005114022332
 10
190.3988737680821
 20
56.1063842631604
 30
0.0
 41
1.000002569573184
 10
190.3988737680821
 20
56.08747892908763
 30
0.0
 41
1.0
  0
LINE
  5
1DC
330
6C
100
AcDbEntity
  8
Visible (ISO)
100
AcDbLine
 10
190.3988737680821
 20
56.08747892908763
 30
0.0
 11
199.39887376808
 21
56.08747892908763
 31
0.0
  0
LINE
  5
1DD
330
6C
100
AcDbEntity
  8
Visible (ISO)
100
AcDbLine
 10
187.1750715937265
 20
72.08747892908758
 30
0.0
 11
197.6903763902097
 21
72.08747892908758
 31
0.0
  0
LINE
  5
1DE
330
6C
100
AcDbEntity
  8
Visible (ISO)
100
AcDbLine
 10
187.9243268840014
 20
64.08747892908761
 30
0.0
 11
199.84887376808
 21
64.08747892908761
 31
0.0
  0
LINE
  5
1DF
330
6C
100
AcDbEntity
  8
Visible (ISO)
100
AcDbLine
 10
197.89887376808
 20
72.08747892908758
 30
0.0
 11
199.84887376808
 21
64.08747892908761
 31
0.0
  0
LINE
  5
1E0
330
6C
100
AcDbEntity
  8
Visible (ISO)
100
AcDbLine
 10
199.39887376808
 20
56.08747892908763
 30
0.0
 11
199.84887376808
 21
64.08747892908761
 31
0.0
  0
LINE
  5
1E1
330
6C
100
AcDbEntity
  8
Visible (ISO)
100
AcDbLine
 10
187.1073711459514
 20
72.08747892908758
 30
0.0
 11
187.1750715937265
 21
72.08747892908758
 31
0.0
  0
LINE
  5
1E2
330
6C
100
AcDbEntity
  8
Visible (ISO)
100
AcDbLine
 10
186.8988737680801
 20
72.08747892908758
 30
0.0
 11
186.6442394050866
 21
71.0428251321912
 31
0.0
  0
LINE
  5
1E3
330
6C
100
AcDbEntity
  8
Visible (ISO)
100
AcDbLine
 10
188.8988737680808
 20
72.89747892908758
 30
0.0
 11
189.8988737680811
 21
72.89747892908758
 31
0.0
  0
LINE
  5
1E4
330
6C
100
AcDbEntity
  8
Visible (ISO)
100
AcDbLine
 10
189.8988737680811
 20
72.89747892908758
 30
0.0
 11
190.8988737680808
 21
72.89747892908758
 31
0.0
  0
LINE
  5
1E5
330
6C
100
AcDbEntity
  8
Visible (ISO)
100
AcDbLine
 10
190.8988737680796
 20
72.89747892908758
 30
0.0
 11
191.8988737680794
 21
72.89747892908758
 31
0.0
  0
LINE
  5
1E6
330
6C
100
AcDbEntity
  8
Visible (ISO)
100
AcDbLine
 10
191.8988737680795
 20
72.89747892908758
 30
0.0
 11
194.8988737680796
 21
72.89747892908758
 31
0.0
  0
LINE
  5
1E7
330
6C
100
AcDbEntity
  8
Visible (ISO)
100
AcDbLine
 10
194.8988737680796
 20
72.89747892908758
 30
0.0
 11
195.8988737680793
 21
72.89747892908758
 31
0.0
  0
LINE
  5
1E8
330
6C
100
AcDbEntity
  8
Visible (ISO)
100
AcDbLine
 10
190.8988737680808
 20
72.88747892908759
 30
0.0
 11
190.8988737680808
 21
72.89747892908758
 31
0.0
  0
LINE
  5
1E9
330
6C
100
AcDbEntity
  8
Visible (ISO)
100
AcDbLine
 10
189.8988737680811
 20
72.88747892908759
 30
0.0
 11
189.8988737680811
 21
72.89747892908758
 31
0.0
  0
LINE
  5
1EA
330
6C
100
AcDbEntity
  8
Visible (ISO)
100
AcDbLine
 10
188.8988737680808
 20
72.88747892908759
 30
0.0
 11
188.8988737680808
 21
72.89747892908758
 31
0.0
  0
LINE
  5
1EB
330
6C
100
AcDbEntity
  8
Visible (ISO)
100
AcDbLine
 10
195.8988737680793
 20
72.88747892908759
 30
0.0
 11
195.8988737680793
 21
72.89747892908758
 31
0.0
  0
LINE
  5
1EC
330
6C
100
AcDbEntity
  8
Visible (ISO)
100
AcDbLine
 10
194.8988737680796
 20
72.88747892908759
 30
0.0
 11
194.8988737680796
 21
72.89747892908758
 31
0.0
  0
LINE
  5
1ED
330
6C
100
AcDbEntity
  8
Visible Narrow (ISO)
100
AcDbLine
 10
191.8988737680795
 20
72.88747892908759
 30
0.0
 11
191.8988737680795
 21
72.89747892908758
 31
0.0
  0
LINE
  5
1EE
330
6C
100
AcDbEntity
  8
Visible (ISO)
100
AcDbLine
 10
187.499894282514
 20
72.88747892908759
 30
0.0
 11
197.2978532536467
 21
72.88747892908759
 31
0.0
  0
SPLINE
  5
1EF
330
6C
100
AcDbEntity
  8
Visible (ISO)
100
AcDbSpline
210
0.0
220
0.0
230
1.0
 70
     8
 71
     3
 72
    18
 73
    14
 74
     0
 42
0.0000000001
 43
0.0000000001
 40
-0.0894071042414384
 40
-0.0894071042414384
 40
-0.0894071042414384
 40
-0.0894071042414384
 40
-0.0890024393096829
 40
-0.0890024393096829
 40
-0.071331341192769
 40
-0.071331341192769
 40
-0.054286520760514
 40
-0.054286520760514
 40
-0.033079826196916
 40
-0.033079826196916
 40
-0.0157603010710298
 40
-0.0157603010710298
 40
0.0
 40
0.0
 40
0.0
 40
0.0
 10
187.499894282514
 20
72.88747892908759
 30
0.0
 10
187.4990350441925
 20
72.88747892908759
 30
0.0
 10
187.4981759402884
 20
72.88747560678046
 30
0.0
 10
187.4598076514759
 20
72.8871787070468
 30
0.0
 10
187.4224883449255
 20
72.88054856417709
 30
0.0
 10
187.3516528026734
 20
72.8545440013208
 30
0.0
 10
187.3179172361474
 20
72.83557785666054
 30
0.0
 10
187.2471746648839
 20
72.7784169712967
 30
0.0
 10
187.2113738576288
 20
72.73663518137647
 30
0.0
 10
187.1579561419397
 20
72.64242894273643
 30
0.0
 10
187.1385413956369
 20
72.5939001929392
 30
0.0
 10
187.1136178339996
 20
72.49154977826269
 30
0.0
 10
187.1073711459514
 20
72.44001326599105
 30
0.0
 10
187.1073711459514
 20
72.38747892908759
 30
0.0
  0
LINE
  5
1F0
330
6C
100
AcDbEntity
  8
Visible Narrow (ISO)
100
AcDbLine
 10
197.6903763902097
 20
72.38747892908759
 30
0.0
 11
187.1073711459514
 21
72.38747892908759
 31
0.0
  0
SPLINE
  5
1F1
330
6C
100
AcDbEntity
  8
Visible (ISO)
100
AcDbSpline
210
0.0
220
0.0
230
1.0
 70
     8
 71
     3
 72
    18
 73
    14
 74
     0
 42
0.0000000001
 43
0.0000000001
 40
-0.0896419378859127
 40
-0.0896419378859127
 40
-0.0896419378859127
 40
-0.0896419378859127
 40
-0.0737683962096255
 40
-0.0737683962096255
 40
-0.0563244271724696
 40
-0.0563244271724696
 40
-0.0349653586842182
 40
-0.0349653586842182
 40
-0.0177980681434567
 40
-0.0177980681434567
 40
0.0
 40
0.0
 40
0.0004075725222773
 40
0.0004075725222773
 40
0.0004075725222773
 40
0.0004075725222773
 10
197.6903763902097
 20
72.38747892908759
 30
0.0
 10
197.6903763902097
 20
72.44001326599105
 30
0.0
 10
197.6841297021614
 20
72.49154977826269
 30
0.0
 10
197.6592061405241
 20
72.5939001929392
 30
0.0
 10
197.6397913942213
 20
72.64242894273643
 30
0.0
 10
197.5863736785321
 20
72.73663518137647
 30
0.0
 10
197.5505728712771
 20
72.7784169712967
 30
0.0
 10
197.4798303000135
 20
72.83557785666054
 30
0.0
 10
197.4460947334875
 20
72.8545440013208
 30
0.0
 10
197.3752591912353
 20
72.88054856417708
 30
0.0
 10
197.3379398846856
 20
72.8871787070468
 30
0.0
 10
197.2995715958723
 20
72.88747560678046
 30
0.0
 10
197.2987124919681
 20
72.88747892908759
 30
0.0
 10
197.2978532536467
 20
72.88747892908759
 30
0.0
  0
LINE
  5
1F2
330
6C
100
AcDbEntity
  8
Visible Narrow (ISO)
100
AcDbLine
 10
186.9905468548845
 20
72.38747892908759
 30
0.0
 11
186.9905468548844
 21
72.88747892908759
 31
0.0
  0
LINE
  5
1F3
330
6C
100
AcDbEntity
  8
Visible Narrow (ISO)
100
AcDbLine
 10
186.9905468548846
 20
72.38747892908759
 30
0.0
 11
187.1073711459514
 21
72.38747892908759
 31
0.0
  0
LINE
  5
1F4
330
6C
100
AcDbEntity
  8
Visible (ISO)
100
AcDbLine
 10
187.499894282514
 20
72.88747892908759
 30
0.0
 11
186.9905468548844
 21
72.88747892908759
 31
0.0
  0
LINE
  5
1F5
330
6C
100
AcDbEntity
  8
Visible Narrow (ISO)
100
AcDbLine
 10
197.8072006812763
 20
72.88747892908759
 30
0.0
 11
197.8072006812765
 21
72.38747892908759
 31
0.0
  0
LINE
  5
1F6
330
6C
100
AcDbEntity
  8
Visible (ISO)
100
AcDbLine
 10
197.8072006812763
 20
72.88747892908759
 30
0.0
 11
197.2978532536467
 21
72.88747892908759
 31
0.0
  0
LINE
  5
1F7
330
6C
100
AcDbEntity
  8
Visible Narrow (ISO)
100
AcDbLine
 10
197.6903763902097
 20
72.38747892908759
 30
0.0
 11
197.8072006812765
 21
72.38747892908759
 31
0.0
  0
ELLIPSE
  5
1F8
330
6C
100
AcDbEntity
  8
Visible Narrow (ISO)
100
AcDbEllipse
 10
197.8072006812763
 20
72.38747892908759
 30
0.0
 11
0.0
 21
0.5
 31
0.0
210
0.0
220
0.0
230
1.0
 40
0.9833321660356871
 41
4.712388980384688
 42
6.283185307179584
  0
LINE
  5
1F9
330
6C
100
AcDbEntity
  8
Visible Narrow (ISO)
100
AcDbLine
 10
198.39887376808
 20
72.38747892908759
 30
0.0
 11
198.2988667642942
 21
72.38747892908759
 31
0.0
  0
LINE
  5
1FA
330
6C
100
AcDbEntity
  8
Visible (ISO)
100
AcDbLine
 10
197.8072006812763
 20
72.88747892908759
 30
0.0
 11
197.89887376808
 21
72.88747892908759
 31
0.0
  0
LINE
  5
1FB
330
6C
100
AcDbEntity
  8
Visible Narrow (ISO)
100
AcDbLine
 10
198.2988667642942
 20
72.38747892908759
 30
0.0
 11
197.8072006812765
 21
72.38747892908759
 31
0.0
  0
LINE
  5
1FC
330
6C
100
AcDbEntity
  8
Visible Narrow (ISO)
100
AcDbLine
 10
186.4988807718666
 20
72.38747892908759
 30
0.0
 11
186.3988737680801
 21
72.38747892908759
 31
0.0
  0
ELLIPSE
  5
1FD
330
6C
100
AcDbEntity
  8
Visible Narrow (ISO)
100
AcDbEllipse
 10
186.9905468548844
 20
72.38747892908759
 30
0.0
 11
0.0
 21
0.5
 31
0.0
210
0.0
220
0.0
230
1.0
 40
0.9833321660355791
 41
0.0
 42
1.570796326794896
  0
LINE
  5
1FE
330
6C
100
AcDbEntity
  8
Visible (ISO)
100
AcDbLine
 10
186.89887376808
 20
72.88747892908759
 30
0.0
 11
186.9905468548844
 21
72.88747892908759
 31
0.0
  0
LINE
  5
1FF
330
6C
100
AcDbEntity
  8
Visible Narrow (ISO)
100
AcDbLine
 10
186.9905468548845
 20
72.38747892908759
 30
0.0
 11
186.4988807718666
 21
72.38747892908759
 31
0.0
  0
ARC
  5
200
330
6C
100
AcDbEntity
  8
Visible (ISO)
100
AcDbCircle
 10
197.89887376808
 20
72.38747892908759
 30
0.0
 40
0.5
100
AcDbArc
 50
0.0
 51
90.0
  0
ARC
  5
201
330
6C
100
AcDbEntity
  8
Visible (ISO)
100
AcDbCircle
 10
186.8988737680801
 20
72.38747892908759
 30
0.0
 40
0.5
100
AcDbArc
 50
90.0
 51
180.0
  0
LINE
  5
202
330
6C
100
AcDbEntity
  8
Visible Narrow (ISO)
100
AcDbLine
 10
197.8072006812765
 20
72.38747892908759
 30
0.0
 11
197.8072006812765
 21
72.0874789290876
 31
0.0
  0
LINE
  5
203
330
6C
100
AcDbEntity
  8
Visible (ISO)
100
AcDbLine
 10
198.2988667642942
 20
72.0874789290876
 30
0.0
 11
197.8072006812765
 21
72.0874789290876
 31
0.0
  0
LINE
  5
204
330
6C
100
AcDbEntity
  8
Visible Narrow (ISO)
100
AcDbLine
 10
198.2988667642942
 20
72.38747892908759
 30
0.0
 11
198.2988667642942
 21
72.0874789290876
 31
0.0
  0
LINE
  5
205
330
6C
100
AcDbEntity
  8
Visible (ISO)
100
AcDbLine
 10
197.6903763902097
 20
72.38747892908759
 30
0.0
 11
197.6903763902097
 21
72.0874789290876
 31
0.0
  0
LINE
  5
206
330
6C
100
AcDbEntity
  8
Visible (ISO)
100
AcDbLine
 10
197.6903763902097
 20
72.0874789290876
 30
0.0
 11
197.8072006812765
 21
72.0874789290876
 31
0.0
  0
LINE
  5
207
330
6C
100
AcDbEntity
  8
Visible (ISO)
100
AcDbLine
 10
187.1073711459514
 20
72.38747892908759
 30
0.0
 11
187.1073711459514
 21
72.0874789290876
 31
0.0
  0
LINE
  5
208
330
6C
100
AcDbEntity
  8
Visible (ISO)
100
AcDbLine
 10
197.6903763902097
 20
72.0874789290876
 30
0.0
 11
187.1073711459514
 21
72.0874789290876
 31
0.0
  0
LINE
  5
209
330
6C
100
AcDbEntity
  8
Visible Narrow (ISO)
100
AcDbLine
 10
186.9905468548846
 20
72.38747892908759
 30
0.0
 11
186.9905468548846
 21
72.0874789290876
 31
0.0
  0
LINE
  5
20A
330
6C
100
AcDbEntity
  8
Visible (ISO)
100
AcDbLine
 10
186.9905468548846
 20
72.0874789290876
 30
0.0
 11
187.1073711459514
 21
72.0874789290876
 31
0.0
  0
LINE
  5
20B
330
6C
100
AcDbEntity
  8
Visible Narrow (ISO)
100
AcDbLine
 10
186.4988807718666
 20
72.38747892908759
 30
0.0
 11
186.4988807718666
 21
72.0874789290876
 31
0.0
  0
LINE
  5
20C
330
6C
100
AcDbEntity
  8
Visible (ISO)
100
AcDbLine
 10
186.9905468548845
 20
72.0874789290876
 30
0.0
 11
186.4988807718666
 21
72.0874789290876
 31
0.0
  0
LINE
  5
20D
330
6C
100
AcDbEntity
  8
Visible (ISO)
100
AcDbLine
 10
186.4988807718666
 20
72.0874789290876
 30
0.0
 11
186.3988737680801
 21
72.0874789290876
 31
0.0
  0
LINE
  5
20E
330
6C
100
AcDbEntity
  8
Visible (ISO)
100
AcDbLine
 10
198.39887376808
 20
72.0874789290876
 30
0.0
 11
198.2988667642942
 21
72.0874789290876
 31
0.0
  0
LINE
  5
20F
330
6C
100
AcDbEntity
  8
Visible (ISO)
100
AcDbLine
 10
186.3988737680801
 20
72.38747892908759
 30
0.0
 11
186.3988737680801
 21
72.0874789290876
 31
0.0
  0
LINE
  5
210
330
6C
100
AcDbEntity
  8
Visible (ISO)
100
AcDbLine
 10
198.39887376808
 20
72.38747892908759
 30
0.0
 11
198.39887376808
 21
72.0874789290876
 31
0.0
  0
SPLINE
  5
211
330
6C
100
AcDbEntity
  8
Visible (ISO)
100
AcDbSpline
210
0.0
220
0.0
230
1.0
 70
    28
 71
     2
 72
     6
 73
     3
 74
     0
 42
0.0000000001
 43
0.0000000001
 40
0.2934711240705181
 40
0.2934711240705181
 40
0.2934711240705181
 40
0.4256073096284865
 40
0.4256073096284865
 40
0.4256073096284865
 10
183.8988737680764
 20
40.68000164097575
 30
0.0
 41
1.041636008661481
 10
183.8988737680765
 20
41.32807714943124
 30
0.0
 41
1.045944179566279
 10
183.8988737680765
 20
41.93884904925596
 30
0.0
 41
1.045691116018838
  0
SPLINE
  5
212
330
6C
100
AcDbEntity
  8
Visible (ISO)
100
AcDbSpline
210
0.0
220
0.0
230
1.0
 70
    28
 71
     2
 72
     6
 73
     3
 74
     0
 42
0.0000000001
 43
0.0000000001
 40
1.247497541189279
 40
1.247497541189279
 40
1.247497541189279
 40
1.379633726747249
 40
1.379633726747249
 40
1.379633726747249
 10
184.9890676031353
 20
40.05057793683564
 30
0.0
 41
1.045691116018826
 10
184.4601236219694
 20
40.35596388674803
 30
0.0
 41
1.045944179566267
 10
183.8988737680764
 20
40.68000164097575
 30
0.0
 41
1.041636008661469
  0
SPLINE
  5
213
330
6C
100
AcDbEntity
  8
Visible (ISO)
100
AcDbSpline
210
0.0
220
0.0
230
1.0
 70
    28
 71
     2
 72
     6
 73
     3
 74
     0
 42
0.0000000001
 43
0.0000000001
 40
0.2934711240705192
 40
0.2934711240705192
 40
0.2934711240705192
 40
0.4256073096284866
 40
0.4256073096284866
 40
0.4256073096284866
 10
183.8988737680764
 20
50.4949562171994
 30
0.0
 41
1.041636008661477
 10
184.4601236219694
 20
50.81899397142715
 30
0.0
 41
1.045944179566274
 10
184.9890676031353
 20
51.12437992133951
 30
0.0
 41
1.045691116018834
  0
SPLINE
  5
214
330
6C
100
AcDbEntity
  8
Visible (ISO)
100
AcDbSpline
210
0.0
220
0.0
230
1.0
 70
    28
 71
     2
 72
     6
 73
     3
 74
     0
 42
0.0000000001
 43
0.0000000001
 40
1.247497541189279
 40
1.247497541189279
 40
1.247497541189279
 40
1.379633726747249
 40
1.379633726747249
 40
1.379633726747249
 10
183.8988737680765
 20
49.23610880891922
 30
0.0
 41
1.045691116018834
 10
183.8988737680765
 20
49.84688070874391
 30
0.0
 41
1.045944179566274
 10
183.8988737680764
 20
50.4949562171994
 30
0.0
 41
1.041636008661477
  0
SPLINE
  5
215
330
6C
100
AcDbEntity
  8
Visible (ISO)
100
AcDbSpline
210
0.0
220
0.0
230
1.0
 70
    28
 71
     2
 72
     6
 73
     3
 74
     0
 42
0.0000000001
 43
0.0000000001
 40
1.247497541189279
 40
1.247497541189279
 40
1.247497541189279
 40
1.37963372674725
 40
1.37963372674725
 40
1.37963372674725
 10
193.4890676031354
 20
36.40194805700406
 30
0.0
 41
1.045691116018834
 10
192.9601236219694
 20
36.09656210709168
 30
0.0
 41
1.045944179566274
 10
192.3988737680765
 20
35.77252435286395
 30
0.0
 41
1.041636008661477
  0
SPLINE
  5
216
330
6C
100
AcDbEntity
  8
Visible (ISO)
100
AcDbSpline
210
0.0
220
0.0
230
1.0
 70
    28
 71
     2
 72
     6
 73
     3
 74
     0
 42
0.0000000001
 43
0.0000000001
 40
0.2934711240705199
 40
0.2934711240705199
 40
0.2934711240705199
 40
0.4256073096284886
 40
0.4256073096284886
 40
0.4256073096284886
 10
192.3988737680765
 20
35.77252435286395
 30
0.0
 41
1.041636008661475
 10
191.8376239141835
 20
36.09656210709168
 30
0.0
 41
1.045944179566271
 10
191.3086799330177
 20
36.40194805700403
 30
0.0
 41
1.045691116018832
  0
SPLINE
  5
217
330
6C
100
AcDbEntity
  8
Visible (ISO)
100
AcDbSpline
210
0.0
220
0.0
230
1.0
 70
    12
 71
     2
 72
     6
 73
     3
 74
     0
 42
0.0000000001
 43
0.0000000001
 40
0.2934711240705181
 40
0.2934711240705181
 40
0.2934711240705181
 40
0.8365524254088843
 40
0.8365524254088843
 40
0.8365524254088843
 10
208.1580631466376
 20
50.4949562171994
 30
0.0
 41
1.041636008661481
 10
207.3988737680827
 20
47.86504706475228
 30
0.0
 41
1.05934264255201
 10
207.3988737680827
 20
45.58747892908757
 30
0.0
 41
1.0
  0
SPLINE
  5
218
330
6C
100
AcDbEntity
  8
Visible (ISO)
100
AcDbSpline
210
0.0
220
0.0
230
1.0
 70
    12
 71
     2
 72
     6
 73
     3
 74
     0
 42
0.0000000001
 43
0.0000000001
 40
0.836552425408885
 40
0.836552425408885
 40
0.836552425408885
 40
1.379633726747249
 40
1.379633726747249
 40
1.379633726747249
 10
207.3988737680813
 20
52.94869486125532
 30
0.0
 41
1.0
 10
207.3988737680821
 20
51.80991079342297
 30
0.0
 41
1.059342642551996
 10
208.1580631466376
 20
50.4949562171994
 30
0.0
 41
1.041636008661469
  0
LINE
  5
219
330
6C
100
AcDbEntity
  8
Visible (ISO)
100
AcDbLine
 10
207.3988737680813
 20
52.94869486125532
 30
0.0
 11
207.3988737680827
 21
45.58747892908757
 31
0.0
  0
SPLINE
  5
21A
330
6C
100
AcDbEntity
  8
Visible (ISO)
100
AcDbSpline
210
0.0
220
0.0
230
1.0
 70
    12
 71
     2
 72
     6
 73
     3
 74
     0
 42
0.0000000001
 43
0.0000000001
 40
0.2934711240705192
 40
0.2934711240705192
 40
0.2934711240705192
 40
0.836552425408885
 40
0.836552425408885
 40
0.836552425408885
 10
208.1580631466376
 20
40.68000164097578
 30
0.0
 41
1.041636008661477
 10
207.398873768082
 20
39.36504706475222
 30
0.0
 41
1.059342642552006
 10
207.3988737680813
 20
38.22626299691986
 30
0.0
 41
1.0
  0
SPLINE
  5
21B
330
6C
100
AcDbEntity
  8
Visible (ISO)
100
AcDbSpline
210
0.0
220
0.0
230
1.0
 70
    12
 71
     2
 72
     6
 73
     3
 74
     0
 42
0.0000000001
 43
0.0000000001
 40
0.8365524254088843
 40
0.8365524254088843
 40
0.8365524254088843
 40
1.379633726747249
 40
1.379633726747249
 40
1.379633726747249
 10
207.3988737680827
 20
45.58747892908757
 30
0.0
 41
1.0
 10
207.3988737680827
 20
43.3099107934229
 30
0.0
 41
1.059342642552006
 10
208.1580631466376
 20
40.68000164097578
 30
0.0
 41
1.041636008661477
  0
LINE
  5
21C
330
6C
100
AcDbEntity
  8
Visible (ISO)
100
AcDbLine
 10
207.3988737680827
 20
45.58747892908757
 30
0.0
 11
207.3988737680813
 21
38.22626299691986
 31
0.0
  0
SPLINE
  5
21D
330
6C
100
AcDbEntity
  8
Visible (ISO)
100
AcDbSpline
210
0.0
220
0.0
230
1.0
 70
    12
 71
     2
 72
     6
 73
     3
 74
     0
 42
0.0000000001
 43
0.0000000001
 40
0.836552425408885
 40
0.836552425408885
 40
0.836552425408885
 40
1.37963372674725
 40
1.37963372674725
 40
1.37963372674725
 10
207.3988737680813
 20
38.22626299691986
 30
0.0
 41
1.0
 10
207.3988737680808
 20
37.08747892908754
 30
0.0
 41
1.059342642552004
 10
208.158063146635
 20
35.77252435286397
 30
0.0
 41
1.041636008661477
  0
LINE
  5
21E
330
6C
100
AcDbEntity
  8
Visible (ISO)
100
AcDbLine
 10
207.3988737680813
 20
38.22626299691989
 30
0.0
 11
207.3988737680801
 21
37.08747892908761
 31
0.0
  0
LINE
  5
21F
330
6C
100
AcDbEntity
  8
Visible (ISO)
100
AcDbLine
 10
207.3988737680801
 20
54.08747892908759
 30
0.0
 11
207.3988737680813
 21
52.94869486125532
 31
0.0
  0
SPLINE
  5
220
330
6C
100
AcDbEntity
  8
Visible (ISO)
100
AcDbSpline
210
0.0
220
0.0
230
1.0
 70
    12
 71
     2
 72
     6
 73
     3
 74
     0
 42
0.0000000001
 43
0.0000000001
 40
0.2934711240705199
 40
0.2934711240705199
 40
0.2934711240705199
 40
0.836552425408885
 40
0.836552425408885
 40
0.836552425408885
 10
208.1580631466351
 20
55.40243350531122
 30
0.0
 41
1.041636008661475
 10
207.3988737680808
 20
54.08747892908763
 30
0.0
 41
1.059342642552002
 10
207.3988737680813
 20
52.94869486125532
 30
0.0
 41
1.0
  0
LINE
  5
221
330
6C
100
AcDbEntity
  8
Visible (ISO)
100
AcDbLine
 10
207.3988737680801
 20
37.08747892908761
 30
0.0
 11
208.158063146635
 21
35.77252435286397
 31
0.0
  0
LINE
  5
222
330
6C
100
AcDbEntity
  8
Visible (ISO)
100
AcDbLine
 10
207.3988737680801
 20
54.08747892908758
 30
0.0
 11
208.158063146635
 21
55.40243350531122
 31
0.0
  0
LINE
  5
223
330
6C
100
AcDbEntity
  8
Visible (ISO)
100
AcDbLine
 10
219.6396843895253
 20
35.77252435286397
 30
0.0
 11
208.158063146635
 21
35.77252435286397
 31
0.0
  0
LINE
  5
224
330
6C
100
AcDbEntity
  8
Visible (ISO)
100
AcDbLine
 10
219.6396843895253
 20
55.40243350531122
 30
0.0
 11
208.158063146635
 21
55.40243350531122
 31
0.0
  0
LINE
  5
225
330
6C
100
AcDbEntity
  8
Visible (ISO)
100
AcDbLine
 10
219.6396843895278
 20
40.68000164097578
 30
0.0
 11
208.1580631466376
 21
40.68000164097578
 31
0.0
  0
LINE
  5
226
330
6C
100
AcDbEntity
  8
Visible (ISO)
100
AcDbLine
 10
219.6396843895278
 20
50.4949562171994
 30
0.0
 11
208.1580631466376
 21
50.4949562171994
 31
0.0
  0
LINE
  5
227
330
6C
100
AcDbEntity
  8
Visible (ISO)
100
AcDbLine
 10
220.3988737680802
 20
37.08747892908761
 30
0.0
 11
220.3988737680813
 21
38.22626299691986
 31
0.0
  0
SPLINE
  5
228
330
6C
100
AcDbEntity
  8
Visible (ISO)
100
AcDbSpline
210
0.0
220
0.0
230
1.0
 70
    12
 71
     2
 72
     6
 73
     3
 74
     0
 42
0.0000000001
 43
0.0000000001
 40
0.2934711240705224
 40
0.2934711240705224
 40
0.2934711240705224
 40
0.836552425408885
 40
0.836552425408885
 40
0.836552425408885
 10
219.6396843895253
 20
35.77252435286397
 30
0.0
 41
1.041636008661464
 10
220.3988737680808
 20
37.08747892908756
 30
0.0
 41
1.059342642551986
 10
220.3988737680813
 20
38.22626299691986
 30
0.0
 41
1.0
  0
SPLINE
  5
229
330
6C
100
AcDbEntity
  8
Visible (ISO)
100
AcDbSpline
210
0.0
220
0.0
230
1.0
 70
    12
 71
     2
 72
     6
 73
     3
 74
     0
 42
0.0000000001
 43
0.0000000001
 40
0.836552425408885
 40
0.836552425408885
 40
0.836552425408885
 40
1.379633726747248
 40
1.379633726747248
 40
1.379633726747248
 10
220.3988737680813
 20
38.22626299691986
 30
0.0
 41
1.0
 10
220.398873768082
 20
39.36504706475221
 30
0.0
 41
1.059342642551986
 10
219.6396843895278
 20
40.68000164097578
 30
0.0
 41
1.041636008661464
  0
LINE
  5
22A
330
6C
100
AcDbEntity
  8
Visible (ISO)
100
AcDbLine
 10
220.3988737680813
 20
38.22626299691986
 30
0.0
 11
220.3988737680826
 21
45.58747892908757
 31
0.0
  0
SPLINE
  5
22B
330
6C
100
AcDbEntity
  8
Visible (ISO)
100
AcDbSpline
210
0.0
220
0.0
230
1.0
 70
    12
 71
     2
 72
     6
 73
     3
 74
     0
 42
0.0000000001
 43
0.0000000001
 40
0.2934711240705217
 40
0.2934711240705217
 40
0.2934711240705217
 40
0.836552425408885
 40
0.836552425408885
 40
0.836552425408885
 10
219.6396843895278
 20
40.68000164097578
 30
0.0
 41
1.041636008661465
 10
220.3988737680825
 20
43.30991079342291
 30
0.0
 41
1.05934264255199
 10
220.3988737680826
 20
45.58747892908757
 30
0.0
 41
1.0
  0
SPLINE
  5
22C
330
6C
100
AcDbEntity
  8
Visible (ISO)
100
AcDbSpline
210
0.0
220
0.0
230
1.0
 70
    12
 71
     2
 72
     6
 73
     3
 74
     0
 42
0.0000000001
 43
0.0000000001
 40
0.836552425408885
 40
0.836552425408885
 40
0.836552425408885
 40
1.379633726747248
 40
1.379633726747248
 40
1.379633726747248
 10
220.3988737680826
 20
45.58747892908757
 30
0.0
 41
1.0
 10
220.3988737680825
 20
47.86504706475225
 30
0.0
 41
1.05934264255199
 10
219.6396843895278
 20
50.4949562171994
 30
0.0
 41
1.041636008661465
  0
LINE
  5
22D
330
6C
100
AcDbEntity
  8
Visible (ISO)
100
AcDbLine
 10
220.3988737680826
 20
45.58747892908757
 30
0.0
 11
220.3988737680813
 21
52.94869486125532
 31
0.0
  0
SPLINE
  5
22E
330
6C
100
AcDbEntity
  8
Visible (ISO)
100
AcDbSpline
210
0.0
220
0.0
230
1.0
 70
    12
 71
     2
 72
     6
 73
     3
 74
     0
 42
0.0000000001
 43
0.0000000001
 40
0.2934711240705221
 40
0.2934711240705221
 40
0.2934711240705221
 40
0.8365524254088846
 40
0.8365524254088846
 40
0.8365524254088846
 10
219.6396843895278
 20
50.4949562171994
 30
0.0
 41
1.041636008661461
 10
220.398873768082
 20
51.80991079342297
 30
0.0
 41
1.059342642551984
 10
220.3988737680813
 20
52.94869486125532
 30
0.0
 41
1.0
  0
SPLINE
  5
22F
330
6C
100
AcDbEntity
  8
Visible (ISO)
100
AcDbSpline
210
0.0
220
0.0
230
1.0
 70
    12
 71
     2
 72
     6
 73
     3
 74
     0
 42
0.0000000001
 43
0.0000000001
 40
0.8365524254088846
 40
0.8365524254088846
 40
0.8365524254088846
 40
1.379633726747245
 40
1.379633726747245
 40
1.379633726747245
 10
220.3988737680813
 20
52.94869486125532
 30
0.0
 41
1.0
 10
220.3988737680808
 20
54.08747892908763
 30
0.0
 41
1.059342642551986
 10
219.6396843895253
 20
55.40243350531122
 30
0.0
 41
1.041636008661464
  0
LINE
  5
230
330
6C
100
AcDbEntity
  8
Visible (ISO)
100
AcDbLine
 10
220.3988737680813
 20
52.94869486125532
 30
0.0
 11
220.3988737680802
 21
54.08747892908758
 31
0.0
  0
LINE
  5
231
330
6C
100
AcDbEntity
  8
Visible (ISO)
100
AcDbLine
 10
220.3988737680802
 20
37.08747892908761
 30
0.0
 11
219.6396843895253
 21
35.77252435286397
 31
0.0
  0
LINE
  5
232
330
6C
100
AcDbEntity
  8
Visible (ISO)
100
AcDbLine
 10
220.3988737680802
 20
54.08747892908758
 30
0.0
 11
219.6396843895253
 21
55.40243350531122
 31
0.0
  0
LINE
  5
233
330
6C
100
AcDbEntity
  8
Visible (ISO)
100
AcDbLine
 10
136.1006778105571
 20
121.7605227468603
 30
0.0
 11
136.1006778105571
 21
138.2605227468603
 31
0.0
  0
LINE
  5
234
330
6C
100
AcDbEntity
  8
Visible (ISO)
100
AcDbLine
 10
136.600677810557
 20
137.7605227468603
 30
0.0
 11
136.600677810557
 21
122.2605227468603
 31
0.0
  0
LINE
  5
235
330
6C
100
AcDbEntity
  8
Visible (ISO)
100
AcDbLine
 10
136.600677810557
 20
122.2605227468603
 30
0.0
 11
136.1006778105571
 21
121.7605227468603
 31
0.0
  0
LINE
  5
236
330
6C
100
AcDbEntity
  8
Visible (ISO)
100
AcDbLine
 10
136.600677810557
 20
137.7605227468603
 30
0.0
 11
136.1006778105571
 21
138.2605227468603
 31
0.0
  0
SPLINE
  5
237
330
6C
100
AcDbEntity
  8
Visible (ISO)
100
AcDbSpline
210
0.0
220
0.0
230
1.0
 70
    12
 71
     2
 72
     6
 73
     3
 74
     0
 42
0.0000000001
 43
0.0000000001
 40
0.4256073096284686
 40
0.4256073096284686
 40
0.4256073096284686
 40
0.8365524254088844
 40
0.8365524254088844
 40
0.8365524254088844
 10
123.1676651086648
 20
122.6007165819208
 30
0.0
 41
1.045691116018839
 10
123.600677810557
 20
124.2473761326651
 30
0.0
 41
1.044904085362823
 10
123.600677810557
 20
125.7605227468625
 30
0.0
 41
1.0
  0
SPLINE
  5
238
330
6C
100
AcDbEntity
  8
Visible (ISO)
100
AcDbSpline
210
0.0
220
0.0
230
1.0
 70
    12
 71
     2
 72
     6
 73
     3
 74
     0
 42
0.0000000001
 43
0.0000000001
 40
0.4256073096284702
 40
0.4256073096284702
 40
0.4256073096284702
 40
0.8365524254088839
 40
0.8365524254088839
 40
0.8365524254088839
 10
123.1676651086648
 20
131.1007165819219
 30
0.0
 41
1.04569111601883
 10
123.6006778105569
 20
132.7473761326656
 30
0.0
 41
1.044904085362817
 10
123.600677810557
 20
134.2605227468625
 30
0.0
 41
1.0
  0
LINE
  5
239
330
6C
100
AcDbEntity
  8
Visible (ISO)
100
AcDbLine
 10
123.1676651086647
 20
131.1007165819219
 30
0.0
 11
123.1676651086647
 21
128.9203289118042
 31
0.0
  0
SPLINE
  5
23A
330
6C
100
AcDbEntity
  8
Visible (ISO)
100
AcDbSpline
210
0.0
220
0.0
230
1.0
 70
    12
 71
     2
 72
     6
 73
     3
 74
     0
 42
0.0000000001
 43
0.0000000001
 40
0.8365524254088844
 40
0.8365524254088844
 40
0.8365524254088844
 40
1.2474975411893
 40
1.2474975411893
 40
1.2474975411893
 10
123.600677810557
 20
125.7605227468625
 30
0.0
 41
1.0
 10
123.6006778105569
 20
127.2736693610599
 30
0.0
 41
1.044904085362819
 10
123.1676651086647
 20
128.9203289118042
 30
0.0
 41
1.045691116018834
  0
SPLINE
  5
23B
330
6C
100
AcDbEntity
  8
Visible (ISO)
100
AcDbSpline
210
0.0
220
0.0
230
1.0
 70
    12
 71
     2
 72
     6
 73
     3
 74
     0
 42
0.0000000001
 43
0.0000000001
 40
0.8365524254088839
 40
0.8365524254088839
 40
0.8365524254088839
 40
1.247497541189297
 40
1.247497541189297
 40
1.247497541189297
 10
123.600677810557
 20
134.2605227468625
 30
0.0
 41
1.0
 10
123.600677810557
 20
135.7736693610595
 30
0.0
 41
1.044904085362814
 10
123.1676651086647
 20
137.4203289118031
 30
0.0
 41
1.04569111601883
  0
LINE
  5
23C
330
6C
100
AcDbEntity
  8
Visible (ISO)
100
AcDbLine
 10
118.5336905124493
 20
122.6007165819208
 30
0.0
 11
123.1676651086647
 21
122.6007165819208
 31
0.0
  0
LINE
  5
23D
330
6C
100
AcDbEntity
  8
Visible (ISO)
100
AcDbLine
 10
118.5336905124492
 20
122.073268813668
 30
0.0
 11
118.5336905124492
 21
122.6007165819208
 31
0.0
  0
ELLIPSE
  5
23E
330
6C
100
AcDbEntity
  8
Visible (ISO)
100
AcDbEllipse
 10
115.7912767337984
 20
130.0105227468603
 30
0.0
 11
0.0
 21
-9.25
 31
0.0
210
0.0
220
0.0
230
1.0
 40
0.577350269189626
 41
0.4471887452263418
 42
0.5392744123179991
  0
LINE
  5
23F
330
6C
100
AcDbEntity
  8
Visible (ISO)
100
AcDbLine
 10
123.1676651086647
 20
128.9203289118042
 30
0.0
 11
119.4704795312277
 21
128.9203289118042
 31
0.0
  0
SPLINE
  5
240
330
6C
100
AcDbEntity
  8
Visible (ISO)
100
AcDbSpline
210
0.0
220
0.0
230
1.0
 70
    12
 71
     2
 72
     6
 73
     3
 74
     0
 42
0.0000000001
 43
0.0000000001
 40
0.8123858579521067
 40
0.8123858579521067
 40
0.8123858579521067
 40
1.197529924693542
 40
1.197529924693542
 40
1.197529924693542
 10
118.1019029865909
 20
125.5960243170817
 30
0.0
 41
1.004365595477415
 10
118.1232693710419
 20
124.1614650065572
 30
0.0
 41
1.042884084947768
 10
118.5336905124493
 20
122.6007165819208
 30
0.0
 41
1.041774167103256
  0
LINE
  5
241
330
6C
100
AcDbEntity
  8
Visible (ISO)
100
AcDbLine
 10
119.4704795312277
 20
131.1007165819219
 30
0.0
 11
123.1676651086647
 21
131.1007165819219
 31
0.0
  0
LINE
  5
242
330
6C
100
AcDbEntity
  8
Visible (ISO)
100
AcDbLine
 10
123.1676651086647
 20
137.4203289118031
 30
0.0
 11
118.5499202003265
 21
137.4203289118031
 31
0.0
  0
SPLINE
  5
243
330
6C
100
AcDbEntity
  8
Visible (ISO)
100
AcDbSpline
210
0.0
220
0.0
230
1.0
 70
    12
 71
     2
 72
     6
 73
     3
 74
     0
 42
0.0000000001
 43
0.0000000001
 40
0.3932061578396785
 40
0.3932061578396785
 40
0.3932061578396785
 40
0.7699378181404222
 40
0.7699378181404222
 40
0.7699378181404222
 10
118.51593631218
 20
137.3521908478194
 30
0.0
 41
1.041803747226504
 10
118.1228195555974
 20
135.8293794517299
 30
0.0
 41
1.042042755126312
 10
118.1019029865909
 20
134.4250211766431
 30
0.0
 41
1.004365595477415
  0
LINE
  5
244
330
6C
100
AcDbEntity
  8
Visible (ISO)
100
AcDbLine
 10
118.100677810557
 20
122.5105227468615
 30
0.0
 11
118.100677810557
 21
125.5943592535122
 31
0.0
  0
LINE
  5
245
330
6C
100
AcDbEntity
  8
Visible (ISO)
100
AcDbLine
 10
118.100677810557
 20
134.4266862402128
 30
0.0
 11
118.100677810557
 21
136.010522746862
 31
0.0
  0
SPLINE
  5
246
330
6C
100
AcDbEntity
  8
Visible (ISO)
100
AcDbSpline
210
0.0
220
0.0
230
1.0
 70
    12
 71
     2
 72
     6
 73
     3
 74
     0
 42
0.0000000001
 43
0.0000000001
 40
-1.486263498190694
 40
-1.486263498190694
 40
-1.486263498190694
 40
-1.36702465746637
 40
-1.36702465746637
 40
-1.36702465746637
 10
118.1006778105957
 20
122.5105227468212
 30
0.0
 41
1.0
 10
118.3110517072722
 20
122.2918957802446
 30
0.0
 41
1.0
 10
118.5336905124492
 20
122.073268813668
 30
0.0
 41
1.0
  0
LINE
  5
247
330
6C
100
AcDbEntity
  8
Visible (ISO)
100
AcDbLine
 10
123.1676651086647
 20
122.6007165819208
 30
0.0
 11
123.1676651086647
 21
121.5105227468614
 31
0.0
  0
SPLINE
  5
248
330
6C
100
AcDbEntity
  8
Visible (ISO)
100
AcDbSpline
210
0.0
220
0.0
230
1.0
 70
    28
 71
     2
 72
     6
 73
     3
 74
     0
 42
0.0000000001
 43
0.0000000001
 40
0.8365524254088846
 40
0.8365524254088846
 40
0.8365524254088846
 40
1.2474975411893
 40
1.2474975411893
 40
1.2474975411893
 10
123.600677810557
 20
121.5105227468604
 30
0.0
 41
1.0
 10
123.600677810557
 20
121.5105227468608
 30
0.0
 41
1.044904085362809
 10
123.1676651086648
 20
121.5105227468614
 30
0.0
 41
1.045691116018822
  0
LINE
  5
249
330
6C
100
AcDbEntity
  8
Visible (ISO)
100
AcDbLine
 10
123.600677810557
 20
121.5105227468604
 30
0.0
 11
123.600677810557
 21
125.7605227468625
 31
0.0
  0
LINE
  5
24A
330
6C
100
AcDbEntity
  8
Visible (ISO)
100
AcDbLine
 10
123.600677810557
 20
125.7605227468625
 30
0.0
 11
123.600677810557
 21
134.2605227468625
 31
0.0
  0
SPLINE
  5
24B
330
6C
100
AcDbEntity
  8
Visible (ISO)
100
AcDbSpline
210
0.0
220
0.0
230
1.0
 70
    28
 71
     2
 72
     6
 73
     3
 74
     0
 42
0.0000000001
 43
0.0000000001
 40
0.4256073096284699
 40
0.4256073096284699
 40
0.4256073096284699
 40
0.8365524254088839
 40
0.8365524254088839
 40
0.8365524254088839
 10
123.1676651086647
 20
138.5105227468614
 30
0.0
 41
1.045691116018829
 10
123.6006778105569
 20
138.5105227468608
 30
0.0
 41
1.044904085362813
 10
123.600677810557
 20
138.5105227468603
 30
0.0
 41
1.0
  0
LINE
  5
24C
330
6C
100
AcDbEntity
  8
Visible (ISO)
100
AcDbLine
 10
123.1676651086647
 20
138.5105227468614
 30
0.0
 11
123.1676651086647
 21
137.4203289118031
 31
0.0
  0
LINE
  5
24D
330
6C
100
AcDbEntity
  8
Visible (ISO)
100
AcDbLine
 10
123.600677810557
 20
134.2605227468625
 30
0.0
 11
123.600677810557
 21
138.5105227468603
 31
0.0
  0
LINE
  5
24E
330
6C
100
AcDbEntity
  8
Visible (ISO)
100
AcDbLine
 10
123.1676651086647
 20
121.5105227468614
 30
0.0
 11
117.055556623749
 21
121.5105227468614
 31
0.0
  0
LINE
  5
24F
330
6C
100
AcDbEntity
  8
Visible (ISO)
100
AcDbLine
 10
107.145798997365
 20
121.5105227468614
 30
0.0
 11
101.0336905124493
 21
121.5105227468614
 31
0.0
  0
LINE
  5
250
330
6C
100
AcDbEntity
  8
Visible (ISO)
100
AcDbLine
 10
101.0336905124493
 20
122.6007165819208
 30
0.0
 11
105.6676651086648
 21
122.6007165819208
 31
0.0
  0
LINE
  5
251
330
6C
100
AcDbEntity
  8
Visible (ISO)
100
AcDbLine
 10
101.0336905124493
 20
121.5105227468614
 30
0.0
 11
101.0336905124493
 21
122.6007165819208
 31
0.0
  0
LINE
  5
252
330
6C
100
AcDbEntity
  8
Visible (ISO)
100
AcDbLine
 10
101.0336905124493
 20
137.4203289118031
 30
0.0
 11
101.0336905124493
 21
138.5105227468615
 31
0.0
  0
LINE
  5
253
330
6C
100
AcDbEntity
  8
Visible (ISO)
100
AcDbLine
 10
101.0336905124493
 20
128.9203289118042
 30
0.0
 11
101.0336905124493
 21
131.1007165819219
 31
0.0
  0
LINE
  5
254
330
6C
100
AcDbEntity
  8
Visible (ISO)
100
AcDbLine
 10
105.6514354207876
 20
137.4203289118031
 30
0.0
 11
101.0336905124493
 21
137.4203289118031
 31
0.0
  0
LINE
  5
255
330
6C
100
AcDbEntity
  8
Visible (ISO)
100
AcDbLine
 10
101.0336905124493
 20
138.5105227468614
 30
0.0
 11
104.423601544165
 21
138.5105227468614
 31
0.0
  0
LINE
  5
256
330
6C
100
AcDbEntity
  8
Visible (ISO)
100
AcDbLine
 10
104.7308760898864
 20
128.9203289118042
 30
0.0
 11
101.0336905124493
 21
128.9203289118042
 31
0.0
  0
LINE
  5
257
330
6C
100
AcDbEntity
  8
Visible (ISO)
100
AcDbLine
 10
101.0336905124493
 20
131.1007165819219
 30
0.0
 11
104.7308760898864
 21
131.1007165819219
 31
0.0
  0
LINE
  5
258
330
6C
100
AcDbEntity
  8
Visible (ISO)
100
AcDbLine
 10
119.7777540769491
 20
138.5105227468614
 30
0.0
 11
123.1676651086647
 21
138.5105227468614
 31
0.0
  0
SPLINE
  5
259
330
6C
100
AcDbEntity
  8
Visible (ISO)
100
AcDbSpline
210
0.0
220
0.0
230
1.0
 70
    28
 71
     2
 72
     6
 73
     3
 74
     0
 42
0.0000000001
 43
0.0000000001
 40
0.4226777092670462
 40
0.4226777092670462
 40
0.4226777092670462
 40
0.8332926396892185
 40
0.8332926396892185
 40
0.8332926396892185
 10
101.0336905124493
 20
121.5105227468614
 30
0.0
 41
1.045413293158438
 10
100.600677810557
 20
121.5105227468608
 30
0.0
 41
1.044765269262242
 10
100.600677810557
 20
121.5105227468604
 30
0.0
 41
1.0
  0
SPLINE
  5
25A
330
6C
100
AcDbEntity
  8
Visible (ISO)
100
AcDbSpline
210
0.0
220
0.0
230
1.0
 70
    28
 71
     2
 72
     6
 73
     3
 74
     0
 42
0.0000000001
 43
0.0000000001
 40
0.8332926396892174
 40
0.8332926396892174
 40
0.8332926396892174
 40
1.243907570111385
 40
1.243907570111385
 40
1.243907570111385
 10
100.600677810557
 20
138.5105227468603
 30
0.0
 41
1.0
 10
100.600677810557
 20
138.5105227468608
 30
0.0
 41
1.044765269262236
 10
101.0336905124493
 20
138.5105227468614
 30
0.0
 41
1.045413293158431
  0
LINE
  5
25B
330
6C
100
AcDbEntity
  8
Visible (ISO)
100
AcDbLine
 10
100.600677810557
 20
138.5105227468603
 30
0.0
 11
100.600677810557
 21
134.2605227468625
 31
0.0
  0
SPLINE
  5
25C
330
6C
100
AcDbEntity
  8
Visible (ISO)
100
AcDbSpline
210
0.0
220
0.0
230
1.0
 70
    12
 71
     2
 72
     6
 73
     3
 74
     0
 42
0.0000000001
 43
0.0000000001
 40
0.4226777092670477
 40
0.4226777092670477
 40
0.4226777092670477
 40
0.8332926396892176
 40
0.8332926396892176
 40
0.8332926396892176
 10
101.0336905124493
 20
137.4203289118031
 30
0.0
 41
1.045413293158433
 10
100.600677810557
 20
135.7736693610594
 30
0.0
 41
1.044765269262237
 10
100.600677810557
 20
134.2605227468625
 30
0.0
 41
1.0
  0
SPLINE
  5
25D
330
6C
100
AcDbEntity
  8
Visible (ISO)
100
AcDbSpline
210
0.0
220
0.0
230
1.0
 70
    12
 71
     2
 72
     6
 73
     3
 74
     0
 42
0.0000000001
 43
0.0000000001
 40
0.8332926396892176
 40
0.8332926396892176
 40
0.8332926396892176
 40
1.243907570111385
 40
1.243907570111385
 40
1.243907570111385
 10
100.600677810557
 20
134.2605227468625
 30
0.0
 41
1.0
 10
100.600677810557
 20
132.7473761326656
 30
0.0
 41
1.044765269262236
 10
101.0336905124493
 20
131.1007165819219
 30
0.0
 41
1.045413293158431
  0
LINE
  5
25E
330
6C
100
AcDbEntity
  8
Visible (ISO)
100
AcDbLine
 10
100.600677810557
 20
134.2605227468625
 30
0.0
 11
100.600677810557
 21
125.7605227468625
 31
0.0
  0
SPLINE
  5
25F
330
6C
100
AcDbEntity
  8
Visible (ISO)
100
AcDbSpline
210
0.0
220
0.0
230
1.0
 70
    12
 71
     2
 72
     6
 73
     3
 74
     0
 42
0.0000000001
 43
0.0000000001
 40
0.4226777092670467
 40
0.4226777092670467
 40
0.4226777092670467
 40
0.8332926396892183
 40
0.8332926396892183
 40
0.8332926396892183
 10
101.0336905124493
 20
128.9203289118042
 30
0.0
 41
1.045413293158434
 10
100.600677810557
 20
127.2736693610599
 30
0.0
 41
1.044765269262239
 10
100.600677810557
 20
125.7605227468625
 30
0.0
 41
1.0
  0
SPLINE
  5
260
330
6C
100
AcDbEntity
  8
Visible (ISO)
100
AcDbSpline
210
0.0
220
0.0
230
1.0
 70
    12
 71
     2
 72
     6
 73
     3
 74
     0
 42
0.0000000001
 43
0.0000000001
 40
0.8332926396892183
 40
0.8332926396892183
 40
0.8332926396892183
 40
1.243907570111389
 40
1.243907570111389
 40
1.243907570111389
 10
100.600677810557
 20
125.7605227468625
 30
0.0
 41
1.0
 10
100.600677810557
 20
124.2473761326651
 30
0.0
 41
1.044765269262239
 10
101.0336905124493
 20
122.6007165819208
 30
0.0
 41
1.045413293158434
  0
LINE
  5
261
330
6C
100
AcDbEntity
  8
Visible (ISO)
100
AcDbLine
 10
100.600677810557
 20
125.7605227468625
 30
0.0
 11
100.600677810557
 21
121.5105227468604
 31
0.0
  0
LINE
  5
262
330
6C
100
AcDbEntity
  8
Visible (ISO)
100
AcDbLine
 10
106.100677810557
 20
121.6701090880554
 30
0.0
 11
107.1112449075363
 21
121.6701090880554
 31
0.0
  0
LINE
  5
263
330
6C
100
AcDbEntity
  8
Visible (ISO)
100
AcDbLine
 10
117.0901107135778
 20
121.6701090880554
 30
0.0
 11
118.100677810557
 21
121.6701090880554
 31
0.0
  0
LINE
  5
264
330
6C
100
AcDbEntity
  8
Visible (ISO)
100
AcDbLine
 10
106.100677810557
 20
122.5105227468615
 30
0.0
 11
106.922329344002
 21
122.5105227468615
 31
0.0
  0
LINE
  5
265
330
6C
100
AcDbEntity
  8
Visible (ISO)
100
AcDbLine
 10
117.2790262771119
 20
122.5105227468615
 30
0.0
 11
118.100677810557
 21
122.5105227468615
 31
0.0
  0
LINE
  5
266
330
6C
100
AcDbEntity
  8
Visible (ISO)
100
AcDbLine
 10
118.100677810557
 20
121.6701090880554
 30
0.0
 11
118.100677810557
 21
122.5105227468615
 31
0.0
  0
LINE
  5
267
330
6C
100
AcDbEntity
  8
Visible (ISO)
100
AcDbLine
 10
106.100677810557
 20
121.6701090880554
 30
0.0
 11
106.100677810557
 21
122.5105227468615
 31
0.0
  0
ELLIPSE
  5
268
330
6C
100
AcDbEntity
  8
Visible (ISO)
100
AcDbEllipse
 10
108.4100788873155
 20
130.0105227468603
 30
0.0
 11
0.0
 21
9.25
 31
0.0
210
0.0
220
0.0
230
1.0
 40
0.577350269189626
 41
2.60231824127179
 42
2.694403908363451
  0
LINE
  5
269
330
6C
100
AcDbEntity
  8
Visible (ISO)
100
AcDbLine
 10
105.6676651086648
 20
122.6007165819208
 30
0.0
 11
105.6676651086648
 21
122.073268813668
 31
0.0
  0
SPLINE
  5
26A
330
6C
100
AcDbEntity
  8
Visible (ISO)
100
AcDbSpline
210
0.0
220
0.0
230
1.0
 70
    12
 71
     2
 72
     6
 73
     3
 74
     0
 42
0.0000000001
 43
0.0000000001
 40
0.8123858579521044
 40
0.8123858579521044
 40
0.8123858579521044
 40
1.189117518252846
 40
1.189117518252846
 40
1.189117518252846
 10
106.099452634523
 20
134.4250211766431
 30
0.0
 41
1.004365595477415
 10
106.0785360655167
 20
135.8293794517299
 30
0.0
 41
1.042042755126312
 10
105.6854193089341
 20
137.3521908478194
 30
0.0
 41
1.041803747226504
  0
SPLINE
  5
26B
330
6C
100
AcDbEntity
  8
Visible (ISO)
100
AcDbSpline
210
0.0
220
0.0
230
1.0
 70
    12
 71
     2
 72
     6
 73
     3
 74
     0
 42
0.0000000001
 43
0.0000000001
 40
0.3847937513989829
 40
0.3847937513989829
 40
0.3847937513989829
 40
0.7699378181404203
 40
0.7699378181404203
 40
0.7699378181404203
 10
105.6676651086648
 20
122.6007165819208
 30
0.0
 41
1.041774167103256
 10
106.0780862500722
 20
124.1614650065572
 30
0.0
 41
1.042884084947768
 10
106.099452634523
 20
125.5960243170817
 30
0.0
 41
1.004365595477415
  0
LINE
  5
26C
330
6C
100
AcDbEntity
  8
Visible (ISO)
100
AcDbLine
 10
106.100677810557
 20
134.4266862402128
 30
0.0
 11
106.100677810557
 21
136.010522746862
 31
0.0
  0
LINE
  5
26D
330
6C
100
AcDbEntity
  8
Visible (ISO)
100
AcDbLine
 10
106.100677810557
 20
122.5105227468615
 30
0.0
 11
106.100677810557
 21
125.5943592535122
 31
0.0
  0
SPLINE
  5
26E
330
6C
100
AcDbEntity
  8
Visible (ISO)
100
AcDbSpline
210
0.0
220
0.0
230
1.0
 70
    12
 71
     2
 72
     6
 73
     3
 74
     0
 42
0.0000000001
 43
0.0000000001
 40
-1.486263498190694
 40
-1.486263498190694
 40
-1.486263498190694
 40
-1.36702465746637
 40
-1.36702465746637
 40
-1.36702465746637
 10
106.1006778105183
 20
122.5105227468212
 30
0.0
 41
1.0
 10
105.8903039138419
 20
122.2918957802446
 30
0.0
 41
1.0
 10
105.6676651086648
 20
122.073268813668
 30
0.0
 41
1.0
  0
ELLIPSE
  5
26F
330
6C
100
AcDbEntity
  8
Visible (ISO)
100
AcDbEllipse
 10
112.100677810557
 20
147.0105227468603
 30
0.0
 11
0.0
 21
14.72243186433292
 31
0.0
210
0.0
220
0.0
230
1.0
 40
0.5773502691897253
 41
3.996844707048501
 42
4.002960670239064
  0
LINE
  5
270
330
6C
100
AcDbEntity
  8
Visible (ISO)
100
AcDbLine
 10
120.600677810557
 20
144.5105227468603
 30
0.0
 11
103.600677810557
 21
144.5105227468603
 31
0.0
  0
SPLINE
  5
271
330
6C
100
AcDbEntity
  8
Visible (ISO)
100
AcDbSpline
210
0.0
220
0.0
230
1.0
 70
     8
 71
     3
 72
     8
 73
     4
 74
     0
 42
0.0000000001
 43
0.0000000001
 40
0.8292463199719302
 40
0.8292463199719302
 40
0.8292463199719302
 40
0.8292463199719302
 40
1.069319888959278
 40
1.069319888959278
 40
1.069319888959278
 40
1.069319888959278
 10
105.6514354207876
 20
137.4203289118031
 30
0.0
 10
105.185415200707
 20
137.8259370061216
 30
0.0
 10
104.7595059178276
 20
138.207138890989
 30
0.0
 10
104.423601544165
 20
138.5105227468614
 30
0.0
  0
ELLIPSE
  5
272
330
6C
100
AcDbEntity
  8
Visible (ISO)
100
AcDbEllipse
 10
112.100677810557
 20
147.0105227468603
 30
0.0
 11
0.0
 21
14.72243186433292
 31
0.0
210
0.0
220
0.0
230
1.0
 40
0.5773502691897253
 41
2.280224636940519
 42
2.286340600131083
  0
SPLINE
  5
273
330
6C
100
AcDbEntity
  8
Visible (ISO)
100
AcDbSpline
210
0.0
220
0.0
230
1.0
 70
     8
 71
     3
 72
    10
 73
     6
 74
     0
 42
0.0000000001
 43
0.0000000001
 40
2.358463870327546
 40
2.358463870327546
 40
2.358463870327546
 40
2.358463870327546
 40
2.381073897766034
 40
2.381073897766034
 40
2.502243251613869
 40
2.502243251613869
 40
2.502243251613869
 40
2.502243251613869
 10
105.6854193089341
 20
137.3521908478194
 30
0.0
 10
105.7079202408137
 20
137.2835894300129
 30
0.0
 10
105.7301245137343
 20
137.2153442129553
 30
0.0
 10
105.8692604378847
 20
136.7841715595112
 30
0.0
 10
105.9868345783485
 20
136.4037075173047
 30
0.0
 10
106.100677810557
 20
136.010522746862
 30
0.0
  0
LINE
  5
274
330
6C
100
AcDbEntity
  8
Visible (ISO)
100
AcDbLine
 10
106.100677810557
 20
136.010522746862
 30
0.0
 11
106.8327322907173
 21
135.2784682667021
 31
0.0
  0
LINE
  5
275
330
6C
100
AcDbEntity
  8
Visible (ISO)
100
AcDbLine
 10
117.3686233303968
 20
135.2784682667021
 30
0.0
 11
118.100677810557
 21
136.010522746862
 31
0.0
  0
SPLINE
  5
276
330
6C
100
AcDbEntity
  8
Visible (ISO)
100
AcDbSpline
210
0.0
220
0.0
230
1.0
 70
     8
 71
     3
 72
    10
 73
     6
 74
     0
 42
0.0000000001
 43
0.0000000001
 40
3.664699947043588
 40
3.664699947043588
 40
3.664699947043588
 40
3.664699947043588
 40
3.785869300891423
 40
3.785869300891423
 40
3.808479328329911
 40
3.808479328329911
 40
3.808479328329911
 40
3.808479328329911
 10
118.100677810557
 20
136.010522746862
 30
0.0
 10
118.2145210427655
 20
136.4037075173047
 30
0.0
 10
118.3320951832294
 20
136.7841715595112
 30
0.0
 10
118.4712311073797
 20
137.2153442129553
 30
0.0
 10
118.4934353803003
 20
137.2835894300129
 30
0.0
 10
118.51593631218
 20
137.3521908478194
 30
0.0
  0
SPLINE
  5
277
330
6C
100
AcDbEntity
  8
Visible (ISO)
100
AcDbSpline
210
0.0
220
0.0
230
1.0
 70
     8
 71
     3
 72
     8
 73
     4
 74
     0
 42
0.0000000001
 43
0.0000000001
 40
4.714232720745108
 40
4.714232720745108
 40
4.714232720745108
 40
4.714232720745108
 40
4.954306289732459
 40
4.954306289732459
 40
4.954306289732459
 40
4.954306289732459
 10
119.7777540769491
 20
138.5105227468614
 30
0.0
 10
119.4419079027065
 20
138.2071913711633
 30
0.0
 10
119.016006664262
 20
137.8259952261783
 30
0.0
 10
118.5499202003265
 20
137.4203289118031
 30
0.0
  0
LINE
  5
278
330
6C
100
AcDbEntity
  8
Visible (ISO)
100
AcDbLine
 10
103.600677810557
 20
138.5105227468603
 30
0.0
 11
103.600677810557
 21
144.5105227468603
 31
0.0
  0
LINE
  5
279
330
6C
100
AcDbEntity
  8
Visible (ISO)
100
AcDbLine
 10
120.600677810557
 20
138.5105227468603
 30
0.0
 11
120.600677810557
 21
144.5105227468603
 31
0.0
  0
LINE
  5
27A
330
6C
100
AcDbEntity
  8
Visible (ISO)
100
AcDbLine
 10
136.1006778105571
 20
121.7605227468603
 30
0.0
 11
123.600677810557
 21
121.7605227468603
 31
0.0
  0
LINE
  5
27B
330
6C
100
AcDbEntity
  8
Visible (ISO)
100
AcDbLine
 10
136.1006778105571
 20
138.2605227468603
 30
0.0
 11
123.600677810557
 21
138.2605227468603
 31
0.0
  0
LINE
  5
27C
330
6C
100
AcDbEntity
  8
Visible (ISO)
100
AcDbLine
 10
120.100677810557
 20
145.0105227468601
 30
0.0
 11
120.600677810557
 21
144.5105227468603
 31
0.0
  0
LINE
  5
27D
330
6C
100
AcDbEntity
  8
Visible (ISO)
100
AcDbLine
 10
104.100677810557
 20
145.0105227468601
 30
0.0
 11
103.600677810557
 21
144.5105227468603
 31
0.0
  0
LINE
  5
27E
330
6C
100
AcDbEntity
  8
Visible (ISO)
100
AcDbLine
 10
115.3723770746122
 20
110.0105227468683
 30
0.0
 11
114.6814804461244
 21
116.5939530932652
 31
0.0
  0
LINE
  5
27F
330
6C
100
AcDbEntity
  8
Visible Narrow (ISO)
100
AcDbLine
 10
114.6814804461244
 20
116.5939530932651
 30
0.0
 11
109.5198751749896
 21
116.5939530932651
 31
0.0
  0
LINE
  5
280
330
6C
100
AcDbEntity
  8
Visible (ISO)
100
AcDbLine
 10
109.5198751749896
 20
116.5939530932652
 30
0.0
 11
108.8289785465017
 21
110.0105227468683
 31
0.0
  0
LINE
  5
281
330
6C
100
AcDbEntity
  8
Visible (ISO)
100
AcDbLine
 10
108.8289785465017
 20
110.0105227468689
 30
0.0
 11
115.3723770746122
 21
110.0105227468689
 31
0.0
  0
LINE
  5
282
330
6C
100
AcDbEntity
  8
Visible (ISO)
100
AcDbLine
 10
115.600677810557
 20
90.01052274686893
 30
0.0
 11
108.600677810557
 21
90.01052274686893
 31
0.0
  0
LINE
  5
283
330
6C
100
AcDbEntity
  8
Visible (ISO)
100
AcDbLine
 10
115.600677810557
 20
107.8350858853322
 30
0.0
 11
115.600677810557
 21
90.01052274686893
 31
0.0
  0
LINE
  5
284
330
6C
100
AcDbEntity
  8
Visible (ISO)
100
AcDbLine
 10
115.3723770746122
 20
110.0105227468689
 30
0.0
 11
115.600677810557
 21
107.8350858853322
 31
0.0
  0
LINE
  5
285
330
6C
100
AcDbEntity
  8
Visible (ISO)
100
AcDbLine
 10
108.600677810557
 20
107.8350858853322
 30
0.0
 11
108.8289785465017
 21
110.0105227468689
 31
0.0
  0
LINE
  5
286
330
6C
100
AcDbEntity
  8
Visible (ISO)
100
AcDbLine
 10
108.600677810557
 20
90.01052274686893
 30
0.0
 11
108.600677810557
 21
107.8350858853322
 31
0.0
  0
ARC
  5
287
330
6C
100
AcDbEntity
  8
Visible (ISO)
100
AcDbCircle
 10
43.60067781055675
 20
107.8350858853295
 30
0.0
 40
65.00000000000027
100
AcDbArc
 50
0.0
 51
16.50009499227152
  0
ARC
  5
288
330
6C
100
AcDbEntity
  8
Visible (ISO)
100
AcDbCircle
 10
180.6006778105574
 20
107.8350858853295
 30
0.0
 40
65.00000000000031
100
AcDbArc
 50
163.4999050077284
 51
180.0
  0
SPLINE
  5
289
330
6C
100
AcDbEntity
  8
Visible (ISO)
100
AcDbSpline
210
0.0
220
0.0
230
1.0
 70
     8
 71
     3
 72
    10
 73
     6
 74
     0
 42
0.0000000001
 43
0.0000000001
 40
0.8843322889545374
 40
0.8843322889545374
 40
0.8843322889545374
 40
0.8843322889545374
 40
0.9081515042319823
 40
0.9081515042319823
 40
0.925972547537049
 40
0.925972547537049
 40
0.925972547537049
 40
0.925972547537049
 10
113.8216922913833
 20
124.7867205725141
 30
0.0
 10
113.7853192968697
 20
124.757632673511
 30
0.0
 10
113.7460422604425
 20
124.7287914176339
 30
0.0
 10
113.6726743204414
 20
124.6793997733232
 30
0.0
 10
113.6376360442652
 20
124.6575537718765
 30
0.0
 10
113.5997661674374
 20
124.6355564809565
 30
0.0
  0
SPLINE
  5
28A
330
6C
100
AcDbEntity
  8
Visible (ISO)
100
AcDbSpline
210
0.0
220
0.0
230
1.0
 70
     8
 71
     3
 72
    10
 73
     6
 74
     0
 42
0.0000000001
 43
0.0000000001
 40
1.26072965346429
 40
1.26072965346429
 40
1.26072965346429
 40
1.26072965346429
 40
1.278550696769362
 40
1.278550696769362
 40
1.302369912046807
 40
1.302369912046807
 40
1.302369912046807
 40
1.302369912046807
 10
110.6015894536767
 20
124.6355564809564
 30
0.0
 10
110.5637195768489
 20
124.6575537718765
 30
0.0
 10
110.5286813006727
 20
124.6793997733232
 30
0.0
 10
110.4553133606716
 20
124.7287914176339
 30
0.0
 10
110.4160363242443
 20
124.757632673511
 30
0.0
 10
110.3796633297308
 20
124.7867205725141
 30
0.0
  0
LINE
  5
28B
330
6C
100
AcDbEntity
  8
Visible (ISO)
100
AcDbLine
 10
113.8216922913833
 20
124.7867205725141
 30
0.0
 11
114.6814804461244
 21
116.5939530932651
 31
0.0
  0
LINE
  5
28C
330
6C
100
AcDbEntity
  8
Visible (ISO)
100
AcDbLine
 10
109.5198751749896
 20
116.5939530932651
 30
0.0
 11
110.3796633297308
 21
124.7867205725141
 31
0.0
  0
ARC
  5
28D
330
6C
100
AcDbEntity
  8
Visible (ISO)
100
AcDbCircle
 10
112.100677810557
 20
130.0105227468661
 30
0.0
 40
7.207531252864772
100
AcDbArc
 50
285.3041237151067
 51
328.9797515566896
  0
ARC
  5
28E
330
6C
100
AcDbEntity
  8
Visible (ISO)
100
AcDbCircle
 10
112.100677810557
 20
130.0105227468661
 30
0.0
 40
7.207531252864776
100
AcDbArc
 50
211.0202484433095
 51
254.6958762848929
  0
ARC
  5
28F
330
6C
100
AcDbEntity
  8
Visible (ISO)
100
AcDbCircle
 10
112.100677810557
 20
130.0105227468657
 30
0.0
 40
7.449999999999991
100
AcDbArc
 50
323.0863788866292
 51
216.9136211133707
  0
ARC
  5
290
330
6C
100
AcDbEntity
  8
Visible (ISO)
100
AcDbCircle
 10
111.100677810557
 20
129.0105227468685
 30
0.0
 40
2.0
100
AcDbArc
 50
180.0
 51
270.0
  0
LINE
  5
291
330
6C
100
AcDbEntity
  8
Visible (ISO)
100
AcDbLine
 10
111.100677810557
 20
127.0105227468684
 30
0.0
 11
114.600677810557
 21
127.0105227468684
 31
0.0
  0
LINE
  5
292
330
6C
100
AcDbEntity
  8
Visible (ISO)
100
AcDbLine
 10
114.600677810557
 20
127.0105227468684
 30
0.0
 11
114.600677810557
 21
126.5105227468685
 31
0.0
  0
LINE
  5
293
330
6C
100
AcDbEntity
  8
Visible (ISO)
100
AcDbLine
 10
114.600677810557
 20
126.5105227468685
 30
0.0
 11
115.600677810557
 21
127.5105227468684
 31
0.0
  0
LINE
  5
294
330
6C
100
AcDbEntity
  8
Visible (ISO)
100
AcDbLine
 10
115.600677810557
 20
127.5105227468684
 30
0.0
 11
114.600677810557
 21
128.5105227468684
 31
0.0
  0
LINE
  5
295
330
6C
100
AcDbEntity
  8
Visible (ISO)
100
AcDbLine
 10
114.600677810557
 20
128.5105227468684
 30
0.0
 11
114.600677810557
 21
128.0105227468684
 31
0.0
  0
LINE
  5
296
330
6C
100
AcDbEntity
  8
Visible (ISO)
100
AcDbLine
 10
114.600677810557
 20
128.0105227468684
 30
0.0
 11
111.600677810557
 21
128.0105227468684
 31
0.0
  0
ARC
  5
297
330
6C
100
AcDbEntity
  8
Visible (ISO)
100
AcDbCircle
 10
111.600677810557
 20
129.5105227468684
 30
0.0
 40
1.499999999999999
100
AcDbArc
 50
180.0
 51
270.0
  0
LINE
  5
298
330
6C
100
AcDbEntity
  8
Visible (ISO)
100
AcDbLine
 10
110.1006778105571
 20
129.5105227468684
 30
0.0
 11
110.1006778105571
 21
132.5105227468684
 31
0.0
  0
LINE
  5
299
330
6C
100
AcDbEntity
  8
Visible (ISO)
100
AcDbLine
 10
110.1006778105571
 20
132.5105227468684
 30
0.0
 11
110.600677810557
 21
132.5105227468684
 31
0.0
  0
LINE
  5
29A
330
6C
100
AcDbEntity
  8
Visible (ISO)
100
AcDbLine
 10
110.600677810557
 20
132.5105227468684
 30
0.0
 11
109.600677810557
 21
133.5105227468684
 31
0.0
  0
LINE
  5
29B
330
6C
100
AcDbEntity
  8
Visible (ISO)
100
AcDbLine
 10
109.600677810557
 20
133.5105227468684
 30
0.0
 11
108.600677810557
 21
132.5105227468684
 31
0.0
  0
LINE
  5
29C
330
6C
100
AcDbEntity
  8
Visible (ISO)
100
AcDbLine
 10
108.600677810557
 20
132.5105227468684
 30
0.0
 11
109.1006778105571
 21
132.5105227468684
 31
0.0
  0
LINE
  5
29D
330
6C
100
AcDbEntity
  8
Visible (ISO)
100
AcDbLine
 10
109.1006778105571
 20
132.5105227468684
 30
0.0
 11
109.1006778105571
 21
129.0105227468684
 31
0.0
  0
ARC
  5
29E
330
6C
100
AcDbEntity
  8
Visible Narrow (ISO)
100
AcDbCircle
 10
112.100677810557
 20
130.0105227468684
 30
0.0
 40
4.999999999999999
100
AcDbArc
 50
281.5369590328153
 51
78.46304096718461
  0
SPLINE
  5
29F
330
6C
100
AcDbEntity
  8
Visible (ISO)
100
AcDbSpline
210
0.0
220
0.0
230
1.0
 70
     8
 71
     3
 72
    18
 73
    14
 74
     0
 42
0.0000000001
 43
0.0000000001
 40
-0.0894071042414384
 40
-0.0894071042414384
 40
-0.0894071042414384
 40
-0.0894071042414384
 40
-0.0890024393096829
 40
-0.0890024393096829
 40
-0.071331341192769
 40
-0.071331341192769
 40
-0.054286520760514
 40
-0.054286520760514
 40
-0.033079826196916
 40
-0.033079826196916
 40
-0.0157603010710298
 40
-0.0157603010710298
 40
0.0
 40
0.0
 40
0.0
 40
0.0
 10
113.100677810557
 20
125.1115432613021
 30
0.0
 10
113.1017301582843
 20
125.1106840229807
 30
0.0
 10
113.1027826182468
 20
125.1098249190764
 30
0.0
 10
113.1497987048329
 20
125.071456630264
 30
0.0
 10
113.1960667847359
 20
125.0341373237137
 30
0.0
 10
113.2848315488685
 20
124.9633017814614
 30
0.0
 10
113.3275685097053
 20
124.9295662149354
 30
0.0
 10
113.4179859928734
 20
124.8588236436718
 30
0.0
 10
113.4643391534294
 20
124.8230228364167
 30
0.0
 10
113.534007921825
 20
124.7696051207275
 30
0.0
 10
113.5595436090268
 20
124.7501903744246
 30
0.0
 10
113.5924014714999
 20
124.7252668127874
 30
0.0
 10
113.600677810557
 20
124.7190201247391
 30
0.0
 10
113.600677810557
 20
124.7190201247391
 30
0.0
  0
ARC
  5
2A0
330
6C
100
AcDbEntity
  8
Visible (ISO)
100
AcDbCircle
 10
112.100677810557
 20
130.0105227468683
 30
0.0
 40
5.499999999999999
100
AcDbArc
 50
285.8266201318722
 51
74.1733798681276
  0
SPLINE
  5
2A1
330
6C
100
AcDbEntity
  8
Visible (ISO)
100
AcDbSpline
210
0.0
220
0.0
230
1.0
 70
     8
 71
     3
 72
    18
 73
    14
 74
     0
 42
0.0000000001
 43
0.0000000001
 40
-0.0896419378859127
 40
-0.0896419378859127
 40
-0.0896419378859127
 40
-0.0896419378859127
 40
-0.0737683962096255
 40
-0.0737683962096255
 40
-0.0563244271724696
 40
-0.0563244271724696
 40
-0.0349653586842182
 40
-0.0349653586842182
 40
-0.0177980681434567
 40
-0.0177980681434567
 40
0.0
 40
0.0
 40
0.0004075725222773
 40
0.0004075725222773
 40
0.0004075725222773
 40
0.0004075725222773
 10
113.600677810557
 20
135.3020253689974
 30
0.0
 10
113.600677810557
 20
135.3020253689975
 30
0.0
 10
113.5924014714999
 20
135.2957786809492
 30
0.0
 10
113.5595436090268
 20
135.2708551193119
 30
0.0
 10
113.534007921825
 20
135.2514403730092
 30
0.0
 10
113.4643391534294
 20
135.1980226573201
 30
0.0
 10
113.4179859928734
 20
135.162221850065
 30
0.0
 10
113.3275685097053
 20
135.0914792788014
 30
0.0
 10
113.2848315488685
 20
135.0577437122755
 30
0.0
 10
113.1960667847361
 20
134.9869081700233
 30
0.0
 10
113.149798704834
 20
134.9495888634736
 30
0.0
 10
113.1027826182467
 20
134.9112205746603
 30
0.0
 10
113.1017301582845
 20
134.9103614707562
 30
0.0
 10
113.100677810557
 20
134.9095022324348
 30
0.0
  0
LINE
  5
2A2
330
6C
100
AcDbEntity
  8
Visible Narrow (ISO)
100
AcDbLine
 10
113.600677810557
 20
124.6021958336723
 30
0.0
 11
113.100677810557
 21
124.6021958336725
 31
0.0
  0
LINE
  5
2A3
330
6C
100
AcDbEntity
  8
Visible (ISO)
100
AcDbLine
 10
113.600677810557
 20
124.6021958336723
 30
0.0
 11
113.600677810557
 21
124.7190201247391
 31
0.0
  0
LINE
  5
2A4
330
6C
100
AcDbEntity
  8
Visible Narrow (ISO)
100
AcDbLine
 10
113.100677810557
 20
125.1115432613021
 30
0.0
 11
113.100677810557
 21
124.6021958336725
 31
0.0
  0
LINE
  5
2A5
330
6C
100
AcDbEntity
  8
Visible Narrow (ISO)
100
AcDbLine
 10
113.100677810557
 20
135.4188496600644
 30
0.0
 11
113.600677810557
 21
135.4188496600643
 31
0.0
  0
LINE
  5
2A6
330
6C
100
AcDbEntity
  8
Visible Narrow (ISO)
100
AcDbLine
 10
113.100677810557
 20
135.4188496600644
 30
0.0
 11
113.100677810557
 21
134.9095022324348
 31
0.0
  0
LINE
  5
2A7
330
6C
100
AcDbEntity
  8
Visible (ISO)
100
AcDbLine
 10
113.600677810557
 20
135.3020253689974
 30
0.0
 11
113.600677810557
 21
135.4188496600643
 31
0.0
  0
LINE
  5
2A8
330
6C
100
AcDbEntity
  8
Visible Narrow (ISO)
100
AcDbLine
 10
113.1915869014661
 20
135.9105157430821
 30
0.0
 11
113.100677810557
 21
135.4188496600644
 31
0.0
  0
ARC
  5
2A9
330
6C
100
AcDbEntity
  8
Visible (ISO)
100
AcDbCircle
 10
112.100677810557
 20
130.0105227468683
 30
0.0
 40
5.999999999999959
100
AcDbArc
 50
79.52431830361006
 51
100.4756816963897
  0
LINE
  5
2AA
330
6C
100
AcDbEntity
  8
Visible Narrow (ISO)
100
AcDbLine
 10
111.100677810557
 20
135.4188496600644
 30
0.0
 11
111.0097687196479
 21
135.9105157430821
 31
0.0
  0
ARC
  5
2AB
330
6C
100
AcDbEntity
  8
Visible Narrow (ISO)
100
AcDbCircle
 10
112.100677810557
 20
130.0105227468684
 30
0.0
 40
5.499999999999992
100
AcDbArc
 50
79.52431830361025
 51
100.4756816963897
  0
ARC
  5
2AC
330
6C
100
AcDbEntity
  8
Visible (ISO)
100
AcDbCircle
 10
113.100677810557
 20
135.4188496600643
 30
0.0
 40
0.499999999999999
100
AcDbArc
 50
0.0
 51
79.52431830361145
  0
LINE
  5
2AD
330
6C
100
AcDbEntity
  8
Visible Narrow (ISO)
100
AcDbLine
 10
111.100677810557
 20
124.6021958336725
 30
0.0
 11
110.600677810557
 21
124.6021958336723
 31
0.0
  0
LINE
  5
2AE
330
6C
100
AcDbEntity
  8
Visible Narrow (ISO)
100
AcDbLine
 10
111.100677810557
 20
124.6021958336725
 30
0.0
 11
111.100677810557
 21
125.1115432613021
 31
0.0
  0
SPLINE
  5
2AF
330
6C
100
AcDbEntity
  8
Visible (ISO)
100
AcDbSpline
210
0.0
220
0.0
230
1.0
 70
     8
 71
     3
 72
    18
 73
    14
 74
     0
 42
0.0000000001
 43
0.0000000001
 40
-0.0004075725222822
 40
-0.0004075725222822
 40
-0.0004075725222822
 40
-0.0004075725222822
 40
0.0
 40
0.0
 40
0.0177980681435137
 40
0.0177980681435137
 40
0.0349653586843403
 40
0.0349653586843403
 40
0.0563244271726714
 40
0.0563244271726714
 40
0.0737683962098895
 40
0.0737683962098895
 40
0.0896419378862371
 40
0.0896419378862371
 40
0.0896419378862371
 40
0.0896419378862371
 10
111.100677810557
 20
125.1115432613021
 30
0.0
 10
111.0996254628296
 20
125.1106840229806
 30
0.0
 10
111.0985730028673
 20
125.1098249190765
 30
0.0
 10
111.0515569162799
 20
125.0714566302632
 30
0.0
 10
111.005288836378
 20
125.0341373237135
 30
0.0
 10
110.9165240722456
 20
124.9633017814612
 30
0.0
 10
110.8737871114088
 20
124.9295662149354
 30
0.0
 10
110.7833696282407
 20
124.8588236436718
 30
0.0
 10
110.7370164676847
 20
124.8230228364167
 30
0.0
 10
110.667347699289
 20
124.7696051207275
 30
0.0
 10
110.6418120120872
 20
124.7501903744246
 30
0.0
 10
110.6089541496142
 20
124.7252668127874
 30
0.0
 10
110.600677810557
 20
124.7190201247391
 30
0.0
 10
110.600677810557
 20
124.7190201247391
 30
0.0
  0
LINE
  5
2B0
330
6C
100
AcDbEntity
  8
Visible (ISO)
100
AcDbLine
 10
110.600677810557
 20
124.7190201247391
 30
0.0
 11
110.600677810557
 21
124.6021958336723
 31
0.0
  0
ARC
  5
2B1
330
6C
100
AcDbEntity
  8
Visible Narrow (ISO)
100
AcDbCircle
 10
112.100677810557
 20
130.0105227468684
 30
0.0
 40
4.999999999999999
100
AcDbArc
 50
101.5369590328153
 51
258.4630409671845
  0
SPLINE
  5
2B2
330
6C
100
AcDbEntity
  8
Visible (ISO)
100
AcDbSpline
210
0.0
220
0.0
230
1.0
 70
     8
 71
     3
 72
    18
 73
    14
 74
     0
 42
0.0000000001
 43
0.0000000001
 40
-0.0894071042413794
 40
-0.0894071042413794
 40
-0.0894071042413794
 40
-0.0894071042413794
 40
-0.0890024393096068
 40
-0.0890024393096068
 40
-0.0713313411927872
 40
-0.0713313411927872
 40
-0.054286520760529
 40
-0.054286520760529
 40
-0.0330798261969246
 40
-0.0330798261969246
 40
-0.0157603010710319
 40
-0.0157603010710319
 40
0.0
 40
0.0
 40
0.0
 40
0.0
 10
111.100677810557
 20
134.9095022324348
 30
0.0
 10
111.0996254628296
 20
134.9103614707562
 30
0.0
 10
111.0985730028674
 20
134.9112205746603
 30
0.0
 10
111.0515569162796
 20
134.9495888634739
 30
0.0
 10
111.0052888363779
 20
134.9869081700234
 30
0.0
 10
110.9165240722456
 20
135.0577437122755
 30
0.0
 10
110.8737871114088
 20
135.0914792788014
 30
0.0
 10
110.7833696282407
 20
135.162221850065
 30
0.0
 10
110.7370164676847
 20
135.1980226573201
 30
0.0
 10
110.667347699289
 20
135.2514403730092
 30
0.0
 10
110.6418120120872
 20
135.2708551193119
 30
0.0
 10
110.6089541496142
 20
135.2957786809492
 30
0.0
 10
110.600677810557
 20
135.3020253689975
 30
0.0
 10
110.600677810557
 20
135.3020253689974
 30
0.0
  0
ARC
  5
2B3
330
6C
100
AcDbEntity
  8
Visible (ISO)
100
AcDbCircle
 10
112.100677810557
 20
130.0105227468683
 30
0.0
 40
5.499999999999999
100
AcDbArc
 50
105.8266201318722
 51
254.1733798681276
  0
LINE
  5
2B4
330
6C
100
AcDbEntity
  8
Visible Narrow (ISO)
100
AcDbLine
 10
110.600677810557
 20
135.4188496600643
 30
0.0
 11
111.100677810557
 21
135.4188496600644
 31
0.0
  0
LINE
  5
2B5
330
6C
100
AcDbEntity
  8
Visible (ISO)
100
AcDbLine
 10
110.600677810557
 20
135.4188496600643
 30
0.0
 11
110.600677810557
 21
135.3020253689974
 31
0.0
  0
LINE
  5
2B6
330
6C
100
AcDbEntity
  8
Visible Narrow (ISO)
100
AcDbLine
 10
111.100677810557
 20
134.9095022324348
 30
0.0
 11
111.100677810557
 21
135.4188496600644
 31
0.0
  0
ARC
  5
2B7
330
6C
100
AcDbEntity
  8
Visible (ISO)
100
AcDbCircle
 10
111.100677810557
 20
135.4188496600643
 30
0.0
 40
0.5000000000000023
100
AcDbArc
 50
100.4756816963904
 51
180.0
  0
LINE
  5
2B8
330
6C
100
AcDbEntity
  8
Visible Narrow (ISO)
100
AcDbLine
 10
111.0097687196479
 20
124.1105297506545
 30
0.0
 11
111.100677810557
 21
124.6021958336725
 31
0.0
  0
ARC
  5
2B9
330
6C
100
AcDbEntity
  8
Visible (ISO)
100
AcDbCircle
 10
112.100677810557
 20
130.0105227468683
 30
0.0
 40
5.999999999999968
100
AcDbArc
 50
259.52431830361
 51
280.4756816963898
  0
LINE
  5
2BA
330
6C
100
AcDbEntity
  8
Visible Narrow (ISO)
100
AcDbLine
 10
113.100677810557
 20
124.6021958336725
 30
0.0
 11
113.1915869014661
 21
124.1105297506545
 31
0.0
  0
ARC
  5
2BB
330
6C
100
AcDbEntity
  8
Visible Narrow (ISO)
100
AcDbCircle
 10
112.100677810557
 20
130.0105227468684
 30
0.0
 40
5.5
100
AcDbArc
 50
259.5243183036103
 51
280.4756816963898
  0
ARC
  5
2BC
330
6C
100
AcDbEntity
  8
Visible (ISO)
100
AcDbCircle
 10
111.100677810557
 20
124.6021958336723
 30
0.0
 40
0.5000000000000006
100
AcDbArc
 50
180.0
 51
259.5243183036096
  0
ARC
  5
2BD
330
6C
100
AcDbEntity
  8
Visible (ISO)
100
AcDbCircle
 10
113.100677810557
 20
124.6021958336723
 30
0.0
 40
0.4999999999999984
100
AcDbArc
 50
280.4756816963905
 51
0.0
  0
SPLINE
  5
2BE
330
6C
100
AcDbEntity
  8
Visible (ISO)
100
AcDbSpline
210
0.0
220
0.0
230
1.0
 70
    12
 71
     2
 72
     6
 73
     3
 74
     0
 42
0.0000000001
 43
0.0000000001
 40
0.2934711240705192
 40
0.2934711240705192
 40
0.2934711240705192
 40
0.836552425408885
 40
0.836552425408885
 40
0.836552425408885
 10
99.84148843200223
 20
121.5105227468617
 30
0.0
 41
1.041636008661477
 10
100.600677810557
 20
123.7880908825266
 30
0.0
 41
1.059342642552006
 10
100.6006778105571
 20
125.7605227468625
 30
0.0
 41
1.0
  0
SPLINE
  5
2BF
330
6C
100
AcDbEntity
  8
Visible (ISO)
100
AcDbSpline
210
0.0
220
0.0
230
1.0
 70
    28
 71
     2
 72
     6
 73
     3
 74
     0
 42
0.0000000001
 43
0.0000000001
 40
0.8365524254088843
 40
0.8365524254088843
 40
0.8365524254088843
 40
1.379633726747249
 40
1.379633726747249
 40
1.379633726747249
 10
100.6006778105571
 20
121.5105227468603
 30
0.0
 41
1.0
 10
100.600677810557
 20
121.5105227468609
 30
0.0
 41
1.059342642552006
 10
99.84148843200223
 20
121.5105227468617
 30
0.0
 41
1.041636008661477
  0
LINE
  5
2C0
330
6C
100
AcDbEntity
  8
Visible (ISO)
100
AcDbLine
 10
100.6006778105571
 20
121.5105227468603
 30
0.0
 11
100.6006778105571
 21
125.7605227468625
 31
0.0
  0
SPLINE
  5
2C1
330
6C
100
AcDbEntity
  8
Visible (ISO)
100
AcDbSpline
210
0.0
220
0.0
230
1.0
 70
    12
 71
     2
 72
     6
 73
     3
 74
     0
 42
0.0000000001
 43
0.0000000001
 40
0.836552425408885
 40
0.836552425408885
 40
0.836552425408885
 40
1.37963372674725
 40
1.37963372674725
 40
1.37963372674725
 10
100.6006778105571
 20
125.7605227468625
 30
0.0
 41
1.0
 10
100.600677810557
 20
127.7329546111984
 30
0.0
 41
1.059342642552004
 10
99.84148843200223
 20
130.0105227468632
 30
0.0
 41
1.041636008661477
  0
LINE
  5
2C2
330
6C
100
AcDbEntity
  8
Visible (ISO)
100
AcDbLine
 10
100.6006778105571
 20
125.7605227468625
 30
0.0
 11
100.6006778105571
 21
134.2605227468625
 31
0.0
  0
SPLINE
  5
2C3
330
6C
100
AcDbEntity
  8
Visible (ISO)
100
AcDbSpline
210
0.0
220
0.0
230
1.0
 70
    12
 71
     2
 72
     6
 73
     3
 74
     0
 42
0.0000000001
 43
0.0000000001
 40
0.2934711240705186
 40
0.2934711240705186
 40
0.2934711240705186
 40
0.8365524254088846
 40
0.8365524254088846
 40
0.8365524254088846
 10
99.84148843200223
 20
130.0105227468632
 30
0.0
 41
1.041636008661481
 10
100.600677810557
 20
132.2880908825273
 30
0.0
 41
1.059342642552012
 10
100.6006778105571
 20
134.2605227468625
 30
0.0
 41
1.0
  0
SPLINE
  5
2C4
330
6C
100
AcDbEntity
  8
Visible (ISO)
100
AcDbSpline
210
0.0
220
0.0
230
1.0
 70
    12
 71
     2
 72
     6
 73
     3
 74
     0
 42
0.0000000001
 43
0.0000000001
 40
0.8365524254088846
 40
0.8365524254088846
 40
0.8365524254088846
 40
1.37963372674725
 40
1.37963372674725
 40
1.37963372674725
 10
100.6006778105571
 20
134.2605227468625
 30
0.0
 41
1.0
 10
100.600677810557
 20
136.2329546111977
 30
0.0
 41
1.059342642552004
 10
99.84148843200223
 20
138.5105227468618
 30
0.0
 41
1.041636008661475
  0
LINE
  5
2C5
330
6C
100
AcDbEntity
  8
Visible (ISO)
100
AcDbLine
 10
100.6006778105571
 20
134.2605227468625
 30
0.0
 11
100.6006778105571
 21
138.5105227468604
 31
0.0
  0
SPLINE
  5
2C6
330
6C
100
AcDbEntity
  8
Visible (ISO)
100
AcDbSpline
210
0.0
220
0.0
230
1.0
 70
    28
 71
     2
 72
     6
 73
     3
 74
     0
 42
0.0000000001
 43
0.0000000001
 40
0.2934711240705211
 40
0.2934711240705211
 40
0.2934711240705211
 40
0.8365524254088846
 40
0.8365524254088846
 40
0.8365524254088846
 10
99.84148843200223
 20
138.5105227468618
 30
0.0
 41
1.041636008661469
 10
100.600677810557
 20
138.510522746861
 30
0.0
 41
1.059342642551992
 10
100.6006778105571
 20
138.5105227468603
 30
0.0
 41
1.0
  0
LINE
  5
2C7
330
6C
100
AcDbEntity
  8
Visible (ISO)
100
AcDbLine
 10
88.35986718911188
 20
138.5105227468618
 30
0.0
 11
99.84148843200223
 21
138.5105227468618
 31
0.0
  0
LINE
  5
2C8
330
6C
100
AcDbEntity
  8
Visible (ISO)
100
AcDbLine
 10
88.35986718911188
 20
130.0105227468632
 30
0.0
 11
99.84148843200223
 21
130.0105227468632
 31
0.0
  0
LINE
  5
2C9
330
6C
100
AcDbEntity
  8
Visible (ISO)
100
AcDbLine
 10
88.35986718911192
 20
121.5105227468617
 30
0.0
 11
99.84148843200223
 21
121.5105227468617
 31
0.0
  0
SPLINE
  5
2CA
330
6C
100
AcDbEntity
  8
Visible (ISO)
100
AcDbSpline
210
0.0
220
0.0
230
1.0
 70
    12
 71
     2
 72
     6
 73
     3
 74
     0
 42
0.0000000001
 43
0.0000000001
 40
0.2934711240705226
 40
0.2934711240705226
 40
0.2934711240705226
 40
0.8365524254088853
 40
0.8365524254088853
 40
0.8365524254088853
 10
88.35986718911188
 20
138.5105227468618
 30
0.0
 41
1.041636008661464
 10
87.6006778105571
 20
136.2329546111975
 30
0.0
 41
1.059342642551986
 10
87.60067781055706
 20
134.2605227468625
 30
0.0
 41
1.0
  0
SPLINE
  5
2CB
330
6C
100
AcDbEntity
  8
Visible (ISO)
100
AcDbSpline
210
0.0
220
0.0
230
1.0
 70
    12
 71
     2
 72
     6
 73
     3
 74
     0
 42
0.0000000001
 43
0.0000000001
 40
0.8365524254088853
 40
0.8365524254088853
 40
0.8365524254088853
 40
1.379633726747248
 40
1.379633726747248
 40
1.379633726747248
 10
87.60067781055706
 20
134.2605227468625
 30
0.0
 41
1.0
 10
87.60067781055708
 20
132.2880908825273
 30
0.0
 41
1.059342642551984
 10
88.35986718911192
 20
130.0105227468632
 30
0.0
 41
1.041636008661461
  0
SPLINE
  5
2CC
330
6C
100
AcDbEntity
  8
Visible (ISO)
100
AcDbSpline
210
0.0
220
0.0
230
1.0
 70
    28
 71
     2
 72
     6
 73
     3
 74
     0
 42
0.0000000001
 43
0.0000000001
 40
0.8365524254088857
 40
0.8365524254088857
 40
0.8365524254088857
 40
1.379633726747248
 40
1.379633726747248
 40
1.379633726747248
 10
87.60067781055706
 20
138.5105227468604
 30
0.0
 41
1.0
 10
87.60067781055708
 20
138.5105227468611
 30
0.0
 41
1.059342642551986
 10
88.35986718911188
 20
138.5105227468618
 30
0.0
 41
1.041636008661464
  0
LINE
  5
2CD
330
6C
100
AcDbEntity
  8
Visible (ISO)
100
AcDbLine
 10
87.60067781055706
 20
138.5105227468604
 30
0.0
 11
87.60067781055706
 21
134.2605227468625
 31
0.0
  0
LINE
  5
2CE
330
6C
100
AcDbEntity
  8
Visible (ISO)
100
AcDbLine
 10
87.60067781055706
 20
134.2605227468625
 30
0.0
 11
87.60067781055706
 21
125.7605227468625
 31
0.0
  0
SPLINE
  5
2CF
330
6C
100
AcDbEntity
  8
Visible (ISO)
100
AcDbSpline
210
0.0
220
0.0
230
1.0
 70
    12
 71
     2
 72
     6
 73
     3
 74
     0
 42
0.0000000001
 43
0.0000000001
 40
0.2934711240705224
 40
0.2934711240705224
 40
0.2934711240705224
 40
0.836552425408885
 40
0.836552425408885
 40
0.836552425408885
 10
88.35986718911192
 20
130.0105227468632
 30
0.0
 41
1.041636008661464
 10
87.6006778105571
 20
127.7329546111984
 30
0.0
 41
1.059342642551986
 10
87.60067781055706
 20
125.7605227468625
 30
0.0
 41
1.0
  0
SPLINE
  5
2D0
330
6C
100
AcDbEntity
  8
Visible (ISO)
100
AcDbSpline
210
0.0
220
0.0
230
1.0
 70
    12
 71
     2
 72
     6
 73
     3
 74
     0
 42
0.0000000001
 43
0.0000000001
 40
0.836552425408885
 40
0.836552425408885
 40
0.836552425408885
 40
1.379633726747248
 40
1.379633726747248
 40
1.379633726747248
 10
87.60067781055706
 20
125.7605227468625
 30
0.0
 41
1.0
 10
87.6006778105571
 20
123.7880908825266
 30
0.0
 41
1.059342642551986
 10
88.35986718911192
 20
121.5105227468617
 30
0.0
 41
1.041636008661464
  0
LINE
  5
2D1
330
6C
100
AcDbEntity
  8
Visible (ISO)
100
AcDbLine
 10
87.60067781055706
 20
125.7605227468625
 30
0.0
 11
87.60067781055706
 21
121.5105227468603
 31
0.0
  0
SPLINE
  5
2D2
330
6C
100
AcDbEntity
  8
Visible (ISO)
100
AcDbSpline
210
0.0
220
0.0
230
1.0
 70
    28
 71
     2
 72
     6
 73
     3
 74
     0
 42
0.0000000001
 43
0.0000000001
 40
0.2934711240705217
 40
0.2934711240705217
 40
0.2934711240705217
 40
0.836552425408885
 40
0.836552425408885
 40
0.836552425408885
 10
88.35986718911192
 20
121.5105227468617
 30
0.0
 41
1.041636008661465
 10
87.6006778105571
 20
121.5105227468609
 30
0.0
 41
1.05934264255199
 10
87.60067781055706
 20
121.5105227468603
 30
0.0
 41
1.0
  0
SPLINE
  5
2D3
330
6C
100
AcDbEntity
  8
Visible (ISO)
100
AcDbSpline
210
0.0
220
0.0
230
1.0
 70
    28
 71
     2
 72
     6
 73
     3
 74
     0
 42
0.0000000001
 43
0.0000000001
 40
0.2934711240705181
 40
0.2934711240705181
 40
0.2934711240705181
 40
0.8365524254088843
 40
0.8365524254088843
 40
0.8365524254088843
 10
120.600677810557
 20
145.7697121254166
 30
0.0
 41
1.041636008661481
 10
120.600677810557
 20
145.010522746861
 30
0.0
 41
1.05934264255201
 10
120.600677810557
 20
145.0105227468604
 30
0.0
 41
1.0
  0
SPLINE
  5
2D4
330
6C
100
AcDbEntity
  8
Visible (ISO)
100
AcDbSpline
210
0.0
220
0.0
230
1.0
 70
    12
 71
     2
 72
     6
 73
     3
 74
     0
 42
0.0000000001
 43
0.0000000001
 40
0.836552425408885
 40
0.836552425408885
 40
0.836552425408885
 40
1.379633726747249
 40
1.379633726747249
 40
1.379633726747249
 10
116.3506778105571
 20
145.0105227468625
 30
0.0
 41
1.0
 10
118.3231096748926
 20
145.0105227468623
 30
0.0
 41
1.059342642551996
 10
120.600677810557
 20
145.7697121254166
 30
0.0
 41
1.041636008661469
  0
LINE
  5
2D5
330
6C
100
AcDbEntity
  8
Visible (ISO)
100
AcDbLine
 10
116.350677810557
 20
145.0105227468625
 30
0.0
 11
120.600677810557
 21
145.0105227468604
 31
0.0
  0
SPLINE
  5
2D6
330
6C
100
AcDbEntity
  8
Visible (ISO)
100
AcDbSpline
210
0.0
220
0.0
230
1.0
 70
    28
 71
     2
 72
     6
 73
     3
 74
     0
 42
0.0000000001
 43
0.0000000001
 40
0.8365524254088846
 40
0.8365524254088846
 40
0.8365524254088846
 40
1.379633726747248
 40
1.379633726747248
 40
1.379633726747248
 10
103.600677810557
 20
145.0105227468604
 30
0.0
 41
1.0
 10
103.600677810557
 20
145.010522746861
 30
0.0
 41
1.059342642551984
 10
103.600677810557
 20
145.7697121254166
 30
0.0
 41
1.041636008661461
  0
LINE
  5
2D7
330
6C
100
AcDbEntity
  8
Visible (ISO)
100
AcDbLine
 10
103.600677810557
 20
145.0105227468604
 30
0.0
 11
107.850677810557
 21
145.0105227468625
 31
0.0
  0
SPLINE
  5
2D8
330
6C
100
AcDbEntity
  8
Visible (ISO)
100
AcDbSpline
210
0.0
220
0.0
230
1.0
 70
    12
 71
     2
 72
     6
 73
     3
 74
     0
 42
0.0000000001
 43
0.0000000001
 40
0.2934711240705199
 40
0.2934711240705199
 40
0.2934711240705199
 40
0.836552425408885
 40
0.836552425408885
 40
0.836552425408885
 10
103.600677810557
 20
145.7697121254166
 30
0.0
 41
1.041636008661477
 10
105.8782459462215
 20
145.0105227468623
 30
0.0
 41
1.059342642552006
 10
107.850677810557
 20
145.0105227468625
 30
0.0
 41
1.0
  0
SPLINE
  5
2D9
330
6C
100
AcDbEntity
  8
Visible (ISO)
100
AcDbSpline
210
0.0
220
0.0
230
1.0
 70
    12
 71
     2
 72
     6
 73
     3
 74
     0
 42
0.0000000001
 43
0.0000000001
 40
0.836552425408885
 40
0.836552425408885
 40
0.836552425408885
 40
1.37963372674725
 40
1.37963372674725
 40
1.37963372674725
 10
107.850677810557
 20
145.0105227468625
 30
0.0
 41
1.0
 10
109.8231096748925
 20
145.0105227468629
 30
0.0
 41
1.059342642552004
 10
112.100677810557
 20
145.7697121254181
 30
0.0
 41
1.041636008661477
  0
LINE
  5
2DA
330
6C
100
AcDbEntity
  8
Visible (ISO)
100
AcDbLine
 10
107.850677810557
 20
145.0105227468626
 30
0.0
 11
116.350677810557
 21
145.0105227468625
 31
0.0
  0
SPLINE
  5
2DB
330
6C
100
AcDbEntity
  8
Visible (ISO)
100
AcDbSpline
210
0.0
220
0.0
230
1.0
 70
    12
 71
     2
 72
     6
 73
     3
 74
     0
 42
0.0000000001
 43
0.0000000001
 40
0.2934711240705199
 40
0.2934711240705199
 40
0.2934711240705199
 40
0.836552425408885
 40
0.836552425408885
 40
0.836552425408885
 10
112.100677810557
 20
145.7697121254181
 30
0.0
 41
1.041636008661475
 10
114.3782459462215
 20
145.0105227468629
 30
0.0
 41
1.059342642552002
 10
116.3506778105571
 20
145.0105227468625
 30
0.0
 41
1.0
  0
LINE
  5
2DC
330
6C
100
AcDbEntity
  8
Visible (ISO)
100
AcDbLine
 10
103.600677810557
 20
157.251333368307
 30
0.0
 11
103.600677810557
 21
145.7697121254166
 31
0.0
  0
LINE
  5
2DD
330
6C
100
AcDbEntity
  8
Visible (ISO)
100
AcDbLine
 10
112.100677810557
 20
157.2513333683084
 30
0.0
 11
112.100677810557
 21
145.7697121254181
 31
0.0
  0
LINE
  5
2DE
330
6C
100
AcDbEntity
  8
Visible (ISO)
100
AcDbLine
 10
120.600677810557
 20
157.251333368307
 30
0.0
 11
120.600677810557
 21
145.7697121254166
 31
0.0
  0
SPLINE
  5
2DF
330
6C
100
AcDbEntity
  8
Visible (ISO)
100
AcDbSpline
210
0.0
220
0.0
230
1.0
 70
    28
 71
     2
 72
     6
 73
     3
 74
     0
 42
0.0000000001
 43
0.0000000001
 40
0.2934711240705223
 40
0.2934711240705223
 40
0.2934711240705223
 40
0.8365524254088857
 40
0.8365524254088857
 40
0.8365524254088857
 10
103.600677810557
 20
157.251333368307
 30
0.0
 41
1.041636008661464
 10
103.600677810557
 20
158.010522746861
 30
0.0
 41
1.059342642551986
 10
103.600677810557
 20
158.0105227468603
 30
0.0
 41
1.0
  0
SPLINE
  5
2E0
330
6C
100
AcDbEntity
  8
Visible (ISO)
100
AcDbSpline
210
0.0
220
0.0
230
1.0
 70
    12
 71
     2
 72
     6
 73
     3
 74
     0
 42
0.0000000001
 43
0.0000000001
 40
0.2934711240705219
 40
0.2934711240705219
 40
0.2934711240705219
 40
0.836552425408885
 40
0.836552425408885
 40
0.836552425408885
 10
112.100677810557
 20
157.2513333683084
 30
0.0
 41
1.041636008661464
 10
109.8231096748925
 20
158.0105227468628
 30
0.0
 41
1.059342642551986
 10
107.850677810557
 20
158.0105227468625
 30
0.0
 41
1.0
  0
SPLINE
  5
2E1
330
6C
100
AcDbEntity
  8
Visible (ISO)
100
AcDbSpline
210
0.0
220
0.0
230
1.0
 70
    12
 71
     2
 72
     6
 73
     3
 74
     0
 42
0.0000000001
 43
0.0000000001
 40
0.836552425408885
 40
0.836552425408885
 40
0.836552425408885
 40
1.379633726747245
 40
1.379633726747245
 40
1.379633726747245
 10
107.850677810557
 20
158.0105227468625
 30
0.0
 41
1.0
 10
105.8782459462215
 20
158.010522746862
 30
0.0
 41
1.059342642551986
 10
103.600677810557
 20
157.251333368307
 30
0.0
 41
1.041636008661464
  0
LINE
  5
2E2
330
6C
100
AcDbEntity
  8
Visible (ISO)
100
AcDbLine
 10
107.8506778105571
 20
158.0105227468625
 30
0.0
 11
103.600677810557
 21
158.0105227468603
 31
0.0
  0
SPLINE
  5
2E3
330
6C
100
AcDbEntity
  8
Visible (ISO)
100
AcDbSpline
210
0.0
220
0.0
230
1.0
 70
    28
 71
     2
 72
     6
 73
     3
 74
     0
 42
0.0000000001
 43
0.0000000001
 40
0.836552425408885
 40
0.836552425408885
 40
0.836552425408885
 40
1.379633726747248
 40
1.379633726747248
 40
1.379633726747248
 10
120.600677810557
 20
158.0105227468603
 30
0.0
 41
1.0
 10
120.600677810557
 20
158.010522746861
 30
0.0
 41
1.05934264255199
 10
120.600677810557
 20
157.251333368307
 30
0.0
 41
1.041636008661465
  0
LINE
  5
2E4
330
6C
100
AcDbEntity
  8
Visible (ISO)
100
AcDbLine
 10
120.600677810557
 20
158.0105227468603
 30
0.0
 11
116.350677810557
 21
158.0105227468625
 31
0.0
  0
SPLINE
  5
2E5
330
6C
100
AcDbEntity
  8
Visible (ISO)
100
AcDbSpline
210
0.0
220
0.0
230
1.0
 70
    12
 71
     2
 72
     6
 73
     3
 74
     0
 42
0.0000000001
 43
0.0000000001
 40
0.2934711240705221
 40
0.2934711240705221
 40
0.2934711240705221
 40
0.8365524254088846
 40
0.8365524254088846
 40
0.8365524254088846
 10
120.600677810557
 20
157.251333368307
 30
0.0
 41
1.041636008661461
 10
118.3231096748926
 20
158.010522746862
 30
0.0
 41
1.059342642551984
 10
116.3506778105571
 20
158.0105227468625
 30
0.0
 41
1.0
  0
SPLINE
  5
2E6
330
6C
100
AcDbEntity
  8
Visible (ISO)
100
AcDbSpline
210
0.0
220
0.0
230
1.0
 70
    12
 71
     2
 72
     6
 73
     3
 74
     0
 42
0.0000000001
 43
0.0000000001
 40
0.8365524254088846
 40
0.8365524254088846
 40
0.8365524254088846
 40
1.379633726747245
 40
1.379633726747245
 40
1.379633726747245
 10
116.3506778105571
 20
158.0105227468625
 30
0.0
 41
1.0
 10
114.3782459462215
 20
158.0105227468628
 30
0.0
 41
1.059342642551986
 10
112.100677810557
 20
157.2513333683084
 30
0.0
 41
1.041636008661464
  0
LINE
  5
2E7
330
6C
100
AcDbEntity
  8
Visible (ISO)
100
AcDbLine
 10
116.350677810557
 20
158.0105227468626
 30
0.0
 11
107.850677810557
 21
158.0105227468625
 31
0.0
  0
LINE
  5
2E8
330
6C
100
AcDbEntity
  8
Overlay (ISO)
 48
7.659456729888916
100
AcDbLine
 10
136.1006778105571
 20
133.5105227468625
 30
0.0
 11
136.1006778105571
 21
138.2605227468603
 31
0.0
  0
LINE
  5
2E9
330
6C
100
AcDbEntity
  8
Overlay (ISO)
 48
7.659456729888916
100
AcDbLine
 10
136.1006778105571
 20
121.7605227468603
 30
0.0
 11
136.1006778105571
 21
126.5105227468625
 31
0.0
  0
LINE
  5
2EA
330
6C
100
AcDbEntity
  8
Overlay (ISO)
 48
7.001832962036132
100
AcDbLine
 10
136.600677810557
 20
126.5105227468624
 30
0.0
 11
136.600677810557
 21
122.2605227468603
 31
0.0
  0
LINE
  5
2EB
330
6C
100
AcDbEntity
  8
Overlay (ISO)
 48
7.001832962036132
100
AcDbLine
 10
136.600677810557
 20
137.7605227468603
 30
0.0
 11
136.600677810557
 21
133.5105227468624
 31
0.0
  0
LINE
  5
2EC
330
6C
100
AcDbEntity
  8
Overlay (ISO)
 48
0.4562745988368988
100
AcDbLine
 10
136.600677810557
 20
122.2605227468603
 30
0.0
 11
136.1006778105571
 21
121.7605227468603
 31
0.0
  0
LINE
  5
2ED
330
6C
100
AcDbEntity
  8
Overlay (ISO)
 48
0.4562745988368988
100
AcDbLine
 10
136.600677810557
 20
137.7605227468603
 30
0.0
 11
136.1006778105571
 21
138.2605227468603
 31
0.0
  0
SPLINE
  5
2EE
330
6C
100
AcDbEntity
  8
Overlay (ISO)
 48
2.277396440505981
100
AcDbSpline
210
0.0
220
0.0
230
1.0
 70
    12
 71
     2
 72
     6
 73
     3
 74
     0
 42
0.0000000001
 43
0.0000000001
 40
0.4256073096284686
 40
0.4256073096284686
 40
0.4256073096284686
 40
0.8192657815317236
 40
0.8192657815317236
 40
0.8192657815317236
 10
123.1676651086648
 20
122.6007165819208
 30
0.0
 41
1.045691116018839
 10
123.5824497388128
 20
124.1780584699314
 30
0.0
 41
1.04493719226238
 10
123.5998795329344
 20
125.6277435479342
 30
0.0
 41
1.003699766927024
  0
SPLINE
  5
2EF
330
6C
100
AcDbEntity
  8
Overlay (ISO)
 48
2.277396440505981
100
AcDbSpline
210
0.0
220
0.0
230
1.0
 70
    12
 71
     2
 72
     6
 73
     3
 74
     0
 42
0.0000000001
 43
0.0000000001
 40
0.8538390692860449
 40
0.8538390692860449
 40
0.8538390692860449
 40
1.247497541189297
 40
1.247497541189297
 40
1.247497541189297
 10
123.5998795329344
 20
134.3933019457908
 30
0.0
 41
1.003699766927024
 10
123.5824497388129
 20
135.8429870237931
 30
0.0
 41
1.044937192262372
 10
123.1676651086647
 20
137.4203289118031
 30
0.0
 41
1.04569111601883
  0
LINE
  5
2F0
330
6C
100
AcDbEntity
  8
Overlay (ISO)
 48
2.990718841552734
100
AcDbLine
 10
118.5336905124493
 20
122.6007165819208
 30
0.0
 11
123.1676651086647
 21
122.6007165819208
 31
0.0
  0
LINE
  5
2F1
330
6C
100
AcDbEntity
  8
Overlay (ISO)
 48
0.611578106880188
100
AcDbLine
 10
118.5336905124492
 20
122.073268813668
 30
0.0
 11
118.5336905124492
 21
122.6007165819208
 31
0.0
  0
ELLIPSE
  5
2F2
330
6C
100
AcDbEntity
  8
Overlay (ISO)
 48
0.6166242957115175
100
AcDbEllipse
 10
115.7912767337984
 20
130.0105227468603
 30
0.0
 11
0.0
 21
-9.25
 31
0.0
210
0.0
220
0.0
230
1.0
 40
0.577350269189626
 41
0.4471887452263418
 42
0.5392744123179991
  0
SPLINE
  5
2F3
330
6C
100
AcDbEntity
  8
Overlay (ISO)
 48
1.42379868030548
100
AcDbSpline
210
0.0
220
0.0
230
1.0
 70
    12
 71
     2
 72
     6
 73
     3
 74
     0
 42
0.0000000001
 43
0.0000000001
 40
0.9570977237668156
 40
0.9570977237668156
 40
0.9570977237668156
 40
1.197529924693542
 40
1.197529924693542
 40
1.197529924693542
 10
118.1738662289226
 20
124.4844665258126
 30
0.0
 41
1.027716443952529
 10
118.2773762063575
 20
123.5754279432129
 30
0.0
 41
1.042467050658394
 10
118.5336905124493
 20
122.6007165819208
 30
0.0
 41
1.041774167103256
  0
LINE
  5
2F4
330
6C
100
AcDbEntity
  8
Overlay (ISO)
 48
2.980243921279905
100
AcDbLine
 10
123.1676651086647
 20
137.4203289118031
 30
0.0
 11
118.5499202003265
 21
137.4203289118031
 31
0.0
  0
SPLINE
  5
2F5
330
6C
100
AcDbEntity
  8
Overlay (ISO)
 48
1.371741294860839
100
AcDbSpline
210
0.0
220
0.0
230
1.0
 70
    12
 71
     2
 72
     6
 73
     3
 74
     0
 42
0.0000000001
 43
0.0000000001
 40
0.3932061578396785
 40
0.3932061578396785
 40
0.3932061578396785
 40
0.6252259523257126
 40
0.6252259523257126
 40
0.6252259523257126
 10
118.51593631218
 20
137.3521908478194
 30
0.0
 41
1.041803747226504
 10
118.2738040055757
 20
136.4142460014496
 30
0.0
 41
1.041950946333024
 10
118.1738662289226
 20
135.536578967912
 30
0.0
 41
1.027716443952529
  0
LINE
  5
2F6
330
6C
100
AcDbEntity
  8
Overlay (ISO)
 48
2.030720949172973
100
AcDbLine
 10
118.100677810557
 20
122.5105227468615
 30
0.0
 11
118.100677810557
 21
124.4657071428946
 31
0.0
  0
LINE
  5
2F7
330
6C
100
AcDbEntity
  8
Overlay (ISO)
 48
0.4004427790641786
100
AcDbLine
 10
118.100677810557
 20
135.5553383508298
 30
0.0
 11
118.100677810557
 21
136.010522746862
 31
0.0
  0
SPLINE
  5
2F8
330
6C
100
AcDbEntity
  8
Overlay (ISO)
 48
0.6260591745376587
100
AcDbSpline
210
0.0
220
0.0
230
1.0
 70
    12
 71
     2
 72
     6
 73
     3
 74
     0
 42
0.0000000001
 43
0.0000000001
 40
-1.486263498190694
 40
-1.486263498190694
 40
-1.486263498190694
 40
-1.36702465746637
 40
-1.36702465746637
 40
-1.36702465746637
 10
118.1006778105957
 20
122.5105227468212
 30
0.0
 41
1.0
 10
118.3110517072722
 20
122.2918957802446
 30
0.0
 41
1.0
 10
118.5336905124492
 20
122.073268813668
 30
0.0
 41
1.0
  0
LINE
  5
2F9
330
6C
100
AcDbEntity
  8
Overlay (ISO)
 48
1.410424947738645
100
AcDbLine
 10
123.1676651086647
 20
122.6007165819208
 30
0.0
 11
123.1676651086647
 21
121.5105227468614
 31
0.0
  0
SPLINE
  5
2FA
330
6C
100
AcDbEntity
  8
Overlay (ISO)
 48
2.376354217529294
100
AcDbSpline
210
0.0
220
0.0
230
1.0
 70
    28
 71
     2
 72
     6
 73
     3
 74
     0
 42
0.0000000001
 43
0.0000000001
 40
0.8365524254088846
 40
0.8365524254088846
 40
0.8365524254088846
 40
1.2474975411893
 40
1.2474975411893
 40
1.2474975411893
 10
123.600677810557
 20
121.5105227468604
 30
0.0
 41
1.0
 10
123.600677810557
 20
121.5105227468608
 30
0.0
 41
1.044904085362809
 10
123.1676651086648
 20
121.5105227468614
 30
0.0
 41
1.045691116018822
  0
LINE
  5
2FB
330
6C
100
AcDbEntity
  8
Overlay (ISO)
 48
7.169835090637207
100
AcDbLine
 10
123.600677810557
 20
121.5105227468603
 30
0.0
 11
123.600677810557
 21
125.6278764649889
 31
0.0
  0
SPLINE
  5
2FC
330
6C
100
AcDbEntity
  8
Overlay (ISO)
 48
2.376354217529294
100
AcDbSpline
210
0.0
220
0.0
230
1.0
 70
    28
 71
     2
 72
     6
 73
     3
 74
     0
 42
0.0000000001
 43
0.0000000001
 40
0.4256073096284699
 40
0.4256073096284699
 40
0.4256073096284699
 40
0.8365524254088839
 40
0.8365524254088839
 40
0.8365524254088839
 10
123.1676651086647
 20
138.5105227468614
 30
0.0
 41
1.045691116018829
 10
123.6006778105569
 20
138.5105227468608
 30
0.0
 41
1.044904085362813
 10
123.600677810557
 20
138.5105227468603
 30
0.0
 41
1.0
  0
LINE
  5
2FD
330
6C
100
AcDbEntity
  8
Overlay (ISO)
 48
1.410424947738645
100
AcDbLine
 10
123.1676651086647
 20
138.5105227468614
 30
0.0
 11
123.1676651086647
 21
137.4203289118031
 31
0.0
  0
LINE
  5
2FE
330
6C
100
AcDbEntity
  8
Overlay (ISO)
 48
7.169835090637207
100
AcDbLine
 10
123.600677810557
 20
134.393169028736
 30
0.0
 11
123.600677810557
 21
138.5105227468603
 31
0.0
  0
LINE
  5
2FF
330
6C
100
AcDbEntity
  8
Overlay (ISO)
 48
9.071301460266113
100
AcDbLine
 10
123.1676651086647
 20
121.5105227468614
 30
0.0
 11
101.0336905124493
 21
121.5105227468614
 31
0.0
  0
LINE
  5
300
330
6C
100
AcDbEntity
  8
Overlay (ISO)
 48
2.990718841552734
100
AcDbLine
 10
101.0336905124493
 20
122.6007165819208
 30
0.0
 11
105.6676651086648
 21
122.6007165819208
 31
0.0
  0
LINE
  5
301
330
6C
100
AcDbEntity
  8
Overlay (ISO)
 48
1.410424947738645
100
AcDbLine
 10
101.0336905124493
 20
121.5105227468614
 30
0.0
 11
101.0336905124493
 21
122.6007165819208
 31
0.0
  0
LINE
  5
302
330
6C
100
AcDbEntity
  8
Overlay (ISO)
 48
1.410424947738645
100
AcDbLine
 10
101.0336905124493
 20
137.4203289118031
 30
0.0
 11
101.0336905124493
 21
138.5105227468615
 31
0.0
  0
LINE
  5
303
330
6C
100
AcDbEntity
  8
Overlay (ISO)
 48
1.410424947738645
100
AcDbLine
 10
101.0336905124493
 20
128.9203289118042
 30
0.0
 11
101.0336905124493
 21
131.1007165819219
 31
0.0
  0
LINE
  5
304
330
6C
100
AcDbEntity
  8
Overlay (ISO)
 48
2.980243921279905
100
AcDbLine
 10
105.6514354207876
 20
137.4203289118031
 30
0.0
 11
101.0336905124493
 21
137.4203289118031
 31
0.0
  0
LINE
  5
305
330
6C
100
AcDbEntity
  8
Overlay (ISO)
 48
2.1877863407135
100
AcDbLine
 10
101.0336905124493
 20
138.5105227468614
 30
0.0
 11
104.423601544165
 21
138.5105227468614
 31
0.0
  0
LINE
  5
306
330
6C
100
AcDbEntity
  8
Overlay (ISO)
 48
2.386104822158813
100
AcDbLine
 10
104.7308760898864
 20
128.9203289118042
 30
0.0
 11
101.0336905124493
 21
128.9203289118042
 31
0.0
  0
LINE
  5
307
330
6C
100
AcDbEntity
  8
Overlay (ISO)
 48
2.386104822158813
100
AcDbLine
 10
101.0336905124493
 20
131.1007165819219
 30
0.0
 11
104.7308760898864
 21
131.1007165819219
 31
0.0
  0
LINE
  5
308
330
6C
100
AcDbEntity
  8
Overlay (ISO)
 48
2.1877863407135
100
AcDbLine
 10
119.7777540769491
 20
138.5105227468614
 30
0.0
 11
123.1676651086647
 21
138.5105227468614
 31
0.0
  0
SPLINE
  5
309
330
6C
100
AcDbEntity
  8
Overlay (ISO)
 48
2.376354217529294
100
AcDbSpline
210
0.0
220
0.0
230
1.0
 70
    28
 71
     2
 72
     6
 73
     3
 74
     0
 42
0.0000000001
 43
0.0000000001
 40
0.4226777092670462
 40
0.4226777092670462
 40
0.4226777092670462
 40
0.8332926396892185
 40
0.8332926396892185
 40
0.8332926396892185
 10
101.0336905124493
 20
121.5105227468614
 30
0.0
 41
1.045413293158438
 10
100.600677810557
 20
121.5105227468608
 30
0.0
 41
1.044765269262242
 10
100.600677810557
 20
121.5105227468604
 30
0.0
 41
1.0
  0
SPLINE
  5
30A
330
6C
100
AcDbEntity
  8
Overlay (ISO)
 48
2.376354217529294
100
AcDbSpline
210
0.0
220
0.0
230
1.0
 70
    28
 71
     2
 72
     6
 73
     3
 74
     0
 42
0.0000000001
 43
0.0000000001
 40
0.8332926396892174
 40
0.8332926396892174
 40
0.8332926396892174
 40
1.243907570111385
 40
1.243907570111385
 40
1.243907570111385
 10
100.600677810557
 20
138.5105227468603
 30
0.0
 41
1.0
 10
100.600677810557
 20
138.5105227468608
 30
0.0
 41
1.044765269262236
 10
101.0336905124493
 20
138.5105227468614
 30
0.0
 41
1.045413293158431
  0
LINE
  5
30B
330
6C
100
AcDbEntity
  8
Overlay (ISO)
 48
7.296048641204831
100
AcDbLine
 10
100.600677810557
 20
138.5105227468603
 30
0.0
 11
100.600677810557
 21
134.2605227468625
 31
0.0
  0
SPLINE
  5
30C
330
6C
100
AcDbEntity
  8
Overlay (ISO)
 48
2.376354217529294
100
AcDbSpline
210
0.0
220
0.0
230
1.0
 70
    12
 71
     2
 72
     6
 73
     3
 74
     0
 42
0.0000000001
 43
0.0000000001
 40
0.4226777092670477
 40
0.4226777092670477
 40
0.4226777092670477
 40
0.8332926396892176
 40
0.8332926396892176
 40
0.8332926396892176
 10
101.0336905124493
 20
137.4203289118031
 30
0.0
 41
1.045413293158433
 10
100.600677810557
 20
135.7736693610594
 30
0.0
 41
1.044765269262237
 10
100.600677810557
 20
134.2605227468625
 30
0.0
 41
1.0
  0
SPLINE
  5
30D
330
6C
100
AcDbEntity
  8
Overlay (ISO)
 48
2.376354217529294
100
AcDbSpline
210
0.0
220
0.0
230
1.0
 70
    12
 71
     2
 72
     6
 73
     3
 74
     0
 42
0.0000000001
 43
0.0000000001
 40
0.8332926396892176
 40
0.8332926396892176
 40
0.8332926396892176
 40
1.243907570111385
 40
1.243907570111385
 40
1.243907570111385
 10
100.600677810557
 20
134.2605227468625
 30
0.0
 41
1.0
 10
100.600677810557
 20
132.7473761326656
 30
0.0
 41
1.044765269262236
 10
101.0336905124493
 20
131.1007165819219
 30
0.0
 41
1.045413293158431
  0
LINE
  5
30E
330
6C
100
AcDbEntity
  8
Overlay (ISO)
 48
7.296048641204831
100
AcDbLine
 10
100.600677810557
 20
134.2605227468625
 30
0.0
 11
100.600677810557
 21
125.7605227468625
 31
0.0
  0
SPLINE
  5
30F
330
6C
100
AcDbEntity
  8
Overlay (ISO)
 48
2.376354217529294
100
AcDbSpline
210
0.0
220
0.0
230
1.0
 70
    12
 71
     2
 72
     6
 73
     3
 74
     0
 42
0.0000000001
 43
0.0000000001
 40
0.4226777092670467
 40
0.4226777092670467
 40
0.4226777092670467
 40
0.8332926396892183
 40
0.8332926396892183
 40
0.8332926396892183
 10
101.0336905124493
 20
128.9203289118042
 30
0.0
 41
1.045413293158434
 10
100.600677810557
 20
127.2736693610599
 30
0.0
 41
1.044765269262239
 10
100.600677810557
 20
125.7605227468625
 30
0.0
 41
1.0
  0
SPLINE
  5
310
330
6C
100
AcDbEntity
  8
Overlay (ISO)
 48
2.376354217529294
100
AcDbSpline
210
0.0
220
0.0
230
1.0
 70
    12
 71
     2
 72
     6
 73
     3
 74
     0
 42
0.0000000001
 43
0.0000000001
 40
0.8332926396892183
 40
0.8332926396892183
 40
0.8332926396892183
 40
1.243907570111389
 40
1.243907570111389
 40
1.243907570111389
 10
100.600677810557
 20
125.7605227468625
 30
0.0
 41
1.0
 10
100.600677810557
 20
124.2473761326651
 30
0.0
 41
1.044765269262239
 10
101.0336905124493
 20
122.6007165819208
 30
0.0
 41
1.045413293158434
  0
LINE
  5
311
330
6C
100
AcDbEntity
  8
Overlay (ISO)
 48
7.296048641204831
100
AcDbLine
 10
100.600677810557
 20
125.7605227468625
 30
0.0
 11
100.600677810557
 21
121.5105227468604
 31
0.0
  0
LINE
  5
312
330
6C
100
AcDbEntity
  8
Overlay (ISO)
 48
9.836065292358398
100
AcDbLine
 10
106.100677810557
 20
121.6701090880554
 30
0.0
 11
118.100677810557
 21
121.6701090880554
 31
0.0
  0
LINE
  5
313
330
6C
100
AcDbEntity
  8
Overlay (ISO)
 48
9.836065292358398
100
AcDbLine
 10
106.100677810557
 20
122.5105227468615
 30
0.0
 11
118.100677810557
 21
122.5105227468615
 31
0.0
  0
LINE
  5
314
330
6C
100
AcDbEntity
  8
Overlay (ISO)
 48
0.5423123240470888
100
AcDbLine
 10
118.100677810557
 20
121.6701090880554
 30
0.0
 11
118.100677810557
 21
122.5105227468615
 31
0.0
  0
LINE
  5
315
330
6C
100
AcDbEntity
  8
Overlay (ISO)
 48
0.5423123240470888
100
AcDbLine
 10
106.100677810557
 20
121.6701090880554
 30
0.0
 11
106.100677810557
 21
122.5105227468615
 31
0.0
  0
ELLIPSE
  5
316
330
6C
100
AcDbEntity
  8
Overlay (ISO)
 48
0.6166242957115175
100
AcDbEllipse
 10
108.4100788873155
 20
130.0105227468603
 30
0.0
 11
0.0
 21
9.25
 31
0.0
210
0.0
220
0.0
230
1.0
 40
0.577350269189626
 41
2.60231824127179
 42
2.694403908363451
  0
LINE
  5
317
330
6C
100
AcDbEntity
  8
Overlay (ISO)
 48
0.611578106880188
100
AcDbLine
 10
105.6676651086648
 20
122.6007165819208
 30
0.0
 11
105.6676651086648
 21
122.073268813668
 31
0.0
  0
SPLINE
  5
318
330
6C
100
AcDbEntity
  8
Overlay (ISO)
 48
2.201697826385498
100
AcDbSpline
210
0.0
220
0.0
230
1.0
 70
    12
 71
     2
 72
     6
 73
     3
 74
     0
 42
0.0000000001
 43
0.0000000001
 40
0.8123858579521044
 40
0.8123858579521044
 40
0.8123858579521044
 40
1.189117518252846
 40
1.189117518252846
 40
1.189117518252846
 10
106.099452634523
 20
134.4250211766431
 30
0.0
 41
1.004365595477415
 10
106.0785360655167
 20
135.8293794517299
 30
0.0
 41
1.042042755126312
 10
105.6854193089341
 20
137.3521908478194
 30
0.0
 41
1.041803747226504
  0
SPLINE
  5
319
330
6C
100
AcDbEntity
  8
Overlay (ISO)
 48
2.253755569458005
100
AcDbSpline
210
0.0
220
0.0
230
1.0
 70
    12
 71
     2
 72
     6
 73
     3
 74
     0
 42
0.0000000001
 43
0.0000000001
 40
0.3847937513989829
 40
0.3847937513989829
 40
0.3847937513989829
 40
0.7699378181404203
 40
0.7699378181404203
 40
0.7699378181404203
 10
105.6676651086648
 20
122.6007165819208
 30
0.0
 41
1.041774167103256
 10
106.0780862500722
 20
124.1614650065572
 30
0.0
 41
1.042884084947768
 10
106.099452634523
 20
125.5960243170817
 30
0.0
 41
1.004365595477415
  0
LINE
  5
31A
330
6C
100
AcDbEntity
  8
Overlay (ISO)
 48
1.301975727081297
100
AcDbLine
 10
106.100677810557
 20
134.4266862402128
 30
0.0
 11
106.100677810557
 21
136.010522746862
 31
0.0
  0
LINE
  5
31B
330
6C
100
AcDbEntity
  8
Overlay (ISO)
 48
2.932254076004028
100
AcDbLine
 10
106.100677810557
 20
122.5105227468615
 30
0.0
 11
106.100677810557
 21
125.5943592535122
 31
0.0
  0
SPLINE
  5
31C
330
6C
100
AcDbEntity
  8
Overlay (ISO)
 48
0.6260591745376587
100
AcDbSpline
210
0.0
220
0.0
230
1.0
 70
    12
 71
     2
 72
     6
 73
     3
 74
     0
 42
0.0000000001
 43
0.0000000001
 40
-1.486263498190694
 40
-1.486263498190694
 40
-1.486263498190694
 40
-1.36702465746637
 40
-1.36702465746637
 40
-1.36702465746637
 10
106.1006778105183
 20
122.5105227468212
 30
0.0
 41
1.0
 10
105.8903039138419
 20
122.2918957802446
 30
0.0
 41
1.0
 10
105.6676651086648
 20
122.073268813668
 30
0.0
 41
1.0
  0
ELLIPSE
  5
31D
330
6C
100
AcDbEntity
  8
Overlay (ISO)
 48
0.0552148260176182
100
AcDbEllipse
 10
112.100677810557
 20
147.0105227468603
 30
0.0
 11
0.0
 21
14.72243186433292
 31
0.0
210
0.0
220
0.0
230
1.0
 40
0.5773502691897253
 41
3.996844707048501
 42
4.002960670239064
  0
LINE
  5
31E
330
6C
100
AcDbEntity
  8
Overlay (ISO)
 48
8.755258560180664
100
AcDbLine
 10
120.600677810557
 20
144.5105227468603
 30
0.0
 11
103.600677810557
 21
144.5105227468603
 31
0.0
  0
SPLINE
  5
31F
330
6C
100
AcDbEntity
  8
Overlay (ISO)
 48
1.620177268981931
100
AcDbSpline
210
0.0
220
0.0
230
1.0
 70
     8
 71
     3
 72
     8
 73
     4
 74
     0
 42
0.0000000001
 43
0.0000000001
 40
0.8292463199719302
 40
0.8292463199719302
 40
0.8292463199719302
 40
0.8292463199719302
 40
1.069319888959278
 40
1.069319888959278
 40
1.069319888959278
 40
1.069319888959278
 10
105.6514354207876
 20
137.4203289118031
 30
0.0
 10
105.185415200707
 20
137.8259370061216
 30
0.0
 10
104.7595059178276
 20
138.207138890989
 30
0.0
 10
104.423601544165
 20
138.5105227468614
 30
0.0
  0
ELLIPSE
  5
320
330
6C
100
AcDbEntity
  8
Overlay (ISO)
 48
0.0552148260176182
100
AcDbEllipse
 10
112.100677810557
 20
147.0105227468603
 30
0.0
 11
0.0
 21
14.72243186433292
 31
0.0
210
0.0
220
0.0
230
1.0
 40
0.5773502691897253
 41
2.280224636940519
 42
2.286340600131083
  0
SPLINE
  5
321
330
6C
100
AcDbEntity
  8
Overlay (ISO)
 48
0.9509410858154295
100
AcDbSpline
210
0.0
220
0.0
230
1.0
 70
     8
 71
     3
 72
    10
 73
     6
 74
     0
 42
0.0000000001
 43
0.0000000001
 40
2.358463870327546
 40
2.358463870327546
 40
2.358463870327546
 40
2.358463870327546
 40
2.381073897766034
 40
2.381073897766034
 40
2.502243251613869
 40
2.502243251613869
 40
2.502243251613869
 40
2.502243251613869
 10
105.6854193089341
 20
137.3521908478194
 30
0.0
 10
105.7079202408137
 20
137.2835894300129
 30
0.0
 10
105.7301245137343
 20
137.2153442129553
 30
0.0
 10
105.8692604378847
 20
136.7841715595112
 30
0.0
 10
105.9868345783485
 20
136.4037075173047
 30
0.0
 10
106.100677810557
 20
136.010522746862
 30
0.0
  0
LINE
  5
322
330
6C
100
AcDbEntity
  8
Overlay (ISO)
 48
0.7892017364501954
100
AcDbLine
 10
106.100677810557
 20
136.010522746862
 30
0.0
 11
106.8327322907173
 21
135.2784682667021
 31
0.0
  0
LINE
  5
323
330
6C
100
AcDbEntity
  8
Overlay (ISO)
 48
0.3958848714828491
100
AcDbLine
 10
117.7394200264703
 20
135.6492649627754
 30
0.0
 11
118.100677810557
 21
136.010522746862
 31
0.0
  0
SPLINE
  5
324
330
6C
100
AcDbEntity
  8
Overlay (ISO)
 48
0.9509410858154295
100
AcDbSpline
210
0.0
220
0.0
230
1.0
 70
     8
 71
     3
 72
    10
 73
     6
 74
     0
 42
0.0000000001
 43
0.0000000001
 40
3.664699947043588
 40
3.664699947043588
 40
3.664699947043588
 40
3.664699947043588
 40
3.785869300891423
 40
3.785869300891423
 40
3.808479328329911
 40
3.808479328329911
 40
3.808479328329911
 40
3.808479328329911
 10
118.100677810557
 20
136.010522746862
 30
0.0
 10
118.2145210427655
 20
136.4037075173047
 30
0.0
 10
118.3320951832294
 20
136.7841715595112
 30
0.0
 10
118.4712311073797
 20
137.2153442129553
 30
0.0
 10
118.4934353803003
 20
137.2835894300129
 30
0.0
 10
118.51593631218
 20
137.3521908478194
 30
0.0
  0
SPLINE
  5
325
330
6C
100
AcDbEntity
  8
Overlay (ISO)
 48
1.620176911354064
100
AcDbSpline
210
0.0
220
0.0
230
1.0
 70
     8
 71
     3
 72
     8
 73
     4
 74
     0
 42
0.0000000001
 43
0.0000000001
 40
4.714232720745108
 40
4.714232720745108
 40
4.714232720745108
 40
4.714232720745108
 40
4.954306289732459
 40
4.954306289732459
 40
4.954306289732459
 40
4.954306289732459
 10
119.7777540769491
 20
138.5105227468614
 30
0.0
 10
119.4419079027065
 20
138.2071913711633
 30
0.0
 10
119.016006664262
 20
137.8259952261783
 30
0.0
 10
118.5499202003265
 20
137.4203289118031
 30
0.0
  0
LINE
  5
326
330
6C
100
AcDbEntity
  8
Overlay (ISO)
 48
3.872366666793823
100
AcDbLine
 10
103.600677810557
 20
138.5105227468603
 30
0.0
 11
103.600677810557
 21
144.5105227468603
 31
0.0
  0
LINE
  5
327
330
6C
100
AcDbEntity
  8
Overlay (ISO)
 48
3.872366666793823
100
AcDbLine
 10
120.600677810557
 20
138.5105227468603
 30
0.0
 11
120.600677810557
 21
144.5105227468603
 31
0.0
  0
LINE
  5
328
330
6C
100
AcDbEntity
  8
Overlay (ISO)
 48
10.2459020614624
100
AcDbLine
 10
136.1006778105571
 20
121.7605227468603
 30
0.0
 11
123.600677810557
 21
121.7605227468603
 31
0.0
  0
LINE
  5
329
330
6C
100
AcDbEntity
  8
Overlay (ISO)
 48
10.2459020614624
100
AcDbLine
 10
136.1006778105571
 20
138.2605227468603
 30
0.0
 11
123.600677810557
 21
138.2605227468603
 31
0.0
  0
LINE
  5
32A
330
6C
100
AcDbEntity
  8
Overlay (ISO)
 48
0.4562745988368988
100
AcDbLine
 10
120.100677810557
 20
145.0105227468601
 30
0.0
 11
120.600677810557
 21
144.5105227468603
 31
0.0
  0
LINE
  5
32B
330
6C
100
AcDbEntity
  8
Overlay (ISO)
 48
0.4562745988368988
100
AcDbLine
 10
104.100677810557
 20
145.0105227468601
 30
0.0
 11
103.600677810557
 21
144.5105227468603
 31
0.0
  0
SPLINE
  5
337
330
6C
100
AcDbEntity
  8
Overlay (ISO)
 48
0.2746295630931854
100
AcDbSpline
210
0.0
220
0.0
230
1.0
 70
     8
 71
     3
 72
    10
 73
     6
 74
     0
 42
0.0000000001
 43
0.0000000001
 40
0.8843322889545374
 40
0.8843322889545374
 40
0.8843322889545374
 40
0.8843322889545374
 40
0.9081515042319823
 40
0.9081515042319823
 40
0.925972547537049
 40
0.925972547537049
 40
0.925972547537049
 40
0.925972547537049
 10
117.3244799849111
 20
131.7315372276944
 30
0.0
 10
117.3535678839142
 20
131.6951642331809
 30
0.0
 10
117.3824091397912
 20
131.6558871967536
 30
0.0
 10
117.4318007841019
 20
131.5825192567525
 30
0.0
 10
117.4536467855485
 20
131.5474809805763
 30
0.0
 10
117.4756440764687
 20
131.5096111037484
 30
0.0
  0
SPLINE
  5
36C
330
6C
100
AcDbEntity
  8
Overlay (ISO)
 48
3.21578788757324
100
AcDbSpline
210
0.0
220
0.0
230
1.0
 70
    12
 71
     2
 72
     6
 73
     3
 74
     0
 42
0.0000000001
 43
0.0000000001
 40
0.2934711240705192
 40
0.2934711240705192
 40
0.2934711240705192
 40
0.836552425408885
 40
0.836552425408885
 40
0.836552425408885
 10
99.84148843200223
 20
121.5105227468617
 30
0.0
 41
1.041636008661477
 10
100.600677810557
 20
123.7880908825266
 30
0.0
 41
1.059342642552006
 10
100.6006778105571
 20
125.7605227468625
 30
0.0
 41
1.0
  0
SPLINE
  5
36D
330
6C
100
AcDbEntity
  8
Overlay (ISO)
 48
3.21578788757324
100
AcDbSpline
210
0.0
220
0.0
230
1.0
 70
    28
 71
     2
 72
     6
 73
     3
 74
     0
 42
0.0000000001
 43
0.0000000001
 40
0.8365524254088843
 40
0.8365524254088843
 40
0.8365524254088843
 40
1.379633726747249
 40
1.379633726747249
 40
1.379633726747249
 10
100.6006778105571
 20
121.5105227468603
 30
0.0
 41
1.0
 10
100.600677810557
 20
121.5105227468609
 30
0.0
 41
1.059342642552006
 10
99.84148843200223
 20
121.5105227468617
 30
0.0
 41
1.041636008661477
  0
LINE
  5
36E
330
6C
100
AcDbEntity
  8
Overlay (ISO)
 48
7.296048641204831
100
AcDbLine
 10
100.6006778105571
 20
121.5105227468603
 30
0.0
 11
100.6006778105571
 21
125.7605227468625
 31
0.0
  0
SPLINE
  5
36F
330
6C
100
AcDbEntity
  8
Overlay (ISO)
 48
3.21578788757324
100
AcDbSpline
210
0.0
220
0.0
230
1.0
 70
    12
 71
     2
 72
     6
 73
     3
 74
     0
 42
0.0000000001
 43
0.0000000001
 40
0.836552425408885
 40
0.836552425408885
 40
0.836552425408885
 40
1.37963372674725
 40
1.37963372674725
 40
1.37963372674725
 10
100.6006778105571
 20
125.7605227468625
 30
0.0
 41
1.0
 10
100.600677810557
 20
127.7329546111984
 30
0.0
 41
1.059342642552004
 10
99.84148843200223
 20
130.0105227468632
 30
0.0
 41
1.041636008661477
  0
LINE
  5
370
330
6C
100
AcDbEntity
  8
Overlay (ISO)
 48
7.296048641204831
100
AcDbLine
 10
100.6006778105571
 20
125.7605227468625
 30
0.0
 11
100.6006778105571
 21
134.2605227468625
 31
0.0
  0
SPLINE
  5
371
330
6C
100
AcDbEntity
  8
Overlay (ISO)
 48
3.21578788757324
100
AcDbSpline
210
0.0
220
0.0
230
1.0
 70
    12
 71
     2
 72
     6
 73
     3
 74
     0
 42
0.0000000001
 43
0.0000000001
 40
0.2934711240705186
 40
0.2934711240705186
 40
0.2934711240705186
 40
0.8365524254088846
 40
0.8365524254088846
 40
0.8365524254088846
 10
99.84148843200223
 20
130.0105227468632
 30
0.0
 41
1.041636008661481
 10
100.600677810557
 20
132.2880908825273
 30
0.0
 41
1.059342642552012
 10
100.6006778105571
 20
134.2605227468625
 30
0.0
 41
1.0
  0
SPLINE
  5
372
330
6C
100
AcDbEntity
  8
Overlay (ISO)
 48
3.21578788757324
100
AcDbSpline
210
0.0
220
0.0
230
1.0
 70
    12
 71
     2
 72
     6
 73
     3
 74
     0
 42
0.0000000001
 43
0.0000000001
 40
0.8365524254088846
 40
0.8365524254088846
 40
0.8365524254088846
 40
1.37963372674725
 40
1.37963372674725
 40
1.37963372674725
 10
100.6006778105571
 20
134.2605227468625
 30
0.0
 41
1.0
 10
100.600677810557
 20
136.2329546111977
 30
0.0
 41
1.059342642552004
 10
99.84148843200223
 20
138.5105227468618
 30
0.0
 41
1.041636008661475
  0
LINE
  5
373
330
6C
100
AcDbEntity
  8
Overlay (ISO)
 48
7.296048641204831
100
AcDbLine
 10
100.6006778105571
 20
134.2605227468625
 30
0.0
 11
100.6006778105571
 21
138.5105227468604
 31
0.0
  0
SPLINE
  5
374
330
6C
100
AcDbEntity
  8
Overlay (ISO)
 48
3.21578788757324
100
AcDbSpline
210
0.0
220
0.0
230
1.0
 70
    28
 71
     2
 72
     6
 73
     3
 74
     0
 42
0.0000000001
 43
0.0000000001
 40
0.2934711240705211
 40
0.2934711240705211
 40
0.2934711240705211
 40
0.8365524254088846
 40
0.8365524254088846
 40
0.8365524254088846
 10
99.84148843200223
 20
138.5105227468618
 30
0.0
 41
1.041636008661469
 10
100.600677810557
 20
138.510522746861
 30
0.0
 41
1.059342642551992
 10
100.6006778105571
 20
138.5105227468603
 30
0.0
 41
1.0
  0
LINE
  5
375
330
6C
100
AcDbEntity
  8
Overlay (ISO)
 48
9.411165237426756
100
AcDbLine
 10
88.35986718911188
 20
138.5105227468618
 30
0.0
 11
99.84148843200223
 21
138.5105227468618
 31
0.0
  0
LINE
  5
376
330
6C
100
AcDbEntity
  8
Overlay (ISO)
 48
9.411165237426756
100
AcDbLine
 10
88.35986718911188
 20
130.0105227468632
 30
0.0
 11
99.84148843200223
 21
130.0105227468632
 31
0.0
  0
LINE
  5
377
330
6C
100
AcDbEntity
  8
Overlay (ISO)
 48
9.411165237426756
100
AcDbLine
 10
88.35986718911192
 20
121.5105227468617
 30
0.0
 11
99.84148843200223
 21
121.5105227468617
 31
0.0
  0
SPLINE
  5
378
330
6C
100
AcDbEntity
  8
Overlay (ISO)
 48
3.21578788757324
100
AcDbSpline
210
0.0
220
0.0
230
1.0
 70
    12
 71
     2
 72
     6
 73
     3
 74
     0
 42
0.0000000001
 43
0.0000000001
 40
0.2934711240705226
 40
0.2934711240705226
 40
0.2934711240705226
 40
0.8365524254088853
 40
0.8365524254088853
 40
0.8365524254088853
 10
88.35986718911188
 20
138.5105227468618
 30
0.0
 41
1.041636008661464
 10
87.6006778105571
 20
136.2329546111975
 30
0.0
 41
1.059342642551986
 10
87.60067781055706
 20
134.2605227468625
 30
0.0
 41
1.0
  0
SPLINE
  5
379
330
6C
100
AcDbEntity
  8
Overlay (ISO)
 48
3.21578788757324
100
AcDbSpline
210
0.0
220
0.0
230
1.0
 70
    12
 71
     2
 72
     6
 73
     3
 74
     0
 42
0.0000000001
 43
0.0000000001
 40
0.8365524254088853
 40
0.8365524254088853
 40
0.8365524254088853
 40
1.379633726747248
 40
1.379633726747248
 40
1.379633726747248
 10
87.60067781055706
 20
134.2605227468625
 30
0.0
 41
1.0
 10
87.60067781055708
 20
132.2880908825273
 30
0.0
 41
1.059342642551984
 10
88.35986718911192
 20
130.0105227468632
 30
0.0
 41
1.041636008661461
  0
SPLINE
  5
37A
330
6C
100
AcDbEntity
  8
Overlay (ISO)
 48
3.21578788757324
100
AcDbSpline
210
0.0
220
0.0
230
1.0
 70
    28
 71
     2
 72
     6
 73
     3
 74
     0
 42
0.0000000001
 43
0.0000000001
 40
0.8365524254088857
 40
0.8365524254088857
 40
0.8365524254088857
 40
1.379633726747248
 40
1.379633726747248
 40
1.379633726747248
 10
87.60067781055706
 20
138.5105227468604
 30
0.0
 41
1.0
 10
87.60067781055708
 20
138.5105227468611
 30
0.0
 41
1.059342642551986
 10
88.35986718911188
 20
138.5105227468618
 30
0.0
 41
1.041636008661464
  0
LINE
  5
37B
330
6C
100
AcDbEntity
  8
Overlay (ISO)
 48
7.296048641204831
100
AcDbLine
 10
87.60067781055706
 20
138.5105227468604
 30
0.0
 11
87.60067781055706
 21
134.2605227468625
 31
0.0
  0
LINE
  5
37C
330
6C
100
AcDbEntity
  8
Overlay (ISO)
 48
7.296048641204831
100
AcDbLine
 10
87.60067781055706
 20
134.2605227468625
 30
0.0
 11
87.60067781055706
 21
125.7605227468625
 31
0.0
  0
SPLINE
  5
37D
330
6C
100
AcDbEntity
  8
Overlay (ISO)
 48
3.21578788757324
100
AcDbSpline
210
0.0
220
0.0
230
1.0
 70
    12
 71
     2
 72
     6
 73
     3
 74
     0
 42
0.0000000001
 43
0.0000000001
 40
0.2934711240705224
 40
0.2934711240705224
 40
0.2934711240705224
 40
0.836552425408885
 40
0.836552425408885
 40
0.836552425408885
 10
88.35986718911192
 20
130.0105227468632
 30
0.0
 41
1.041636008661464
 10
87.6006778105571
 20
127.7329546111984
 30
0.0
 41
1.059342642551986
 10
87.60067781055706
 20
125.7605227468625
 30
0.0
 41
1.0
  0
SPLINE
  5
37E
330
6C
100
AcDbEntity
  8
Overlay (ISO)
 48
3.21578788757324
100
AcDbSpline
210
0.0
220
0.0
230
1.0
 70
    12
 71
     2
 72
     6
 73
     3
 74
     0
 42
0.0000000001
 43
0.0000000001
 40
0.836552425408885
 40
0.836552425408885
 40
0.836552425408885
 40
1.379633726747248
 40
1.379633726747248
 40
1.379633726747248
 10
87.60067781055706
 20
125.7605227468625
 30
0.0
 41
1.0
 10
87.6006778105571
 20
123.7880908825266
 30
0.0
 41
1.059342642551986
 10
88.35986718911192
 20
121.5105227468617
 30
0.0
 41
1.041636008661464
  0
LINE
  5
37F
330
6C
100
AcDbEntity
  8
Overlay (ISO)
 48
7.296048641204831
100
AcDbLine
 10
87.60067781055706
 20
125.7605227468625
 30
0.0
 11
87.60067781055706
 21
121.5105227468603
 31
0.0
  0
SPLINE
  5
380
330
6C
100
AcDbEntity
  8
Overlay (ISO)
 48
3.21578788757324
100
AcDbSpline
210
0.0
220
0.0
230
1.0
 70
    28
 71
     2
 72
     6
 73
     3
 74
     0
 42
0.0000000001
 43
0.0000000001
 40
0.2934711240705217
 40
0.2934711240705217
 40
0.2934711240705217
 40
0.836552425408885
 40
0.836552425408885
 40
0.836552425408885
 10
88.35986718911192
 20
121.5105227468617
 30
0.0
 41
1.041636008661465
 10
87.6006778105571
 20
121.5105227468609
 30
0.0
 41
1.05934264255199
 10
87.60067781055706
 20
121.5105227468603
 30
0.0
 41
1.0
  0
SPLINE
  5
381
330
6C
100
AcDbEntity
  8
Overlay (ISO)
 48
3.21578788757324
100
AcDbSpline
210
0.0
220
0.0
230
1.0
 70
    28
 71
     2
 72
     6
 73
     3
 74
     0
 42
0.0000000001
 43
0.0000000001
 40
0.2934711240705181
 40
0.2934711240705181
 40
0.2934711240705181
 40
0.8365524254088843
 40
0.8365524254088843
 40
0.8365524254088843
 10
120.600677810557
 20
145.7697121254166
 30
0.0
 41
1.041636008661481
 10
120.600677810557
 20
145.010522746861
 30
0.0
 41
1.05934264255201
 10
120.600677810557
 20
145.0105227468604
 30
0.0
 41
1.0
  0
SPLINE
  5
382
330
6C
100
AcDbEntity
  8
Overlay (ISO)
 48
3.21578788757324
100
AcDbSpline
210
0.0
220
0.0
230
1.0
 70
    12
 71
     2
 72
     6
 73
     3
 74
     0
 42
0.0000000001
 43
0.0000000001
 40
0.836552425408885
 40
0.836552425408885
 40
0.836552425408885
 40
1.379633726747249
 40
1.379633726747249
 40
1.379633726747249
 10
116.3506778105571
 20
145.0105227468625
 30
0.0
 41
1.0
 10
118.3231096748926
 20
145.0105227468623
 30
0.0
 41
1.059342642551996
 10
120.600677810557
 20
145.7697121254166
 30
0.0
 41
1.041636008661469
  0
LINE
  5
383
330
6C
100
AcDbEntity
  8
Overlay (ISO)
 48
7.296048641204831
100
AcDbLine
 10
116.350677810557
 20
145.0105227468625
 30
0.0
 11
120.600677810557
 21
145.0105227468604
 31
0.0
  0
SPLINE
  5
384
330
6C
100
AcDbEntity
  8
Overlay (ISO)
 48
3.21578788757324
100
AcDbSpline
210
0.0
220
0.0
230
1.0
 70
    28
 71
     2
 72
     6
 73
     3
 74
     0
 42
0.0000000001
 43
0.0000000001
 40
0.8365524254088846
 40
0.8365524254088846
 40
0.8365524254088846
 40
1.379633726747248
 40
1.379633726747248
 40
1.379633726747248
 10
103.600677810557
 20
145.0105227468604
 30
0.0
 41
1.0
 10
103.600677810557
 20
145.010522746861
 30
0.0
 41
1.059342642551984
 10
103.600677810557
 20
145.7697121254166
 30
0.0
 41
1.041636008661461
  0
LINE
  5
385
330
6C
100
AcDbEntity
  8
Overlay (ISO)
 48
7.296048641204831
100
AcDbLine
 10
103.600677810557
 20
145.0105227468604
 30
0.0
 11
107.850677810557
 21
145.0105227468625
 31
0.0
  0
SPLINE
  5
386
330
6C
100
AcDbEntity
  8
Overlay (ISO)
 48
3.21578788757324
100
AcDbSpline
210
0.0
220
0.0
230
1.0
 70
    12
 71
     2
 72
     6
 73
     3
 74
     0
 42
0.0000000001
 43
0.0000000001
 40
0.2934711240705199
 40
0.2934711240705199
 40
0.2934711240705199
 40
0.836552425408885
 40
0.836552425408885
 40
0.836552425408885
 10
103.600677810557
 20
145.7697121254166
 30
0.0
 41
1.041636008661477
 10
105.8782459462215
 20
145.0105227468623
 30
0.0
 41
1.059342642552006
 10
107.850677810557
 20
145.0105227468625
 30
0.0
 41
1.0
  0
SPLINE
  5
387
330
6C
100
AcDbEntity
  8
Overlay (ISO)
 48
3.21578788757324
100
AcDbSpline
210
0.0
220
0.0
230
1.0
 70
    12
 71
     2
 72
     6
 73
     3
 74
     0
 42
0.0000000001
 43
0.0000000001
 40
0.836552425408885
 40
0.836552425408885
 40
0.836552425408885
 40
1.37963372674725
 40
1.37963372674725
 40
1.37963372674725
 10
107.850677810557
 20
145.0105227468625
 30
0.0
 41
1.0
 10
109.8231096748925
 20
145.0105227468629
 30
0.0
 41
1.059342642552004
 10
112.100677810557
 20
145.7697121254181
 30
0.0
 41
1.041636008661477
  0
LINE
  5
388
330
6C
100
AcDbEntity
  8
Overlay (ISO)
 48
7.296048641204831
100
AcDbLine
 10
107.850677810557
 20
145.0105227468626
 30
0.0
 11
116.350677810557
 21
145.0105227468625
 31
0.0
  0
SPLINE
  5
389
330
6C
100
AcDbEntity
  8
Overlay (ISO)
 48
3.21578788757324
100
AcDbSpline
210
0.0
220
0.0
230
1.0
 70
    12
 71
     2
 72
     6
 73
     3
 74
     0
 42
0.0000000001
 43
0.0000000001
 40
0.2934711240705199
 40
0.2934711240705199
 40
0.2934711240705199
 40
0.836552425408885
 40
0.836552425408885
 40
0.836552425408885
 10
112.100677810557
 20
145.7697121254181
 30
0.0
 41
1.041636008661475
 10
114.3782459462215
 20
145.0105227468629
 30
0.0
 41
1.059342642552002
 10
116.3506778105571
 20
145.0105227468625
 30
0.0
 41
1.0
  0
LINE
  5
38A
330
6C
100
AcDbEntity
  8
Overlay (ISO)
 48
9.411165237426756
100
AcDbLine
 10
103.600677810557
 20
157.251333368307
 30
0.0
 11
103.600677810557
 21
145.7697121254166
 31
0.0
  0
LINE
  5
38B
330
6C
100
AcDbEntity
  8
Overlay (ISO)
 48
9.411165237426756
100
AcDbLine
 10
112.100677810557
 20
157.2513333683084
 30
0.0
 11
112.100677810557
 21
145.7697121254181
 31
0.0
  0
LINE
  5
38C
330
6C
100
AcDbEntity
  8
Overlay (ISO)
 48
9.411165237426756
100
AcDbLine
 10
120.600677810557
 20
157.251333368307
 30
0.0
 11
120.600677810557
 21
145.7697121254166
 31
0.0
  0
SPLINE
  5
38D
330
6C
100
AcDbEntity
  8
Overlay (ISO)
 48
3.21578788757324
100
AcDbSpline
210
0.0
220
0.0
230
1.0
 70
    28
 71
     2
 72
     6
 73
     3
 74
     0
 42
0.0000000001
 43
0.0000000001
 40
0.2934711240705223
 40
0.2934711240705223
 40
0.2934711240705223
 40
0.8365524254088857
 40
0.8365524254088857
 40
0.8365524254088857
 10
103.600677810557
 20
157.251333368307
 30
0.0
 41
1.041636008661464
 10
103.600677810557
 20
158.010522746861
 30
0.0
 41
1.059342642551986
 10
103.600677810557
 20
158.0105227468603
 30
0.0
 41
1.0
  0
SPLINE
  5
38E
330
6C
100
AcDbEntity
  8
Overlay (ISO)
 48
3.21578788757324
100
AcDbSpline
210
0.0
220
0.0
230
1.0
 70
    12
 71
     2
 72
     6
 73
     3
 74
     0
 42
0.0000000001
 43
0.0000000001
 40
0.2934711240705219
 40
0.2934711240705219
 40
0.2934711240705219
 40
0.836552425408885
 40
0.836552425408885
 40
0.836552425408885
 10
112.100677810557
 20
157.2513333683084
 30
0.0
 41
1.041636008661464
 10
109.8231096748925
 20
158.0105227468628
 30
0.0
 41
1.059342642551986
 10
107.850677810557
 20
158.0105227468625
 30
0.0
 41
1.0
  0
SPLINE
  5
38F
330
6C
100
AcDbEntity
  8
Overlay (ISO)
 48
3.21578788757324
100
AcDbSpline
210
0.0
220
0.0
230
1.0
 70
    12
 71
     2
 72
     6
 73
     3
 74
     0
 42
0.0000000001
 43
0.0000000001
 40
0.836552425408885
 40
0.836552425408885
 40
0.836552425408885
 40
1.379633726747245
 40
1.379633726747245
 40
1.379633726747245
 10
107.850677810557
 20
158.0105227468625
 30
0.0
 41
1.0
 10
105.8782459462215
 20
158.010522746862
 30
0.0
 41
1.059342642551986
 10
103.600677810557
 20
157.251333368307
 30
0.0
 41
1.041636008661464
  0
LINE
  5
390
330
6C
100
AcDbEntity
  8
Overlay (ISO)
 48
7.296048641204831
100
AcDbLine
 10
107.8506778105571
 20
158.0105227468625
 30
0.0
 11
103.600677810557
 21
158.0105227468603
 31
0.0
  0
SPLINE
  5
391
330
6C
100
AcDbEntity
  8
Overlay (ISO)
 48
3.21578788757324
100
AcDbSpline
210
0.0
220
0.0
230
1.0
 70
    28
 71
     2
 72
     6
 73
     3
 74
     0
 42
0.0000000001
 43
0.0000000001
 40
0.836552425408885
 40
0.836552425408885
 40
0.836552425408885
 40
1.379633726747248
 40
1.379633726747248
 40
1.379633726747248
 10
120.600677810557
 20
158.0105227468603
 30
0.0
 41
1.0
 10
120.600677810557
 20
158.010522746861
 30
0.0
 41
1.05934264255199
 10
120.600677810557
 20
157.251333368307
 30
0.0
 41
1.041636008661465
  0
LINE
  5
392
330
6C
100
AcDbEntity
  8
Overlay (ISO)
 48
7.296048641204831
100
AcDbLine
 10
120.600677810557
 20
158.0105227468603
 30
0.0
 11
116.350677810557
 21
158.0105227468625
 31
0.0
  0
SPLINE
  5
393
330
6C
100
AcDbEntity
  8
Overlay (ISO)
 48
3.21578788757324
100
AcDbSpline
210
0.0
220
0.0
230
1.0
 70
    12
 71
     2
 72
     6
 73
     3
 74
     0
 42
0.0000000001
 43
0.0000000001
 40
0.2934711240705221
 40
0.2934711240705221
 40
0.2934711240705221
 40
0.8365524254088846
 40
0.8365524254088846
 40
0.8365524254088846
 10
120.600677810557
 20
157.251333368307
 30
0.0
 41
1.041636008661461
 10
118.3231096748926
 20
158.010522746862
 30
0.0
 41
1.059342642551984
 10
116.3506778105571
 20
158.0105227468625
 30
0.0
 41
1.0
  0
SPLINE
  5
394
330
6C
100
AcDbEntity
  8
Overlay (ISO)
 48
3.21578788757324
100
AcDbSpline
210
0.0
220
0.0
230
1.0
 70
    12
 71
     2
 72
     6
 73
     3
 74
     0
 42
0.0000000001
 43
0.0000000001
 40
0.8365524254088846
 40
0.8365524254088846
 40
0.8365524254088846
 40
1.379633726747245
 40
1.379633726747245
 40
1.379633726747245
 10
116.3506778105571
 20
158.0105227468625
 30
0.0
 41
1.0
 10
114.3782459462215
 20
158.0105227468628
 30
0.0
 41
1.059342642551986
 10
112.100677810557
 20
157.2513333683084
 30
0.0
 41
1.041636008661464
  0
LINE
  5
395
330
6C
100
AcDbEntity
  8
Overlay (ISO)
 48
7.296048641204831
100
AcDbLine
 10
116.350677810557
 20
158.0105227468626
 30
0.0
 11
107.850677810557
 21
158.0105227468625
 31
0.0
  0
MTEXT
  5
6FD
330
6C
100
AcDbEntity
  8
0
100
AcDbMText
 10
164.3280967784372
 20
104.9104548561133
 30
0.0
 40
5.0
 41
74.96839512602298
 71
     1
 72
     5
  1
ｴｰｽﾎﾞｰﾙ 3W 1BT-1222
 73
     1
 44
1.0
1001
ACAD
1000
ACAD_MTEXT_COLUMN_INFO_BEGIN
1070
    75
1070
     2
1070
    79
1070
     0
1070
    76
1070
     1
1070
    78
1070
     0
1070
    48
1040
74.96839512602298
1070
    49
1040
1.0
1070
    50
1070
     1
1040
0.0
1000
ACAD_MTEXT_COLUMN_INFO_END
  0
ENDSEC
  0
SECTION
  2
OBJECTS
  0
DICTIONARY
  5
C
330
0
100
AcDbDictionary
281
     1
  3
ACAD_2007HEADERVARS_RT
350
7F1
  3
ACAD_COLOR
350
63
  3
ACAD_GROUP
350
D
  3
ACAD_LAYOUT
350
62
  3
ACAD_MATERIAL
350
10
  3
ACAD_MLEADERSTYLE
350
66
  3
ACAD_MLINESTYLE
350
5F
  3
ACAD_PLOTSETTINGS
350
61
  3
ACAD_PLOTSTYLENAME
350
E
  3
ACAD_SCALELIST
350
42
  3
ACAD_TABLESTYLE
350
64
  3
ACAD_VISUALSTYLE
350
29
  3
ACDB_RECOMPOSE_DATA
350
7F0
  3
AcDbVariableDictionary
350
5F3
  3
AcmDictionary
350
683
  3
AMG
350
63A
  3
AMGSNAPSETTINGS
350
6F3
  0
DICTIONARY
  5
7F1
102
{ACAD_REACTORS
330
C
102
}
330
C
100
AcDbDictionary
281
     1
  3
DIMARCSYM
350
7F2
  3
DIMLTEX1
350
7F4
  3
DIMLTEX2
350
7F5
  3
DIMLTYPE
350
7F3
  0
DICTIONARY
  5
63
102
{ACAD_REACTORS
330
C
102
}
330
C
100
AcDbDictionary
281
     1
  0
DICTIONARY
  5
D
102
{ACAD_REACTORS
330
C
102
}
330
C
100
AcDbDictionary
281
     1
  0
DICTIONARY
  5
62
102
{ACAD_REACTORS
330
C
102
}
330
C
100
AcDbDictionary
281
     1
  3
Layout1
350
6B
  3
Layout2
350
73
  3
Model
350
6F
  0
DICTIONARY
  5
10
102
{ACAD_REACTORS
330
C
102
}
330
C
100
AcDbDictionary
281
     1
  3
ByBlock
350
19
  3
ByLayer
350
11
  3
Global
350
21
  0
DICTIONARY
  5
66
102
{ACAD_REACTORS
330
C
102
}
330
C
100
AcDbDictionary
281
     1
  3
Standard
350
67
  0
DICTIONARY
  5
5F
102
{ACAD_REACTORS
330
C
102
}
330
C
100
AcDbDictionary
281
     1
  3
Standard
350
60
  0
DICTIONARY
  5
61
102
{ACAD_REACTORS
330
C
102
}
330
C
100
AcDbDictionary
281
     1
  0
ACDBDICTIONARYWDFLT
  5
E
102
{ACAD_REACTORS
330
C
102
}
330
C
100
AcDbDictionary
281
     1
  3
Normal
350
F
100
AcDbDictionaryWithDefault
340
F
  0
DICTIONARY
  5
42
102
{ACAD_REACTORS
330
C
102
}
330
C
100
AcDbDictionary
281
     1
  3
A0
350
43
  3
A1
350
44
  3
A2
350
45
  3
A3
350
46
  3
A4
350
47
  3
A5
350
48
  3
A6
350
49
  3
A7
350
4A
  3
A8
350
4B
  3
A9
350
4C
  3
B0
350
4D
  3
B1
350
4E
  3
B2
350
4F
  3
B3
350
50
  3
B4
350
51
  3
B5
350
52
  3
B6
350
53
  0
DICTIONARY
  5
64
102
{ACAD_REACTORS
330
C
102
}
330
C
100
AcDbDictionary
281
     1
  3
Standard
350
65
  0
DICTIONARY
  5
29
102
{ACAD_REACTORS
330
C
102
}
330
C
100
AcDbDictionary
281
     1
  3
2dWireframe
350
2F
  3
Basic
350
2E
  3
Brighten
350
35
  3
ColorChange
350
39
  3
Conceptual
350
32
  3
Dim
350
34
  3
EdgeColorOff
350
41
  3
Facepattern
350
38
  3
Flat
350
2A
  3
FlatWithEdges
350
2B
  3
Gouraud
350
2C
  3
GouraudWithEdges
350
2D
  3
Hidden
350
31
  3
JitterOff
350
3F
  3
Linepattern
350
37
  3
OverhangOff
350
40
  3
Realistic
350
33
  3
Shaded
350
3E
  3
Shaded with edges
350
3D
  3
Shades of Gray
350
3A
  3
Sketchy
350
3B
  3
Thicken
350
36
  3
Wireframe
350
30
  3
X-Ray
350
3C
  0
XRECORD
  5
7F0
102
{ACAD_REACTORS
330
C
102
}
330
C
100
AcDbXrecord
280
     1
 90
        1
330
65
330
6FD
  0
DICTIONARY
  5
5F3
102
{ACAD_REACTORS
330
C
102
}
330
C
100
AcDbDictionary
281
     1
  3
CANNOSCALE
350
5F7
  3
CMLEADERSTYLE
350
5F5
  3
CTABLESTYLE
350
5F4
  3
LAYEREVAL
350
5F9
  3
LAYERNOTIFY
350
5FA
  3
LIGHTINGUNITS
350
5F8
  3
MSLTSCALE
350
5F6
  3
XCLIPFRAME
350
7EE
  0
DICTIONARY
  5
683
102
{ACAD_REACTORS
330
C
102
}
330
C
100
AcDbDictionary
281
     1
  3
AcmStdDictionary
350
684
  0
DICTIONARY
  5
63A
102
{ACAD_REACTORS
330
C
102
}
330
C
100
AcDbDictionary
281
     1
  0
DICTIONARY
  5
6F3
102
{ACAD_REACTORS
330
C
102
}
330
C
100
AcDbDictionary
281
     1
  0
XRECORD
  5
7F2
102
{ACAD_REACTORS
330
7F1
102
}
330
7F1
100
AcDbXrecord
280
     1
 70
     1
  0
XRECORD
  5
7F4
102
{ACAD_REACTORS
330
7F1
102
}
330
7F1
100
AcDbXrecord
280
     1
340
5B
  0
XRECORD
  5
7F5
102
{ACAD_REACTORS
330
7F1
102
}
330
7F1
100
AcDbXrecord
280
     1
340
5B
  0
XRECORD
  5
7F3
102
{ACAD_REACTORS
330
7F1
102
}
330
7F1
100
AcDbXrecord
280
     1
340
5B
  0
LAYOUT
  5
6B
102
{ACAD_REACTORS
330
62
102
}
330
62
100
AcDbPlotSettings
  1

  2

  4

  6

 40
0.0
 41
0.0
 42
0.0
 43
0.0
 44
0.0
 45
0.0
 46
0.0
 47
0.0
 48
0.0
 49
0.0
140
0.0
141
0.0
142
1.0
143
1.0
 70
   688
 72
     0
 73
     0
 74
     5
  7

 75
    16
147
1.0
 76
     0
 77
     2
 78
   300
148
0.0
149
0.0
100
AcDbLayout
  1
Layout1
 70
     1
 71
     1
 10
0.0
 20
0.0
 11
420.0
 21
297.0
 12
0.0
 22
0.0
 32
0.0
 14
0.0
 24
0.0
 34
0.0
 15
420.0
 25
297.0
 35
0.0
146
0.0
 13
0.0
 23
0.0
 33
0.0
 16
1.0
 26
0.0
 36
0.0
 17
0.0
 27
1.0
 37
0.0
 76
     0
330
68
  0
LAYOUT
  5
73
102
{ACAD_REACTORS
330
62
102
}
330
62
100
AcDbPlotSettings
  1

  2

  4

  6

 40
0.0
 41
0.0
 42
0.0
 43
0.0
 44
0.0
 45
0.0
 46
0.0
 47
0.0
 48
0.0
 49
0.0
140
0.0
141
0.0
142
1.0
143
1.0
 70
   688
 72
     0
 73
     0
 74
     5
  7

 75
    16
147
1.0
 76
     0
 77
     2
 78
   300
148
0.0
149
0.0
100
AcDbLayout
  1
Layout2
 70
     1
 71
     2
 10
0.0
 20
0.0
 11
12.0
 21
9.0
 12
0.0
 22
0.0
 32
0.0
 14
0.0
 24
0.0
 34
0.0
 15
0.0
 25
0.0
 35
0.0
146
0.0
 13
0.0
 23
0.0
 33
0.0
 16
1.0
 26
0.0
 36
0.0
 17
0.0
 27
1.0
 37
0.0
 76
     0
330
70
  0
LAYOUT
  5
6F
102
{ACAD_REACTORS
330
62
102
}
330
62
100
AcDbPlotSettings
  1

  2

  4

  6

 40
0.0
 41
0.0
 42
0.0
 43
0.0
 44
0.0
 45
0.0
 46
0.0
 47
0.0
 48
0.0
 49
0.0
140
0.0
141
0.0
142
1.0
143
1.0
 70
  1712
 72
     0
 73
     0
 74
     0
  7

 75
     0
147
1.0
 76
     0
 77
     2
 78
   300
148
0.0
149
0.0
100
AcDbLayout
  1
Model
 70
     1
 71
     0
 10
0.0
 20
0.0
 11
12.0
 21
9.0
 12
0.0
 22
0.0
 32
0.0
 14
0.0
 24
0.0
 34
0.0
 15
0.0
 25
0.0
 35
0.0
146
0.0
 13
0.0
 23
0.0
 33
0.0
 16
1.0
 26
0.0
 36
0.0
 17
0.0
 27
1.0
 37
0.0
 76
     0
330
6C
331
57
  0
MATERIAL
  5
19
102
{ACAD_XDICTIONARY
360
1A
102
}
102
{ACAD_REACTORS
330
10
102
}
330
10
100
AcDbMaterial
  1
ByBlock
 72
     0
 43
0.0208333333333333
 43
0.0
 43
0.0
 43
0.0
 43
0.0
 43
0.0208333333333333
 43
0.0
 43
0.0
 43
0.0
 43
0.0
 43
1.0
 43
0.0
 43
0.0
 43
0.0
 43
0.0
 43
1.0
 77
     0
 47
0.0208333333333333
 47
0.0
 47
0.0
 47
0.0
 47
0.0
 47
0.0208333333333333
 47
0.0
 47
0.0
 47
0.0
 47
0.0
 47
1.0
 47
0.0
 47
0.0
 47
0.0
 47
0.0
 47
1.0
171
     0
 49
0.0208333333333333
 49
0.0
 49
0.0
 49
0.0
 49
0.0
 49
0.0208333333333333
 49
0.0
 49
0.0
 49
0.0
 49
0.0
 49
1.0
 49
0.0
 49
0.0
 49
0.0
 49
0.0
 49
1.0
175
     0
142
0.0208333333333333
142
0.0
142
0.0
142
0.0
142
0.0
142
0.0208333333333333
142
0.0
142
0.0
142
0.0
142
0.0
142
1.0
142
0.0
142
0.0
142
0.0
142
0.0
142
1.0
179
     0
144
0.0208333333333333
144
0.0
144
0.0
144
0.0
144
0.0
144
0.0208333333333333
144
0.0
144
0.0
144
0.0
144
0.0
144
1.0
144
0.0
144
0.0
144
0.0
144
0.0
144
1.0
147
0.0208333333333333
147
0.0
147
0.0
147
0.0
147
0.0
147
0.0208333333333333
147
0.0
147
0.0
147
0.0
147
0.0
147
1.0
147
0.0
147
0.0
147
0.0
147
0.0
147
1.0
  0
MATERIAL
  5
11
102
{ACAD_XDICTIONARY
360
12
102
}
102
{ACAD_REACTORS
330
10
102
}
330
10
100
AcDbMaterial
  1
ByLayer
 72
     0
 43
0.0208333333333333
 43
0.0
 43
0.0
 43
0.0
 43
0.0
 43
0.0208333333333333
 43
0.0
 43
0.0
 43
0.0
 43
0.0
 43
1.0
 43
0.0
 43
0.0
 43
0.0
 43
0.0
 43
1.0
 77
     0
 47
0.0208333333333333
 47
0.0
 47
0.0
 47
0.0
 47
0.0
 47
0.0208333333333333
 47
0.0
 47
0.0
 47
0.0
 47
0.0
 47
1.0
 47
0.0
 47
0.0
 47
0.0
 47
0.0
 47
1.0
171
     0
 49
0.0208333333333333
 49
0.0
 49
0.0
 49
0.0
 49
0.0
 49
0.0208333333333333
 49
0.0
 49
0.0
 49
0.0
 49
0.0
 49
1.0
 49
0.0
 49
0.0
 49
0.0
 49
0.0
 49
1.0
175
     0
142
0.0208333333333333
142
0.0
142
0.0
142
0.0
142
0.0
142
0.0208333333333333
142
0.0
142
0.0
142
0.0
142
0.0
142
1.0
142
0.0
142
0.0
142
0.0
142
0.0
142
1.0
179
     0
144
0.0208333333333333
144
0.0
144
0.0
144
0.0
144
0.0
144
0.0208333333333333
144
0.0
144
0.0
144
0.0
144
0.0
144
1.0
144
0.0
144
0.0
144
0.0
144
0.0
144
1.0
147
0.0208333333333333
147
0.0
147
0.0
147
0.0
147
0.0
147
0.0208333333333333
147
0.0
147
0.0
147
0.0
147
0.0
147
1.0
147
0.0
147
0.0
147
0.0
147
0.0
147
1.0
  0
MATERIAL
  5
21
102
{ACAD_XDICTIONARY
360
22
102
}
102
{ACAD_REACTORS
330
10
102
}
330
10
100
AcDbMaterial
  1
Global
 72
     0
 43
0.0208333333333333
 43
0.0
 43
0.0
 43
0.0
 43
0.0
 43
0.0208333333333333
 43
0.0
 43
0.0
 43
0.0
 43
0.0
 43
1.0
 43
0.0
 43
0.0
 43
0.0
 43
0.0
 43
1.0
 77
     0
 47
0.0208333333333333
 47
0.0
 47
0.0
 47
0.0
 47
0.0
 47
0.0208333333333333
 47
0.0
 47
0.0
 47
0.0
 47
0.0
 47
1.0
 47
0.0
 47
0.0
 47
0.0
 47
0.0
 47
1.0
171
     0
 49
0.0208333333333333
 49
0.0
 49
0.0
 49
0.0
 49
0.0
 49
0.0208333333333333
 49
0.0
 49
0.0
 49
0.0
 49
0.0
 49
1.0
 49
0.0
 49
0.0
 49
0.0
 49
0.0
 49
1.0
175
     0
142
0.0208333333333333
142
0.0
142
0.0
142
0.0
142
0.0
142
0.0208333333333333
142
0.0
142
0.0
142
0.0
142
0.0
142
1.0
142
0.0
142
0.0
142
0.0
142
0.0
142
1.0
179
     0
144
0.0208333333333333
144
0.0
144
0.0
144
0.0
144
0.0
144
0.0208333333333333
144
0.0
144
0.0
144
0.0
144
0.0
144
1.0
144
0.0
144
0.0
144
0.0
144
0.0
144
1.0
147
0.0208333333333333
147
0.0
147
0.0
147
0.0
147
0.0
147
0.0208333333333333
147
0.0
147
0.0
147
0.0
147
0.0
147
1.0
147
0.0
147
0.0
147
0.0
147
0.0
147
1.0
  0
MLEADERSTYLE
  5
67
102
{ACAD_REACTORS
330
66
102
}
330
66
100
AcDbMLeaderStyle
170
     2
171
     1
172
     0
 90
        2
 40
0.0
 41
0.0
173
     1
 91
-1056964608
340
5B
 92
       -2
290
     1
 42
0.09
291
     1
 43
0.36
  3
Standard
 44
0.18
300

342
55
174
     1
178
     6
175
     1
176
     0
 93
-1056964608
 45
0.18
292
     0
297
     0
 46
0.18
 94
-1056964608
 47
1.0
 49
1.0
140
1.0
293
     1
141
0.0
294
     1
177
     0
142
1.0
295
     0
296
     0
143
0.125
1001
ACAD_MLEADERVER
1070
     2
  0
MLINESTYLE
  5
60
102
{ACAD_REACTORS
330
5F
102
}
330
5F
100
AcDbMlineStyle
  2
STANDARD
 70
     0
  3

 62
   256
 51
90.0
 52
90.0
 71
     2
 49
0.5
 62
   256
  6
BYLAYER
 49
-0.5
 62
   256
  6
BYLAYER
  0
ACDBPLACEHOLDER
  5
F
102
{ACAD_REACTORS
330
E
102
}
330
E
  0
SCALE
  5
43
102
{ACAD_REACTORS
330
42
102
}
330
42
100
AcDbScale
 70
     0
300
1:1
140
1.0
141
1.0
290
     1
  0
SCALE
  5
44
102
{ACAD_REACTORS
330
42
102
}
330
42
100
AcDbScale
 70
     0
300
1/128" = 1'-0"
140
0.0078125
141
12.0
290
     0
  0
SCALE
  5
45
102
{ACAD_REACTORS
330
42
102
}
330
42
100
AcDbScale
 70
     0
300
1/64" = 1'-0"
140
0.015625
141
12.0
290
     0
  0
SCALE
  5
46
102
{ACAD_REACTORS
330
42
102
}
330
42
100
AcDbScale
 70
     0
300
1/32" = 1'-0"
140
0.03125
141
12.0
290
     0
  0
SCALE
  5
47
102
{ACAD_REACTORS
330
42
102
}
330
42
100
AcDbScale
 70
     0
300
1/16" = 1'-0"
140
0.0625
141
12.0
290
     0
  0
SCALE
  5
48
102
{ACAD_REACTORS
330
42
102
}
330
42
100
AcDbScale
 70
     0
300
3/32" = 1'-0"
140
0.09375
141
12.0
290
     0
  0
SCALE
  5
49
102
{ACAD_REACTORS
330
42
102
}
330
42
100
AcDbScale
 70
     0
300
1/8" = 1'-0"
140
0.125
141
12.0
290
     0
  0
SCALE
  5
4A
102
{ACAD_REACTORS
330
42
102
}
330
42
100
AcDbScale
 70
     0
300
3/16" = 1'-0"
140
0.1875
141
12.0
290
     0
  0
SCALE
  5
4B
102
{ACAD_REACTORS
330
42
102
}
330
42
100
AcDbScale
 70
     0
300
1/4" = 1'-0"
140
0.25
141
12.0
290
     0
  0
SCALE
  5
4C
102
{ACAD_REACTORS
330
42
102
}
330
42
100
AcDbScale
 70
     0
300
3/8" = 1'-0"
140
0.375
141
12.0
290
     0
  0
SCALE
  5
4D
102
{ACAD_REACTORS
330
42
102
}
330
42
100
AcDbScale
 70
     0
300
1/2" = 1'-0"
140
0.5
141
12.0
290
     0
  0
SCALE
  5
4E
102
{ACAD_REACTORS
330
42
102
}
330
42
100
AcDbScale
 70
     0
300
3/4" = 1'-0"
140
0.75
141
12.0
290
     0
  0
SCALE
  5
4F
102
{ACAD_REACTORS
330
42
102
}
330
42
100
AcDbScale
 70
     0
300
1" = 1'-0"
140
1.0
141
12.0
290
     0
  0
SCALE
  5
50
102
{ACAD_REACTORS
330
42
102
}
330
42
100
AcDbScale
 70
     0
300
1-1/2" = 1'-0"
140
1.5
141
12.0
290
     0
  0
SCALE
  5
51
102
{ACAD_REACTORS
330
42
102
}
330
42
100
AcDbScale
 70
     0
300
3" = 1'-0"
140
3.0
141
12.0
290
     0
  0
SCALE
  5
52
102
{ACAD_REACTORS
330
42
102
}
330
42
100
AcDbScale
 70
     0
300
6" = 1'-0"
140
6.0
141
12.0
290
     0
  0
SCALE
  5
53
102
{ACAD_REACTORS
330
42
102
}
330
42
100
AcDbScale
 70
     0
300
1'-0" = 1'-0"
140
12.0
141
12.0
290
     0
  0
TABLESTYLE
  5
65
102
{ACAD_XDICTIONARY
360
5FC
102
}
102
{ACAD_REACTORS
330
64
102
}
330
64
100
AcDbTableStyle
  3
Standard
 70
     0
 71
     0
 40
0.06
 41
0.06
280
     0
281
     0
  7
Standard
140
0.18
170
     2
 62
     0
 63
     7
283
     0
274
    -2
284
     1
 64
     0
275
    -2
285
     1
 65
     0
276
    -2
286
     1
 66
     0
277
    -2
287
     1
 67
     0
278
    -2
288
     1
 68
     0
279
    -2
289
     1
 69
     0
  7
Standard
140
0.25
170
     5
 62
     0
 63
     7
283
     0
274
    -2
284
     1
 64
     0
275
    -2
285
     1
 65
     0
276
    -2
286
     1
 66
     0
277
    -2
287
     1
 67
     0
278
    -2
288
     1
 68
     0
279
    -2
289
     1
 69
     0
  7
Standard
140
0.18
170
     5
 62
     0
 63
     7
283
     0
274
    -2
284
     1
 64
     0
275
    -2
285
     1
 65
     0
276
    -2
286
     1
 66
     0
277
    -2
287
     1
 67
     0
278
    -2
288
     1
 68
     0
279
    -2
289
     1
 69
     0
  0
VISUALSTYLE
  5
2F
102
{ACAD_XDICTIONARY
360
800
102
}
102
{ACAD_REACTORS
330
29
102
}
330
29
100
AcDbVisualStyle
  2

 70
     4
 71
     0
 72
     2
 73
     0
 90
        0
 40
-0.6
 41
-30.0
 62
     5
 63
     7
421
 16777215
 74
     1
 91
        4
 64
     7
 65
   257
 75
     1
175
     1
 42
1.0
 92
        0
 66
   257
 43
1.0
 76
     1
 77
     6
 78
     2
 67
     7
 79
     5
170
     0
171
     0
290
     0
174
     0
 93
        1
 44
0.0
173
     0
291
     0
 45
0.0
1001
ACAD
1000
AcDbSavedByObjectVersion
1070
     0
  0
VISUALSTYLE
  5
2E
102
{ACAD_XDICTIONARY
360
7FE
102
}
102
{ACAD_REACTORS
330
29
102
}
330
29
100
AcDbVisualStyle
  2

 70
     7
 71
     1
 72
     0
 73
     1
 90
        0
 40
-0.6
 41
-30.0
 62
     5
 63
     7
421
 16777215
 74
     0
 91
        4
 64
     7
 65
   257
 75
     1
175
     1
 42
1.0
 92
        8
 66
     7
 43
1.0
 76
     1
 77
     6
 78
     2
 67
     7
 79
     5
170
     0
171
     0
290
     0
174
     0
 93
        1
 44
0.0
173
     0
291
     1
 45
0.0
1001
ACAD
1000
AcDbSavedByObjectVersion
1070
     0
  0
VISUALSTYLE
  5
35
102
{ACAD_XDICTIONARY
360
80C
102
}
102
{ACAD_REACTORS
330
29
102
}
330
29
100
AcDbVisualStyle
  2

 70
    12
 71
     2
 72
     2
 73
     0
 90
        0
 40
-0.6
 41
-30.0
 62
     5
 63
     7
421
 16777215
 74
     1
 91
        4
 64
     7
 65
   257
 75
     1
175
     1
 42
1.0
 92
        8
 66
     7
 43
1.0
 76
     1
 77
     6
 78
     2
 67
     7
 79
     5
170
     0
171
     0
290
     0
174
     0
 93
        1
 44
50.0
173
     0
291
     1
 45
0.0
1001
ACAD
1000
AcDbSavedByObjectVersion
1070
     0
  0
VISUALSTYLE
  5
39
102
{ACAD_XDICTIONARY
360
814
102
}
102
{ACAD_REACTORS
330
29
102
}
330
29
100
AcDbVisualStyle
  2

 70
    16
 71
     2
 72
     2
 73
     3
 90
        0
 40
-0.6
 41
-30.0
 62
     5
 63
     8
421
  8421504
 74
     1
 91
        4
 64
     7
 65
   257
 75
     1
175
     1
 42
1.0
 92
        8
 66
     8
424
  8421504
 43
1.0
 76
     1
 77
     6
 78
     2
 67
     7
 79
     5
170
     0
171
     0
290
     0
174
     0
 93
        1
 44
0.0
173
     0
291
     1
 45
0.0
1001
ACAD
1000
AcDbSavedByObjectVersion
1070
     0
  0
VISUALSTYLE
  5
32
102
{ACAD_XDICTIONARY
360
806
102
}
102
{ACAD_REACTORS
330
29
102
}
330
29
100
AcDbVisualStyle
  2

 70
     9
 71
     3
 72
     2
 73
     0
 90
        0
 40
-0.6
 41
-30.0
 62
     5
 63
     7
421
 16777215
 74
     2
 91
        2
 64
     7
 65
   257
 75
     1
175
     1
 42
179.0
 92
        8
 66
     7
 43
1.0
 76
     1
 77
     6
 78
     2
 67
     7
 79
     3
170
     0
171
     0
290
     0
174
     0
 93
        1
 44
0.0
173
     0
291
     0
 45
0.0
1001
ACAD
1000
AcDbSavedByObjectVersion
1070
     0
  0
VISUALSTYLE
  5
34
102
{ACAD_XDICTIONARY
360
80A
102
}
102
{ACAD_REACTORS
330
29
102
}
330
29
100
AcDbVisualStyle
  2

 70
    11
 71
     2
 72
     2
 73
     0
 90
        0
 40
-0.6
 41
-30.0
 62
     5
 63
     7
421
 16777215
 74
     1
 91
        4
 64
     7
 65
   257
 75
     1
175
     1
 42
1.0
 92
        8
 66
     7
 43
1.0
 76
     1
 77
     6
 78
     2
 67
     7
 79
     5
170
     0
171
     0
290
     0
174
     0
 93
        1
 44
-50.0
173
     0
291
     1
 45
0.0
1001
ACAD
1000
AcDbSavedByObjectVersion
1070
     0
  0
VISUALSTYLE
  5
41
102
{ACAD_XDICTIONARY
360
824
102
}
102
{ACAD_REACTORS
330
29
102
}
330
29
100
AcDbVisualStyle
  2

 70
    22
 71
     2
 72
     2
 73
     0
 90
        0
 40
-0.6
 41
-30.0
 62
     5
 63
     7
421
 16777215
 74
     1
 91
        4
 64
     7
 65
   257
 75
     1
175
     1
 42
1.0
 92
        8
 66
     7
 43
1.0
 76
     1
 77
     6
 78
     2
 67
     7
 79
     5
170
     0
171
     0
290
     0
174
     0
 93
        1
 44
0.0
173
     0
291
     1
 45
0.0
1001
ACAD
1000
AcDbSavedByObjectVersion
1070
     0
  0
VISUALSTYLE
  5
38
102
{ACAD_XDICTIONARY
360
812
102
}
102
{ACAD_REACTORS
330
29
102
}
330
29
100
AcDbVisualStyle
  2

 70
    15
 71
     2
 72
     2
 73
     0
 90
        0
 40
-0.6
 41
-30.0
 62
     5
 63
     7
421
 16777215
 74
     1
 91
        4
 64
     7
 65
   257
 75
     1
175
     1
 42
1.0
 92
        8
 66
     7
 43
1.0
 76
     1
 77
     6
 78
     2
 67
     7
 79
     5
170
     0
171
     0
290
     0
174
     0
 93
        1
 44
0.0
173
     0
291
     1
 45
0.0
1001
ACAD
1000
AcDbSavedByObjectVersion
1070
     0
  0
VISUALSTYLE
  5
2A
102
{ACAD_XDICTIONARY
360
7F6
102
}
102
{ACAD_REACTORS
330
29
102
}
330
29
100
AcDbVisualStyle
  2

 70
     0
 71
     2
 72
     1
 73
     1
 90
        2
 40
-0.6
 41
30.0
 62
     5
 63
     7
421
 16777215
 74
     0
 91
        0
 64
     7
 65
   257
 75
     1
175
     1
 42
1.0
 92
        8
 66
     7
 43
1.0
 76
     1
 77
     6
 78
     2
 67
     7
 79
     5
170
     0
171
     0
290
     0
174
     0
 93
       13
 44
0.0
173
     0
291
     1
 45
0.0
1001
ACAD
1000
AcDbSavedByObjectVersion
1070
     0
  0
VISUALSTYLE
  5
2B
102
{ACAD_XDICTIONARY
360
7F8
102
}
102
{ACAD_REACTORS
330
29
102
}
330
29
100
AcDbVisualStyle
  2

 70
     1
 71
     2
 72
     1
 73
     1
 90
        2
 40
-0.6
 41
30.0
 62
     5
 63
     7
421
 16777215
 74
     1
 91
        0
 64
     7
 65
   257
 75
     1
175
     1
 42
1.0
 92
        0
 66
   257
 43
1.0
 76
     1
 77
     6
 78
     2
 67
     7
 79
     5
170
     0
171
     0
290
     0
174
     0
 93
       13
 44
0.0
173
     0
291
     1
 45
0.0
1001
ACAD
1000
AcDbSavedByObjectVersion
1070
     0
  0
VISUALSTYLE
  5
2C
102
{ACAD_XDICTIONARY
360
7FA
102
}
102
{ACAD_REACTORS
330
29
102
}
330
29
100
AcDbVisualStyle
  2

 70
     2
 71
     2
 72
     2
 73
     1
 90
        2
 40
-0.6
 41
30.0
 62
     5
 63
     7
421
 16777215
 74
     0
 91
        0
 64
     7
 65
   257
 75
     1
175
     1
 42
1.0
 92
        0
 66
     7
 43
1.0
 76
     1
 77
     6
 78
     2
 67
     7
 79
     5
170
     0
171
     0
290
     0
174
     0
 93
       13
 44
0.0
173
     0
291
     1
 45
0.0
1001
ACAD
1000
AcDbSavedByObjectVersion
1070
     0
  0
VISUALSTYLE
  5
2D
102
{ACAD_XDICTIONARY
360
7FC
102
}
102
{ACAD_REACTORS
330
29
102
}
330
29
100
AcDbVisualStyle
  2

 70
     3
 71
     2
 72
     2
 73
     1
 90
        2
 40
-0.6
 41
30.0
 62
     5
 63
     7
421
 16777215
 74
     1
 91
        0
 64
     7
 65
   257
 75
     1
175
     1
 42
1.0
 92
        0
 66
   257
 43
1.0
 76
     1
 77
     6
 78
     2
 67
     7
 79
     5
170
     0
171
     0
290
     0
174
     0
 93
       13
 44
0.0
173
     0
291
     1
 45
0.0
1001
ACAD
1000
AcDbSavedByObjectVersion
1070
     0
  0
VISUALSTYLE
  5
31
102
{ACAD_XDICTIONARY
360
804
102
}
102
{ACAD_REACTORS
330
29
102
}
330
29
100
AcDbVisualStyle
  2

 70
     6
 71
     1
 72
     2
 73
     2
 90
        0
 40
-0.6
 41
-30.0
 62
     5
 63
     7
421
 16777215
 74
     2
 91
        2
 64
     7
 65
   257
 75
     2
175
     1
 42
40.0
 92
        0
 66
   257
 43
1.0
 76
     1
 77
     6
 78
     2
 67
     7
 79
     3
170
     0
171
     0
290
     0
174
     0
 93
        1
 44
0.0
173
     0
291
     0
 45
0.0
1001
ACAD
1000
AcDbSavedByObjectVersion
1070
     0
  0
VISUALSTYLE
  5
3F
102
{ACAD_XDICTIONARY
360
820
102
}
102
{ACAD_REACTORS
330
29
102
}
330
29
100
AcDbVisualStyle
  2

 70
    20
 71
     2
 72
     2
 73
     0
 90
        0
 40
-0.6
 41
-30.0
 62
     5
 63
     7
421
 16777215
 74
     1
 91
        4
 64
     7
 65
   257
 75
     1
175
     1
 42
1.0
 92
       10
 66
     7
 43
1.0
 76
     1
 77
     6
 78
     2
 67
     7
 79
     5
170
     0
171
     0
290
     0
174
     0
 93
        1
 44
0.0
173
     0
291
     1
 45
0.0
1001
ACAD
1000
AcDbSavedByObjectVersion
1070
     0
  0
VISUALSTYLE
  5
37
102
{ACAD_XDICTIONARY
360
810
102
}
102
{ACAD_REACTORS
330
29
102
}
330
29
100
AcDbVisualStyle
  2

 70
    14
 71
     2
 72
     2
 73
     0
 90
        0
 40
-0.6
 41
-30.0
 62
     5
 63
     7
421
 16777215
 74
     1
 91
        4
 64
     7
 65
   257
 75
     7
175
     7
 42
1.0
 92
        8
 66
     7
 43
1.0
 76
     1
 77
     6
 78
     2
 67
     7
 79
     5
170
     0
171
     0
290
     0
174
     0
 93
        1
 44
0.0
173
     0
291
     1
 45
0.0
1001
ACAD
1000
AcDbSavedByObjectVersion
1070
     0
  0
VISUALSTYLE
  5
40
102
{ACAD_XDICTIONARY
360
822
102
}
102
{ACAD_REACTORS
330
29
102
}
330
29
100
AcDbVisualStyle
  2

 70
    21
 71
     2
 72
     2
 73
     0
 90
        0
 40
-0.6
 41
-30.0
 62
     5
 63
     7
421
 16777215
 74
     1
 91
        4
 64
     7
 65
   257
 75
     1
175
     1
 42
1.0
 92
        9
 66
     7
 43
1.0
 76
     1
 77
     6
 78
     2
 67
     7
 79
     5
170
     0
171
     0
290
     0
174
     0
 93
        1
 44
0.0
173
     0
291
     1
 45
0.0
1001
ACAD
1000
AcDbSavedByObjectVersion
1070
     0
  0
VISUALSTYLE
  5
33
102
{ACAD_XDICTIONARY
360
808
102
}
102
{ACAD_REACTORS
330
29
102
}
330
29
100
AcDbVisualStyle
  2

 70
     8
 71
     2
 72
     3
 73
     0
 90
        2
 40
-0.6
 41
30.0
 62
     5
 63
     7
421
 16777215
 74
     0
 91
        0
 64
     7
 65
   257
 75
     1
175
     1
 42
1.0
 92
        8
 66
   257
 43
1.0
 76
     1
 77
     6
 78
     2
 67
     7
 79
     3
170
     0
171
     0
290
     0
174
     0
 93
       13
 44
0.0
173
     0
291
     0
 45
0.0
1001
ACAD
1000
AcDbSavedByObjectVersion
1070
     0
  0
VISUALSTYLE
  5
3E
102
{ACAD_XDICTIONARY
360
81E
102
}
102
{ACAD_REACTORS
330
29
102
}
330
29
100
AcDbVisualStyle
  2

 70
    27
 71
     2
 72
     2
 73
     1
 90
        2
 40
-0.6
 41
30.0
 62
     5
 63
     7
421
 16777215
 74
     0
 91
        4
 64
     7
 65
   257
 75
     1
175
     1
 42
1.0
 92
        8
 66
   257
 43
1.0
 76
     1
 77
     6
 78
     2
 67
     8
425
  7895160
 79
     3
170
     0
171
     0
290
     0
174
     0
 93
        5
 44
0.0
173
     0
291
     0
 45
0.0
1001
ACAD
1000
AcDbSavedByObjectVersion
1070
     0
  0
VISUALSTYLE
  5
3D
102
{ACAD_XDICTIONARY
360
81C
102
}
102
{ACAD_REACTORS
330
29
102
}
330
29
100
AcDbVisualStyle
  2

 70
    26
 71
     2
 72
     2
 73
     1
 90
        2
 40
-0.6
 41
30.0
 62
     5
 63
     7
421
 16777215
 74
     1
 91
       10
 64
     7
 65
   257
 75
     2
175
     1
 42
1.0
 92
        8
 66
   257
 43
1.0
 76
     1
 77
     6
 78
     2
 67
     7
 79
     3
170
     0
171
     0
290
     0
174
     0
 93
        5
 44
0.0
173
     0
291
     0
 45
0.0
1001
ACAD
1000
AcDbSavedByObjectVersion
1070
     0
  0
VISUALSTYLE
  5
3A
102
{ACAD_XDICTIONARY
360
816
102
}
102
{ACAD_REACTORS
330
29
102
}
330
29
100
AcDbVisualStyle
  2

 70
    23
 71
     2
 72
     2
 73
     3
 90
        0
 40
-0.6
 41
-30.0
 62
     5
 63
     7
421
 16777215
 74
     2
 91
        2
 64
     7
 65
     7
 75
     1
175
     1
 42
40.0
 92
        8
 66
     7
 43
1.0
 76
     1
 77
     6
 78
     2
 67
     7
 79
     3
170
     0
171
     0
290
     0
174
     0
 93
        1
 44
0.0
173
     0
291
     0
 45
0.0
1001
ACAD
1000
AcDbSavedByObjectVersion
1070
     0
  0
VISUALSTYLE
  5
3B
102
{ACAD_XDICTIONARY
360
818
102
}
102
{ACAD_REACTORS
330
29
102
}
330
29
100
AcDbVisualStyle
  2

 70
    24
 71
     1
 72
     2
 73
     2
 90
        0
 40
-0.6
 41
-30.0
 62
     5
 63
     7
421
 16777215
 74
     2
 91
        2
 64
     7
 65
     7
 75
     1
175
     1
 42
40.0
 92
       11
 66
     7
 43
1.0
 76
     1
 77
     6
 78
     2
 67
     7
 79
     6
170
     0
171
     0
290
     0
174
     0
 93
        1
 44
0.0
173
     0
291
     0
 45
0.0
1001
ACAD
1000
AcDbSavedByObjectVersion
1070
     0
  0
VISUALSTYLE
  5
36
102
{ACAD_XDICTIONARY
360
80E
102
}
102
{ACAD_REACTORS
330
29
102
}
330
29
100
AcDbVisualStyle
  2

 70
    13
 71
     2
 72
     2
 73
     0
 90
        0
 40
-0.6
 41
-30.0
 62
     5
 63
     7
421
 16777215
 74
     1
 91
        4
 64
     7
 65
   257
 75
     1
175
     1
 42
1.0
 92
       12
 66
     7
 43
1.0
 76
     1
 77
     6
 78
     2
 67
     7
 79
     5
170
     0
171
     0
290
     0
174
     0
 93
        1
 44
0.0
173
     0
291
     1
 45
0.0
1001
ACAD
1000
AcDbSavedByObjectVersion
1070
     0
  0
VISUALSTYLE
  5
30
102
{ACAD_XDICTIONARY
360
802
102
}
102
{ACAD_REACTORS
330
29
102
}
330
29
100
AcDbVisualStyle
  2

 70
     5
 71
     0
 72
     2
 73
     0
 90
        0
 40
-0.6
 41
-30.0
 62
     5
 63
     7
421
 16777215
 74
     1
 91
        4
 64
     7
 65
   257
 75
     1
175
     1
 42
1.0
 92
        0
 66
   257
 43
1.0
 76
     1
 77
     6
 78
     2
 67
     7
 79
     3
170
     0
171
     0
290
     0
174
     0
 93
        1
 44
0.0
173
     0
291
     0
 45
0.0
1001
ACAD
1000
AcDbSavedByObjectVersion
1070
     0
  0
VISUALSTYLE
  5
3C
102
{ACAD_XDICTIONARY
360
81A
102
}
102
{ACAD_REACTORS
330
29
102
}
330
29
100
AcDbVisualStyle
  2

 70
    25
 71
     2
 72
     2
 73
     1
 90
        1
 40
0.5
 41
-30.0
 62
     5
 63
     7
421
 16777215
 74
     1
 91
        0
 64
     7
 65
   257
 75
     1
175
     1
 42
1.0
 92
        8
 66
     7
 43
1.0
 76
     1
 77
     6
 78
     2
 67
     7
 79
     3
170
     0
171
     0
290
     0
174
     0
 93
       13
 44
0.0
173
     0
291
     0
 45
0.0
1001
ACAD
1000
AcDbSavedByObjectVersion
1070
     0
  0
DICTIONARYVAR
  5
5F7
102
{ACAD_REACTORS
330
5F3
102
}
330
5F3
100
DictionaryVariables
280
     0
  1
1:1
  0
DICTIONARYVAR
  5
5F5
102
{ACAD_REACTORS
330
5F3
102
}
330
5F3
100
DictionaryVariables
280
     0
  1
STANDARD
  0
DICTIONARYVAR
  5
5F4
102
{ACAD_REACTORS
330
5F3
102
}
330
5F3
100
DictionaryVariables
280
     0
  1
STANDARD
  0
DICTIONARYVAR
  5
5F9
102
{ACAD_REACTORS
330
5F3
102
}
330
5F3
100
DictionaryVariables
280
     0
  1
0
  0
DICTIONARYVAR
  5
5FA
102
{ACAD_REACTORS
330
5F3
102
}
330
5F3
100
DictionaryVariables
280
     0
  1
0
  0
DICTIONARYVAR
  5
5F8
102
{ACAD_REACTORS
330
5F3
102
}
330
5F3
100
DictionaryVariables
280
     0
  1
2
  0
DICTIONARYVAR
  5
5F6
102
{ACAD_REACTORS
330
5F3
102
}
330
5F3
100
DictionaryVariables
280
     0
  1
1
  0
DICTIONARYVAR
  5
7EE
102
{ACAD_REACTORS
330
5F3
102
}
330
5F3
100
DictionaryVariables
280
     0
  1
2
  0
DICTIONARY
  5
684
102
{ACAD_REACTORS
330
683
102
}
330
683
100
AcDbDictionary
281
     1
  0
DICTIONARY
  5
1A
330
19
100
AcDbDictionary
280
     1
281
     1
  3
ACAD_XREC_ROUNDTRIP
360
600
  3
BUMPTILE
360
1C
  3
DIFFUSETILE
360
1B
  3
OPACITYTILE
360
1F
  3
REFLECTIONTILE
360
1E
  3
REFRACTIONTILE
360
20
  3
SPECULARTILE
360
1D
  0
DICTIONARY
  5
12
330
11
100
AcDbDictionary
280
     1
281
     1
  3
ACAD_XREC_ROUNDTRIP
360
5FF
  3
BUMPTILE
360
14
  3
DIFFUSETILE
360
13
  3
OPACITYTILE
360
17
  3
REFLECTIONTILE
360
16
  3
REFRACTIONTILE
360
18
  3
SPECULARTILE
360
15
  0
DICTIONARY
  5
22
330
21
100
AcDbDictionary
280
     1
281
     1
  3
ACAD_XREC_ROUNDTRIP
360
601
  3
BUMPTILE
360
24
  3
DIFFUSETILE
360
23
  3
OPACITYTILE
360
27
  3
REFLECTIONTILE
360
26
  3
REFRACTIONTILE
360
28
  3
SPECULARTILE
360
25
  0
DICTIONARY
  5
5FC
330
65
100
AcDbDictionary
280
     1
281
     1
  3
ACAD_ROUNDTRIP_2008_TABLESTYLE_CELLSTYLEMAP
360
7EF
  3
ACAD_XREC_ROUNDTRIP
360
826
  0
DICTIONARY
  5
800
330
2F
100
AcDbDictionary
280
     1
281
     1
  3
ACAD_XREC_ROUNDTRIP
360
801
  0
DICTIONARY
  5
7FE
330
2E
100
AcDbDictionary
280
     1
281
     1
  3
ACAD_XREC_ROUNDTRIP
360
7FF
  0
DICTIONARY
  5
80C
330
35
100
AcDbDictionary
280
     1
281
     1
  3
ACAD_XREC_ROUNDTRIP
360
80D
  0
DICTIONARY
  5
814
330
39
100
AcDbDictionary
280
     1
281
     1
  3
ACAD_XREC_ROUNDTRIP
360
815
  0
DICTIONARY
  5
806
330
32
100
AcDbDictionary
280
     1
281
     1
  3
ACAD_XREC_ROUNDTRIP
360
807
  0
DICTIONARY
  5
80A
330
34
100
AcDbDictionary
280
     1
281
     1
  3
ACAD_XREC_ROUNDTRIP
360
80B
  0
DICTIONARY
  5
824
330
41
100
AcDbDictionary
280
     1
281
     1
  3
ACAD_XREC_ROUNDTRIP
360
825
  0
DICTIONARY
  5
812
330
38
100
AcDbDictionary
280
     1
281
     1
  3
ACAD_XREC_ROUNDTRIP
360
813
  0
DICTIONARY
  5
7F6
330
2A
100
AcDbDictionary
280
     1
281
     1
  3
ACAD_XREC_ROUNDTRIP
360
7F7
  0
DICTIONARY
  5
7F8
330
2B
100
AcDbDictionary
280
     1
281
     1
  3
ACAD_XREC_ROUNDTRIP
360
7F9
  0
DICTIONARY
  5
7FA
330
2C
100
AcDbDictionary
280
     1
281
     1
  3
ACAD_XREC_ROUNDTRIP
360
7FB
  0
DICTIONARY
  5
7FC
330
2D
100
AcDbDictionary
280
     1
281
     1
  3
ACAD_XREC_ROUNDTRIP
360
7FD
  0
DICTIONARY
  5
804
330
31
100
AcDbDictionary
280
     1
281
     1
  3
ACAD_XREC_ROUNDTRIP
360
805
  0
DICTIONARY
  5
820
330
3F
100
AcDbDictionary
280
     1
281
     1
  3
ACAD_XREC_ROUNDTRIP
360
821
  0
DICTIONARY
  5
810
330
37
100
AcDbDictionary
280
     1
281
     1
  3
ACAD_XREC_ROUNDTRIP
360
811
  0
DICTIONARY
  5
822
330
40
100
AcDbDictionary
280
     1
281
     1
  3
ACAD_XREC_ROUNDTRIP
360
823
  0
DICTIONARY
  5
808
330
33
100
AcDbDictionary
280
     1
281
     1
  3
ACAD_XREC_ROUNDTRIP
360
809
  0
DICTIONARY
  5
81E
330
3E
100
AcDbDictionary
280
     1
281
     1
  3
ACAD_XREC_ROUNDTRIP
360
81F
  0
DICTIONARY
  5
81C
330
3D
100
AcDbDictionary
280
     1
281
     1
  3
ACAD_XREC_ROUNDTRIP
360
81D
  0
DICTIONARY
  5
816
330
3A
100
AcDbDictionary
280
     1
281
     1
  3
ACAD_XREC_ROUNDTRIP
360
817
  0
DICTIONARY
  5
818
330
3B
100
AcDbDictionary
280
     1
281
     1
  3
ACAD_XREC_ROUNDTRIP
360
819
  0
DICTIONARY
  5
80E
330
36
100
AcDbDictionary
280
     1
281
     1
  3
ACAD_XREC_ROUNDTRIP
360
80F
  0
DICTIONARY
  5
802
330
30
100
AcDbDictionary
280
     1
281
     1
  3
ACAD_XREC_ROUNDTRIP
360
803
  0
DICTIONARY
  5
81A
330
3C
100
AcDbDictionary
280
     1
281
     1
  3
ACAD_XREC_ROUNDTRIP
360
81B
  0
XRECORD
  5
600
102
{ACAD_REACTORS
330
1A
102
}
330
1A
100
AcDbXrecord
280
     1
102
MATERIAL
148
0.0
149
0.0
149
0.0
 93
        0
 94
      127
282
     0
 72
     0
 77
     0
171
     0
175
     0
179
     0
273
     0
  0
XRECORD
  5
1C
102
{ACAD_REACTORS
330
1A
102
}
330
1A
100
AcDbXrecord
280
     1
270
     1
271
     1
  0
XRECORD
  5
1B
102
{ACAD_REACTORS
330
1A
102
}
330
1A
100
AcDbXrecord
280
     1
270
     1
271
     1
  0
XRECORD
  5
1F
102
{ACAD_REACTORS
330
1A
102
}
330
1A
100
AcDbXrecord
280
     1
270
     1
271
     1
  0
XRECORD
  5
1E
102
{ACAD_REACTORS
330
1A
102
}
330
1A
100
AcDbXrecord
280
     1
270
     1
271
     1
  0
XRECORD
  5
20
102
{ACAD_REACTORS
330
1A
102
}
330
1A
100
AcDbXrecord
280
     1
270
     1
271
     1
  0
XRECORD
  5
1D
102
{ACAD_REACTORS
330
1A
102
}
330
1A
100
AcDbXrecord
280
     1
270
     1
271
     1
  0
XRECORD
  5
5FF
102
{ACAD_REACTORS
330
12
102
}
330
12
100
AcDbXrecord
280
     1
102
MATERIAL
148
0.0
149
0.0
149
0.0
 93
        0
 94
      127
282
     0
 72
     0
 77
     0
171
     0
175
     0
179
     0
273
     0
  0
XRECORD
  5
14
102
{ACAD_REACTORS
330
12
102
}
330
12
100
AcDbXrecord
280
     1
270
     1
271
     1
  0
XRECORD
  5
13
102
{ACAD_REACTORS
330
12
102
}
330
12
100
AcDbXrecord
280
     1
270
     1
271
     1
  0
XRECORD
  5
17
102
{ACAD_REACTORS
330
12
102
}
330
12
100
AcDbXrecord
280
     1
270
     1
271
     1
  0
XRECORD
  5
16
102
{ACAD_REACTORS
330
12
102
}
330
12
100
AcDbXrecord
280
     1
270
     1
271
     1
  0
XRECORD
  5
18
102
{ACAD_REACTORS
330
12
102
}
330
12
100
AcDbXrecord
280
     1
270
     1
271
     1
  0
XRECORD
  5
15
102
{ACAD_REACTORS
330
12
102
}
330
12
100
AcDbXrecord
280
     1
270
     1
271
     1
  0
XRECORD
  5
601
102
{ACAD_REACTORS
330
22
102
}
330
22
100
AcDbXrecord
280
     1
102
MATERIAL
148
0.0
149
0.0
149
0.0
 93
        0
 94
      127
282
     0
 72
     0
 77
     0
171
     0
175
     0
179
     0
273
     0
  0
XRECORD
  5
24
102
{ACAD_REACTORS
330
22
102
}
330
22
100
AcDbXrecord
280
     1
270
     1
271
     1
  0
XRECORD
  5
23
102
{ACAD_REACTORS
330
22
102
}
330
22
100
AcDbXrecord
280
     1
270
     1
271
     1
  0
XRECORD
  5
27
102
{ACAD_REACTORS
330
22
102
}
330
22
100
AcDbXrecord
280
     1
270
     1
271
     1
  0
XRECORD
  5
26
102
{ACAD_REACTORS
330
22
102
}
330
22
100
AcDbXrecord
280
     1
270
     1
271
     1
  0
XRECORD
  5
28
102
{ACAD_REACTORS
330
22
102
}
330
22
100
AcDbXrecord
280
     1
270
     1
271
     1
  0
XRECORD
  5
25
102
{ACAD_REACTORS
330
22
102
}
330
22
100
AcDbXrecord
280
     1
270
     1
271
     1
  0
CELLSTYLEMAP
  5
7EF
102
{ACAD_REACTORS
330
5FC
102
}
330
5FC
100
AcDbCellStyleMap
 90
        3
300
CELLSTYLE
  1
TABLEFORMAT_BEGIN
 90
        5
170
     1
 91
        0
 92
    32768
 62
   257
 93
        1
300
CONTENTFORMAT
  1
CONTENTFORMAT_BEGIN
 90
        0
 91
        0
 92
      512
 93
        0
300

 40
0.0
140
1.0
 94
        5
 62
     0
340
55
144
0.25
309
CONTENTFORMAT_END
171
     1
301
MARGIN
  1
CELLMARGIN_BEGIN
 40
0.06
 40
0.06
 40
0.06
 40
0.06
 40
0.18
 40
0.18
309
CELLMARGIN_END
 94
        6
 95
        1
302
GRIDFORMAT
  1
GRIDFORMAT_BEGIN
 90
        0
 91
        1
 62
     0
 92
       -2
340
0
 93
        0
 40
0.045
309
GRIDFORMAT_END
 95
        2
302
GRIDFORMAT
  1
GRIDFORMAT_BEGIN
 90
        0
 91
        1
 62
     0
 92
       -2
340
0
 93
        0
 40
0.045
309
GRIDFORMAT_END
 95
        4
302
GRIDFORMAT
  1
GRIDFORMAT_BEGIN
 90
        0
 91
        1
 62
     0
 92
       -2
340
0
 93
        0
 40
0.045
309
GRIDFORMAT_END
 95
        8
302
GRIDFORMAT
  1
GRIDFORMAT_BEGIN
 90
        0
 91
        1
 62
     0
 92
       -2
340
0
 93
        0
 40
0.045
309
GRIDFORMAT_END
 95
       16
302
GRIDFORMAT
  1
GRIDFORMAT_BEGIN
 90
        0
 91
        1
 62
     0
 92
       -2
340
0
 93
        0
 40
0.045
309
GRIDFORMAT_END
 95
       32
302
GRIDFORMAT
  1
GRIDFORMAT_BEGIN
 90
        0
 91
        1
 62
     0
 92
       -2
340
0
 93
        0
 40
0.045
309
GRIDFORMAT_END
309
TABLEFORMAT_END
  1
CELLSTYLE_BEGIN
 90
        1
 91
        1
300
_TITLE
309
CELLSTYLE_END
300
CELLSTYLE
  1
TABLEFORMAT_BEGIN
 90
        5
170
     1
 91
        0
 92
        0
 62
   257
 93
        1
300
CONTENTFORMAT
  1
CONTENTFORMAT_BEGIN
 90
        0
 91
        0
 92
      512
 93
        0
300

 40
0.0
140
1.0
 94
        5
 62
     0
340
55
144
0.18
309
CONTENTFORMAT_END
171
     1
301
MARGIN
  1
CELLMARGIN_BEGIN
 40
0.06
 40
0.06
 40
0.06
 40
0.06
 40
0.18
 40
0.18
309
CELLMARGIN_END
 94
        6
 95
        1
302
GRIDFORMAT
  1
GRIDFORMAT_BEGIN
 90
        0
 91
        1
 62
     0
 92
       -2
340
0
 93
        0
 40
0.045
309
GRIDFORMAT_END
 95
        2
302
GRIDFORMAT
  1
GRIDFORMAT_BEGIN
 90
        0
 91
        1
 62
     0
 92
       -2
340
0
 93
        0
 40
0.045
309
GRIDFORMAT_END
 95
        4
302
GRIDFORMAT
  1
GRIDFORMAT_BEGIN
 90
        0
 91
        1
 62
     0
 92
       -2
340
0
 93
        0
 40
0.045
309
GRIDFORMAT_END
 95
        8
302
GRIDFORMAT
  1
GRIDFORMAT_BEGIN
 90
        0
 91
        1
 62
     0
 92
       -2
340
0
 93
        0
 40
0.045
309
GRIDFORMAT_END
 95
       16
302
GRIDFORMAT
  1
GRIDFORMAT_BEGIN
 90
        0
 91
        1
 62
     0
 92
       -2
340
0
 93
        0
 40
0.045
309
GRIDFORMAT_END
 95
       32
302
GRIDFORMAT
  1
GRIDFORMAT_BEGIN
 90
        0
 91
        1
 62
     0
 92
       -2
340
0
 93
        0
 40
0.045
309
GRIDFORMAT_END
309
TABLEFORMAT_END
  1
CELLSTYLE_BEGIN
 90
        2
 91
        1
300
_HEADER
309
CELLSTYLE_END
300
CELLSTYLE
  1
TABLEFORMAT_BEGIN
 90
        5
170
     1
 91
        0
 92
        0
 62
   257
 93
        1
300
CONTENTFORMAT
  1
CONTENTFORMAT_BEGIN
 90
        0
 91
        0
 92
      512
 93
        0
300

 40
0.0
140
1.0
 94
        2
 62
     0
340
55
144
0.18
309
CONTENTFORMAT_END
171
     1
301
MARGIN
  1
CELLMARGIN_BEGIN
 40
0.06
 40
0.06
 40
0.06
 40
0.06
 40
0.18
 40
0.18
309
CELLMARGIN_END
 94
        6
 95
        1
302
GRIDFORMAT
  1
GRIDFORMAT_BEGIN
 90
        0
 91
        1
 62
     0
 92
       -2
340
0
 93
        0
 40
0.045
309
GRIDFORMAT_END
 95
        2
302
GRIDFORMAT
  1
GRIDFORMAT_BEGIN
 90
        0
 91
        1
 62
     0
 92
       -2
340
0
 93
        0
 40
0.045
309
GRIDFORMAT_END
 95
        4
302
GRIDFORMAT
  1
GRIDFORMAT_BEGIN
 90
        0
 91
        1
 62
     0
 92
       -2
340
0
 93
        0
 40
0.045
309
GRIDFORMAT_END
 95
        8
302
GRIDFORMAT
  1
GRIDFORMAT_BEGIN
 90
        0
 91
        1
 62
     0
 92
       -2
340
0
 93
        0
 40
0.045
309
GRIDFORMAT_END
 95
       16
302
GRIDFORMAT
  1
GRIDFORMAT_BEGIN
 90
        0
 91
        1
 62
     0
 92
       -2
340
0
 93
        0
 40
0.045
309
GRIDFORMAT_END
 95
       32
302
GRIDFORMAT
  1
GRIDFORMAT_BEGIN
 90
        0
 91
        1
 62
     0
 92
       -2
340
0
 93
        0
 40
0.045
309
GRIDFORMAT_END
309
TABLEFORMAT_END
  1
CELLSTYLE_BEGIN
 90
        3
 91
        2
300
_DATA
309
CELLSTYLE_END
  0
XRECORD
  5
826
102
{ACAD_REACTORS
330
5FC
102
}
330
5FC
100
AcDbXrecord
280
     1
102
ACAD_ROUNDTRIP_PRE2007_TABLESTYLE
 90
      512
 91
        0
  1

 92
      512
 93
        0
  2

 94
      512
 95
        0
  3

  0
XRECORD
  5
801
102
{ACAD_REACTORS
330
800
102
}
330
800
100
AcDbXrecord
280
     1
102
RTVSPropertyOp0
 70
     1
102
RTVSPropertyOp1
 70
     1
102
RTVSPropertyOp2
 70
     1
102
RTVSPropertyOp3
 70
     1
102
RTVSPropertyOp4
 70
     1
102
RTVSPropertyOp5
 70
     1
102
RTVSPropertyOp6
 70
     1
102
RTVSPropertyOp7
 70
     1
102
RTVSPropertyOp8
 70
     1
102
RTVSPropertyOp9
 70
     1
102
RTVSPropertyOp10
 70
     1
102
RTVSPropertyOp11
 70
     1
102
RTVSPropertyOp12
 70
     1
102
RTVSPropertyOp13
 70
     1
102
RTVSPropertyOp14
 70
     1
102
RTVSPropertyOp15
 70
     1
102
RTVSPropertyOp16
 70
     1
102
RTVSPropertyOp17
 70
     1
102
RTVSPropertyOp18
 70
     1
102
RTVSPropertyOp19
 70
     1
102
RTVSPropertyOp20
 70
     1
102
RTVSPropertyOp21
 70
     1
102
RTVSPropertyOp22
 70
     1
102
RTVSPropertyOp23
 70
     1
102
RTVSPropertyOp24
 70
     1
102
RTVSPropertyOp25
 70
     1
102
RTVSPropertyOp26
 70
     1
102
RTVSPropertyOp27
 70
     1
102
RTVSPropertyOp28
 70
     1
102
RTVSPropertyOp29
 70
     1
102
RTVSPropertyOp30
 70
     1
102
RTVSPropertyOp31
 70
     1
102
RTVSPropertyOp32
 70
     1
  0
XRECORD
  5
7FF
102
{ACAD_REACTORS
330
7FE
102
}
330
7FE
100
AcDbXrecord
280
     1
102
RTVSPropertyOp0
 70
     1
102
RTVSPropertyOp1
 70
     1
102
RTVSPropertyOp2
 70
     1
102
RTVSPropertyOp3
 70
     1
102
RTVSPropertyOp4
 70
     1
102
RTVSPropertyOp5
 70
     1
102
RTVSPropertyOp6
 70
     1
102
RTVSPropertyOp7
 70
     1
102
RTVSPropertyOp8
 70
     1
102
RTVSPropertyOp9
 70
     1
102
RTVSPropertyOp10
 70
     1
102
RTVSPropertyOp11
 70
     1
102
RTVSPropertyOp12
 70
     1
102
RTVSPropertyOp13
 70
     1
102
RTVSPropertyOp14
 70
     1
102
RTVSPropertyOp15
 70
     1
102
RTVSPropertyOp16
 70
     1
102
RTVSPropertyOp17
 70
     1
102
RTVSPropertyOp18
 70
     1
102
RTVSPropertyOp19
 70
     1
102
RTVSPropertyOp20
 70
     1
102
RTVSPropertyOp21
 70
     1
102
RTVSPropertyOp22
 70
     1
102
RTVSPropertyOp23
 70
     1
102
RTVSPropertyOp24
 70
     1
102
RTVSPropertyOp25
 70
     1
102
RTVSPropertyOp26
 70
     1
102
RTVSPropertyOp27
 70
     1
102
RTVSPropertyOp28
 70
     1
102
RTVSPropertyOp29
 70
     1
102
RTVSPropertyOp30
 70
     1
102
RTVSPropertyOp31
 70
     1
102
RTVSPropertyOp32
 70
     1
  0
XRECORD
  5
80D
102
{ACAD_REACTORS
330
80C
102
}
330
80C
100
AcDbXrecord
280
     1
102
RTVSPropertyOp0
 70
     1
102
RTVSPropertyOp1
 70
     1
102
RTVSPropertyOp2
 70
     1
102
RTVSPropertyOp3
 70
     1
102
RTVSPropertyOp4
 70
     1
102
RTVSPropertyOp5
 70
     1
102
RTVSPropertyOp6
 70
     1
102
RTVSPropertyOp7
 70
     1
102
RTVSPropertyOp8
 70
     1
102
RTVSPropertyOp9
 70
     1
102
RTVSPropertyOp10
 70
     1
102
RTVSPropertyOp11
 70
     1
102
RTVSPropertyOp12
 70
     1
102
RTVSPropertyOp13
 70
     1
102
RTVSPropertyOp14
 70
     1
102
RTVSPropertyOp15
 70
     1
102
RTVSPropertyOp16
 70
     1
102
RTVSPropertyOp17
 70
     1
102
RTVSPropertyOp18
 70
     1
102
RTVSPropertyOp19
 70
     1
102
RTVSPropertyOp20
 70
     1
102
RTVSPropertyOp21
 70
     1
102
RTVSPropertyOp22
 70
     1
102
RTVSPropertyOp23
 70
     1
102
RTVSPropertyOp24
 70
     1
102
RTVSPropertyOp25
 70
     1
102
RTVSPropertyOp26
 70
     1
102
RTVSPropertyOp27
 70
     1
102
RTVSPropertyOp28
 70
     1
102
RTVSPropertyOp29
 70
     1
102
RTVSPropertyOp30
 70
     1
102
RTVSPropertyOp31
 70
     1
102
RTVSPropertyOp32
 70
     1
  0
XRECORD
  5
815
102
{ACAD_REACTORS
330
814
102
}
330
814
100
AcDbXrecord
280
     1
102
RTVSPropertyOp0
 70
     1
102
RTVSPropertyOp1
 70
     1
102
RTVSPropertyOp2
 70
     1
102
RTVSPropertyOp3
 70
     1
102
RTVSPropertyOp4
 70
     1
102
RTVSPropertyOp5
 70
     1
102
RTVSPropertyOp6
 70
     1
102
RTVSPropertyOp7
 70
     1
102
RTVSPropertyOp8
 70
     1
102
RTVSPropertyOp9
 70
     1
102
RTVSPropertyOp10
 70
     1
102
RTVSPropertyOp11
 70
     1
102
RTVSPropertyOp12
 70
     1
102
RTVSPropertyOp13
 70
     1
102
RTVSPropertyOp14
 70
     1
102
RTVSPropertyOp15
 70
     1
102
RTVSPropertyOp16
 70
     1
102
RTVSPropertyOp17
 70
     1
102
RTVSPropertyOp18
 70
     1
102
RTVSPropertyOp19
 70
     1
102
RTVSPropertyOp20
 70
     1
102
RTVSPropertyOp21
 70
     1
102
RTVSPropertyOp22
 70
     1
102
RTVSPropertyOp23
 70
     1
102
RTVSPropertyOp24
 70
     1
102
RTVSPropertyOp25
 70
     1
102
RTVSPropertyOp26
 70
     1
102
RTVSPropertyOp27
 70
     1
102
RTVSPropertyOp28
 70
     1
102
RTVSPropertyOp29
 70
     1
102
RTVSPropertyOp30
 70
     1
102
RTVSPropertyOp31
 70
     1
102
RTVSPropertyOp32
 70
     1
  0
XRECORD
  5
807
102
{ACAD_REACTORS
330
806
102
}
330
806
100
AcDbXrecord
280
     1
102
RTVSPropertyOp0
 70
     1
102
RTVSPropertyOp1
 70
     1
102
RTVSPropertyOp2
 70
     1
102
RTVSPropertyOp3
 70
     1
102
RTVSPropertyOp4
 70
     1
102
RTVSPropertyOp5
 70
     1
102
RTVSPropertyOp6
 70
     1
102
RTVSPropertyOp7
 70
     1
102
RTVSPropertyOp8
 70
     1
102
RTVSPropertyOp9
 70
     1
102
RTVSPropertyOp10
 70
     1
102
RTVSPropertyOp11
 70
     1
102
RTVSPropertyOp12
 70
     1
102
RTVSPropertyOp13
 70
     1
102
RTVSPropertyOp14
 70
     1
102
RTVSPropertyOp15
 70
     1
102
RTVSPropertyOp16
 70
     1
102
RTVSPropertyOp17
 70
     1
102
RTVSPropertyOp18
 70
     1
102
RTVSPropertyOp19
 70
     1
102
RTVSPropertyOp20
 70
     1
102
RTVSPropertyOp21
 70
     1
102
RTVSPropertyOp22
 70
     1
102
RTVSPropertyOp23
 70
     1
102
RTVSPropertyOp24
 70
     1
102
RTVSPropertyOp25
 70
     1
102
RTVSPropertyOp26
 70
     1
102
RTVSPropertyOp27
 70
     1
102
RTVSPropertyOp28
 70
     1
102
RTVSPropertyOp29
 70
     1
102
RTVSPropertyOp30
 70
     1
102
RTVSPropertyOp31
 70
     1
102
RTVSPropertyOp32
 70
     1
  0
XRECORD
  5
80B
102
{ACAD_REACTORS
330
80A
102
}
330
80A
100
AcDbXrecord
280
     1
102
RTVSPropertyOp0
 70
     1
102
RTVSPropertyOp1
 70
     1
102
RTVSPropertyOp2
 70
     1
102
RTVSPropertyOp3
 70
     1
102
RTVSPropertyOp4
 70
     1
102
RTVSPropertyOp5
 70
     1
102
RTVSPropertyOp6
 70
     1
102
RTVSPropertyOp7
 70
     1
102
RTVSPropertyOp8
 70
     1
102
RTVSPropertyOp9
 70
     1
102
RTVSPropertyOp10
 70
     1
102
RTVSPropertyOp11
 70
     1
102
RTVSPropertyOp12
 70
     1
102
RTVSPropertyOp13
 70
     1
102
RTVSPropertyOp14
 70
     1
102
RTVSPropertyOp15
 70
     1
102
RTVSPropertyOp16
 70
     1
102
RTVSPropertyOp17
 70
     1
102
RTVSPropertyOp18
 70
     1
102
RTVSPropertyOp19
 70
     1
102
RTVSPropertyOp20
 70
     1
102
RTVSPropertyOp21
 70
     1
102
RTVSPropertyOp22
 70
     1
102
RTVSPropertyOp23
 70
     1
102
RTVSPropertyOp24
 70
     1
102
RTVSPropertyOp25
 70
     1
102
RTVSPropertyOp26
 70
     1
102
RTVSPropertyOp27
 70
     1
102
RTVSPropertyOp28
 70
     1
102
RTVSPropertyOp29
 70
     1
102
RTVSPropertyOp30
 70
     1
102
RTVSPropertyOp31
 70
     1
102
RTVSPropertyOp32
 70
     1
  0
XRECORD
  5
825
102
{ACAD_REACTORS
330
824
102
}
330
824
100
AcDbXrecord
280
     1
102
RTVSPropertyOp0
 70
     0
102
RTVSPropertyOp1
 70
     0
102
RTVSPropertyOp2
 70
     0
102
RTVSPropertyOp3
 70
     0
102
RTVSPropertyOp4
 70
     0
102
RTVSPropertyOp5
 70
     0
102
RTVSPropertyOp6
 70
     0
102
RTVSPropertyOp7
 70
     0
102
RTVSPropertyOp8
 70
     0
102
RTVSPropertyOp9
 70
     0
102
RTVSPropertyOp10
 70
     0
102
RTVSPropertyOp11
 70
     0
102
RTVSPropertyOp12
 70
     0
102
RTVSPropertyOp13
 70
     0
102
RTVSPropertyOp14
 70
     2
102
RTVSPropertyOp15
 70
     0
102
RTVSPropertyOp16
 70
     0
102
RTVSPropertyOp17
 70
     0
102
RTVSPropertyOp18
 70
     0
102
RTVSPropertyOp19
 70
     0
102
RTVSPropertyOp20
 70
     0
102
RTVSPropertyOp21
 70
     0
102
RTVSPropertyOp22
 70
     0
102
RTVSPropertyOp23
 70
     0
102
RTVSPropertyOp24
 70
     0
102
RTVSPropertyOp25
 70
     0
102
RTVSPropertyOp26
 70
     0
102
RTVSPropertyOp27
 70
     0
102
RTVSPropertyOp28
 70
     0
102
RTVSPropertyOp29
 70
     0
102
RTVSPropertyOp30
 70
     0
102
RTVSPropertyOp31
 70
     0
102
RTVSPropertyOp32
 70
     0
  0
XRECORD
  5
813
102
{ACAD_REACTORS
330
812
102
}
330
812
100
AcDbXrecord
280
     1
102
RTVSPropertyOp0
 70
     1
102
RTVSPropertyOp1
 70
     1
102
RTVSPropertyOp2
 70
     1
102
RTVSPropertyOp3
 70
     1
102
RTVSPropertyOp4
 70
     1
102
RTVSPropertyOp5
 70
     1
102
RTVSPropertyOp6
 70
     1
102
RTVSPropertyOp7
 70
     1
102
RTVSPropertyOp8
 70
     1
102
RTVSPropertyOp9
 70
     1
102
RTVSPropertyOp10
 70
     1
102
RTVSPropertyOp11
 70
     1
102
RTVSPropertyOp12
 70
     1
102
RTVSPropertyOp13
 70
     1
102
RTVSPropertyOp14
 70
     1
102
RTVSPropertyOp15
 70
     1
102
RTVSPropertyOp16
 70
     1
102
RTVSPropertyOp17
 70
     1
102
RTVSPropertyOp18
 70
     1
102
RTVSPropertyOp19
 70
     1
102
RTVSPropertyOp20
 70
     1
102
RTVSPropertyOp21
 70
     1
102
RTVSPropertyOp22
 70
     1
102
RTVSPropertyOp23
 70
     1
102
RTVSPropertyOp24
 70
     1
102
RTVSPropertyOp25
 70
     1
102
RTVSPropertyOp26
 70
     1
102
RTVSPropertyOp27
 70
     1
102
RTVSPropertyOp28
 70
     1
102
RTVSPropertyOp29
 70
     1
102
RTVSPropertyOp30
 70
     1
102
RTVSPropertyOp31
 70
     1
102
RTVSPropertyOp32
 70
     1
  0
XRECORD
  5
7F7
102
{ACAD_REACTORS
330
7F6
102
}
330
7F6
100
AcDbXrecord
280
     1
102
RTVSPropertyOp0
 70
     1
102
RTVSPropertyOp1
 70
     1
102
RTVSPropertyOp2
 70
     1
102
RTVSPropertyOp3
 70
     1
102
RTVSPropertyOp4
 70
     1
102
RTVSPropertyOp5
 70
     1
102
RTVSPropertyOp6
 70
     1
102
RTVSPropertyOp7
 70
     1
102
RTVSPropertyOp8
 70
     1
102
RTVSPropertyOp9
 70
     1
102
RTVSPropertyOp10
 70
     1
102
RTVSPropertyOp11
 70
     1
102
RTVSPropertyOp12
 70
     1
102
RTVSPropertyOp13
 70
     1
102
RTVSPropertyOp14
 70
     1
102
RTVSPropertyOp15
 70
     1
102
RTVSPropertyOp16
 70
     1
102
RTVSPropertyOp17
 70
     1
102
RTVSPropertyOp18
 70
     1
102
RTVSPropertyOp19
 70
     1
102
RTVSPropertyOp20
 70
     1
102
RTVSPropertyOp21
 70
     1
102
RTVSPropertyOp22
 70
     1
102
RTVSPropertyOp23
 70
     1
102
RTVSPropertyOp24
 70
     1
102
RTVSPropertyOp25
 70
     1
102
RTVSPropertyOp26
 70
     1
102
RTVSPropertyOp27
 70
     1
102
RTVSPropertyOp28
 70
     1
102
RTVSPropertyOp29
 70
     1
102
RTVSPropertyOp30
 70
     1
102
RTVSPropertyOp31
 70
     1
102
RTVSPropertyOp32
 70
     1
  0
XRECORD
  5
7F9
102
{ACAD_REACTORS
330
7F8
102
}
330
7F8
100
AcDbXrecord
280
     1
102
RTVSPropertyOp0
 70
     1
102
RTVSPropertyOp1
 70
     1
102
RTVSPropertyOp2
 70
     1
102
RTVSPropertyOp3
 70
     1
102
RTVSPropertyOp4
 70
     1
102
RTVSPropertyOp5
 70
     1
102
RTVSPropertyOp6
 70
     1
102
RTVSPropertyOp7
 70
     1
102
RTVSPropertyOp8
 70
     1
102
RTVSPropertyOp9
 70
     1
102
RTVSPropertyOp10
 70
     1
102
RTVSPropertyOp11
 70
     1
102
RTVSPropertyOp12
 70
     1
102
RTVSPropertyOp13
 70
     1
102
RTVSPropertyOp14
 70
     1
102
RTVSPropertyOp15
 70
     1
102
RTVSPropertyOp16
 70
     1
102
RTVSPropertyOp17
 70
     1
102
RTVSPropertyOp18
 70
     1
102
RTVSPropertyOp19
 70
     1
102
RTVSPropertyOp20
 70
     1
102
RTVSPropertyOp21
 70
     1
102
RTVSPropertyOp22
 70
     1
102
RTVSPropertyOp23
 70
     1
102
RTVSPropertyOp24
 70
     1
102
RTVSPropertyOp25
 70
     1
102
RTVSPropertyOp26
 70
     1
102
RTVSPropertyOp27
 70
     1
102
RTVSPropertyOp28
 70
     1
102
RTVSPropertyOp29
 70
     1
102
RTVSPropertyOp30
 70
     1
102
RTVSPropertyOp31
 70
     1
102
RTVSPropertyOp32
 70
     1
  0
XRECORD
  5
7FB
102
{ACAD_REACTORS
330
7FA
102
}
330
7FA
100
AcDbXrecord
280
     1
102
RTVSPropertyOp0
 70
     1
102
RTVSPropertyOp1
 70
     1
102
RTVSPropertyOp2
 70
     1
102
RTVSPropertyOp3
 70
     1
102
RTVSPropertyOp4
 70
     1
102
RTVSPropertyOp5
 70
     1
102
RTVSPropertyOp6
 70
     1
102
RTVSPropertyOp7
 70
     1
102
RTVSPropertyOp8
 70
     1
102
RTVSPropertyOp9
 70
     1
102
RTVSPropertyOp10
 70
     1
102
RTVSPropertyOp11
 70
     1
102
RTVSPropertyOp12
 70
     1
102
RTVSPropertyOp13
 70
     1
102
RTVSPropertyOp14
 70
     1
102
RTVSPropertyOp15
 70
     1
102
RTVSPropertyOp16
 70
     1
102
RTVSPropertyOp17
 70
     1
102
RTVSPropertyOp18
 70
     1
102
RTVSPropertyOp19
 70
     1
102
RTVSPropertyOp20
 70
     1
102
RTVSPropertyOp21
 70
     1
102
RTVSPropertyOp22
 70
     1
102
RTVSPropertyOp23
 70
     1
102
RTVSPropertyOp24
 70
     1
102
RTVSPropertyOp25
 70
     1
102
RTVSPropertyOp26
 70
     1
102
RTVSPropertyOp27
 70
     1
102
RTVSPropertyOp28
 70
     1
102
RTVSPropertyOp29
 70
     1
102
RTVSPropertyOp30
 70
     1
102
RTVSPropertyOp31
 70
     1
102
RTVSPropertyOp32
 70
     1
  0
XRECORD
  5
7FD
102
{ACAD_REACTORS
330
7FC
102
}
330
7FC
100
AcDbXrecord
280
     1
102
RTVSPropertyOp0
 70
     1
102
RTVSPropertyOp1
 70
     1
102
RTVSPropertyOp2
 70
     1
102
RTVSPropertyOp3
 70
     1
102
RTVSPropertyOp4
 70
     1
102
RTVSPropertyOp5
 70
     1
102
RTVSPropertyOp6
 70
     1
102
RTVSPropertyOp7
 70
     1
102
RTVSPropertyOp8
 70
     1
102
RTVSPropertyOp9
 70
     1
102
RTVSPropertyOp10
 70
     1
102
RTVSPropertyOp11
 70
     1
102
RTVSPropertyOp12
 70
     1
102
RTVSPropertyOp13
 70
     1
102
RTVSPropertyOp14
 70
     1
102
RTVSPropertyOp15
 70
     1
102
RTVSPropertyOp16
 70
     1
102
RTVSPropertyOp17
 70
     1
102
RTVSPropertyOp18
 70
     1
102
RTVSPropertyOp19
 70
     1
102
RTVSPropertyOp20
 70
     1
102
RTVSPropertyOp21
 70
     1
102
RTVSPropertyOp22
 70
     1
102
RTVSPropertyOp23
 70
     1
102
RTVSPropertyOp24
 70
     1
102
RTVSPropertyOp25
 70
     1
102
RTVSPropertyOp26
 70
     1
102
RTVSPropertyOp27
 70
     1
102
RTVSPropertyOp28
 70
     1
102
RTVSPropertyOp29
 70
     1
102
RTVSPropertyOp30
 70
     1
102
RTVSPropertyOp31
 70
     1
102
RTVSPropertyOp32
 70
     1
  0
XRECORD
  5
805
102
{ACAD_REACTORS
330
804
102
}
330
804
100
AcDbXrecord
280
     1
102
RTVSPropertyOp0
 70
     1
102
RTVSPropertyOp1
 70
     1
102
RTVSPropertyOp2
 70
     1
102
RTVSPropertyOp3
 70
     1
102
RTVSPropertyOp4
 70
     1
102
RTVSPropertyOp5
 70
     1
102
RTVSPropertyOp6
 70
     1
102
RTVSPropertyOp7
 70
     1
102
RTVSPropertyOp8
 70
     1
102
RTVSPropertyOp9
 70
     1
102
RTVSPropertyOp10
 70
     1
102
RTVSPropertyOp11
 70
     1
102
RTVSPropertyOp12
 70
     1
102
RTVSPropertyOp13
 70
     1
102
RTVSPropertyOp14
 70
     1
102
RTVSPropertyOp15
 70
     1
102
RTVSPropertyOp16
 70
     1
102
RTVSPropertyOp17
 70
     1
102
RTVSPropertyOp18
 70
     1
102
RTVSPropertyOp19
 70
     1
102
RTVSPropertyOp20
 70
     1
102
RTVSPropertyOp21
 70
     1
102
RTVSPropertyOp22
 70
     1
102
RTVSPropertyOp23
 70
     1
102
RTVSPropertyOp24
 70
     1
102
RTVSPropertyOp25
 70
     1
102
RTVSPropertyOp26
 70
     1
102
RTVSPropertyOp27
 70
     1
102
RTVSPropertyOp28
 70
     1
102
RTVSPropertyOp29
 70
     1
102
RTVSPropertyOp30
 70
     1
102
RTVSPropertyOp31
 70
     1
102
RTVSPropertyOp32
 70
     1
  0
XRECORD
  5
821
102
{ACAD_REACTORS
330
820
102
}
330
820
100
AcDbXrecord
280
     1
102
RTVSPropertyOp0
 70
     0
102
RTVSPropertyOp1
 70
     0
102
RTVSPropertyOp2
 70
     0
102
RTVSPropertyOp3
 70
     0
102
RTVSPropertyOp4
 70
     0
102
RTVSPropertyOp5
 70
     0
102
RTVSPropertyOp6
 70
     0
102
RTVSPropertyOp7
 70
     0
102
RTVSPropertyOp8
 70
     0
102
RTVSPropertyOp9
 70
     0
102
RTVSPropertyOp10
 70
     0
102
RTVSPropertyOp11
 70
     0
102
RTVSPropertyOp12
 70
     0
102
RTVSPropertyOp13
 70
     0
102
RTVSPropertyOp14
 70
     2
102
RTVSPropertyOp15
 70
     0
102
RTVSPropertyOp16
 70
     0
102
RTVSPropertyOp17
 70
     0
102
RTVSPropertyOp18
 70
     0
102
RTVSPropertyOp19
 70
     0
102
RTVSPropertyOp20
 70
     0
102
RTVSPropertyOp21
 70
     0
102
RTVSPropertyOp22
 70
     0
102
RTVSPropertyOp23
 70
     0
102
RTVSPropertyOp24
 70
     0
102
RTVSPropertyOp25
 70
     0
102
RTVSPropertyOp26
 70
     0
102
RTVSPropertyOp27
 70
     0
102
RTVSPropertyOp28
 70
     0
102
RTVSPropertyOp29
 70
     0
102
RTVSPropertyOp30
 70
     0
102
RTVSPropertyOp31
 70
     0
102
RTVSPropertyOp32
 70
     0
  0
XRECORD
  5
811
102
{ACAD_REACTORS
330
810
102
}
330
810
100
AcDbXrecord
280
     1
102
RTVSPropertyOp0
 70
     1
102
RTVSPropertyOp1
 70
     1
102
RTVSPropertyOp2
 70
     1
102
RTVSPropertyOp3
 70
     1
102
RTVSPropertyOp4
 70
     1
102
RTVSPropertyOp5
 70
     1
102
RTVSPropertyOp6
 70
     1
102
RTVSPropertyOp7
 70
     1
102
RTVSPropertyOp8
 70
     1
102
RTVSPropertyOp9
 70
     1
102
RTVSPropertyOp10
 70
     1
102
RTVSPropertyOp11
 70
     1
102
RTVSPropertyOp12
 70
     1
102
RTVSPropertyOp13
 70
     1
102
RTVSPropertyOp14
 70
     1
102
RTVSPropertyOp15
 70
     1
102
RTVSPropertyOp16
 70
     1
102
RTVSPropertyOp17
 70
     1
102
RTVSPropertyOp18
 70
     1
102
RTVSPropertyOp19
 70
     1
102
RTVSPropertyOp20
 70
     1
102
RTVSPropertyOp21
 70
     1
102
RTVSPropertyOp22
 70
     1
102
RTVSPropertyOp23
 70
     1
102
RTVSPropertyOp24
 70
     1
102
RTVSPropertyOp25
 70
     1
102
RTVSPropertyOp26
 70
     1
102
RTVSPropertyOp27
 70
     1
102
RTVSPropertyOp28
 70
     1
102
RTVSPropertyOp29
 70
     1
102
RTVSPropertyOp30
 70
     1
102
RTVSPropertyOp31
 70
     1
102
RTVSPropertyOp32
 70
     1
  0
XRECORD
  5
823
102
{ACAD_REACTORS
330
822
102
}
330
822
100
AcDbXrecord
280
     1
102
RTVSPropertyOp0
 70
     0
102
RTVSPropertyOp1
 70
     0
102
RTVSPropertyOp2
 70
     0
102
RTVSPropertyOp3
 70
     0
102
RTVSPropertyOp4
 70
     0
102
RTVSPropertyOp5
 70
     0
102
RTVSPropertyOp6
 70
     0
102
RTVSPropertyOp7
 70
     0
102
RTVSPropertyOp8
 70
     0
102
RTVSPropertyOp9
 70
     0
102
RTVSPropertyOp10
 70
     0
102
RTVSPropertyOp11
 70
     0
102
RTVSPropertyOp12
 70
     0
102
RTVSPropertyOp13
 70
     0
102
RTVSPropertyOp14
 70
     2
102
RTVSPropertyOp15
 70
     0
102
RTVSPropertyOp16
 70
     0
102
RTVSPropertyOp17
 70
     0
102
RTVSPropertyOp18
 70
     0
102
RTVSPropertyOp19
 70
     0
102
RTVSPropertyOp20
 70
     0
102
RTVSPropertyOp21
 70
     0
102
RTVSPropertyOp22
 70
     0
102
RTVSPropertyOp23
 70
     0
102
RTVSPropertyOp24
 70
     0
102
RTVSPropertyOp25
 70
     0
102
RTVSPropertyOp26
 70
     0
102
RTVSPropertyOp27
 70
     0
102
RTVSPropertyOp28
 70
     0
102
RTVSPropertyOp29
 70
     0
102
RTVSPropertyOp30
 70
     0
102
RTVSPropertyOp31
 70
     0
102
RTVSPropertyOp32
 70
     0
  0
XRECORD
  5
809
102
{ACAD_REACTORS
330
808
102
}
330
808
100
AcDbXrecord
280
     1
102
RTVSPropertyOp0
 70
     1
102
RTVSPropertyOp1
 70
     1
102
RTVSPropertyOp2
 70
     1
102
RTVSPropertyOp3
 70
     1
102
RTVSPropertyOp4
 70
     1
102
RTVSPropertyOp5
 70
     1
102
RTVSPropertyOp6
 70
     1
102
RTVSPropertyOp7
 70
     1
102
RTVSPropertyOp8
 70
     1
102
RTVSPropertyOp9
 70
     1
102
RTVSPropertyOp10
 70
     1
102
RTVSPropertyOp11
 70
     1
102
RTVSPropertyOp12
 70
     1
102
RTVSPropertyOp13
 70
     1
102
RTVSPropertyOp14
 70
     1
102
RTVSPropertyOp15
 70
     1
102
RTVSPropertyOp16
 70
     1
102
RTVSPropertyOp17
 70
     1
102
RTVSPropertyOp18
 70
     1
102
RTVSPropertyOp19
 70
     1
102
RTVSPropertyOp20
 70
     1
102
RTVSPropertyOp21
 70
     1
102
RTVSPropertyOp22
 70
     1
102
RTVSPropertyOp23
 70
     1
102
RTVSPropertyOp24
 70
     1
102
RTVSPropertyOp25
 70
     1
102
RTVSPropertyOp26
 70
     1
102
RTVSPropertyOp27
 70
     1
102
RTVSPropertyOp28
 70
     1
102
RTVSPropertyOp29
 70
     1
102
RTVSPropertyOp30
 70
     1
102
RTVSPropertyOp31
 70
     1
102
RTVSPropertyOp32
 70
     1
  0
XRECORD
  5
81F
102
{ACAD_REACTORS
330
81E
102
}
330
81E
100
AcDbXrecord
280
     1
102
RTVSPropertyOp0
 70
     1
102
RTVSPropertyOp1
 70
     1
102
RTVSPropertyOp2
 70
     1
102
RTVSPropertyOp3
 70
     1
102
RTVSPropertyOp4
 70
     1
102
RTVSPropertyOp5
 70
     1
102
RTVSPropertyOp6
 70
     1
102
RTVSPropertyOp7
 70
     1
102
RTVSPropertyOp8
 70
     1
102
RTVSPropertyOp9
 70
     1
102
RTVSPropertyOp10
 70
     1
102
RTVSPropertyOp11
 70
     1
102
RTVSPropertyOp12
 70
     1
102
RTVSPropertyOp13
 70
     1
102
RTVSPropertyOp14
 70
     1
102
RTVSPropertyOp15
 70
     1
102
RTVSPropertyOp16
 70
     1
102
RTVSPropertyOp17
 70
     1
102
RTVSPropertyOp18
 70
     1
102
RTVSPropertyOp19
 70
     1
102
RTVSPropertyOp20
 70
     1
102
RTVSPropertyOp21
 70
     1
102
RTVSPropertyOp22
 70
     1
102
RTVSPropertyOp23
 70
     1
102
RTVSPropertyOp24
 70
     1
102
RTVSPropertyOp25
 70
     1
102
RTVSPropertyOp26
 70
     1
102
RTVSPropertyOp27
 70
     1
102
RTVSPropertyOp28
 70
     1
102
RTVSPropertyOp29
 70
     1
102
RTVSPropertyOp30
 70
     1
102
RTVSPropertyOp31
 70
     1
102
RTVSPropertyOp32
 70
     1
  0
XRECORD
  5
81D
102
{ACAD_REACTORS
330
81C
102
}
330
81C
100
AcDbXrecord
280
     1
102
RTVSPropertyOp0
 70
     1
102
RTVSPropertyOp1
 70
     1
102
RTVSPropertyOp2
 70
     1
102
RTVSPropertyOp3
 70
     1
102
RTVSPropertyOp4
 70
     1
102
RTVSPropertyOp5
 70
     1
102
RTVSPropertyOp6
 70
     1
102
RTVSPropertyOp7
 70
     1
102
RTVSPropertyOp8
 70
     1
102
RTVSPropertyOp9
 70
     1
102
RTVSPropertyOp10
 70
     1
102
RTVSPropertyOp11
 70
     1
102
RTVSPropertyOp12
 70
     1
102
RTVSPropertyOp13
 70
     1
102
RTVSPropertyOp14
 70
     1
102
RTVSPropertyOp15
 70
     1
102
RTVSPropertyOp16
 70
     1
102
RTVSPropertyOp17
 70
     1
102
RTVSPropertyOp18
 70
     1
102
RTVSPropertyOp19
 70
     1
102
RTVSPropertyOp20
 70
     1
102
RTVSPropertyOp21
 70
     1
102
RTVSPropertyOp22
 70
     1
102
RTVSPropertyOp23
 70
     1
102
RTVSPropertyOp24
 70
     1
102
RTVSPropertyOp25
 70
     1
102
RTVSPropertyOp26
 70
     1
102
RTVSPropertyOp27
 70
     1
102
RTVSPropertyOp28
 70
     1
102
RTVSPropertyOp29
 70
     1
102
RTVSPropertyOp30
 70
     1
102
RTVSPropertyOp31
 70
     1
102
RTVSPropertyOp32
 70
     1
  0
XRECORD
  5
817
102
{ACAD_REACTORS
330
816
102
}
330
816
100
AcDbXrecord
280
     1
102
RTVSPropertyOp0
 70
     1
102
RTVSPropertyOp1
 70
     1
102
RTVSPropertyOp2
 70
     1
102
RTVSPropertyOp3
 70
     1
102
RTVSPropertyOp4
 70
     1
102
RTVSPropertyOp5
 70
     1
102
RTVSPropertyOp6
 70
     1
102
RTVSPropertyOp7
 70
     1
102
RTVSPropertyOp8
 70
     1
102
RTVSPropertyOp9
 70
     1
102
RTVSPropertyOp10
 70
     1
102
RTVSPropertyOp11
 70
     1
102
RTVSPropertyOp12
 70
     1
102
RTVSPropertyOp13
 70
     1
102
RTVSPropertyOp14
 70
     1
102
RTVSPropertyOp15
 70
     1
102
RTVSPropertyOp16
 70
     1
102
RTVSPropertyOp17
 70
     1
102
RTVSPropertyOp18
 70
     1
102
RTVSPropertyOp19
 70
     1
102
RTVSPropertyOp20
 70
     1
102
RTVSPropertyOp21
 70
     1
102
RTVSPropertyOp22
 70
     1
102
RTVSPropertyOp23
 70
     1
102
RTVSPropertyOp24
 70
     1
102
RTVSPropertyOp25
 70
     1
102
RTVSPropertyOp26
 70
     1
102
RTVSPropertyOp27
 70
     1
102
RTVSPropertyOp28
 70
     1
102
RTVSPropertyOp29
 70
     1
102
RTVSPropertyOp30
 70
     1
102
RTVSPropertyOp31
 70
     1
102
RTVSPropertyOp32
 70
     1
  0
XRECORD
  5
819
102
{ACAD_REACTORS
330
818
102
}
330
818
100
AcDbXrecord
280
     1
102
RTVSPropertyOp0
 70
     1
102
RTVSPropertyOp1
 70
     1
102
RTVSPropertyOp2
 70
     1
102
RTVSPropertyOp3
 70
     1
102
RTVSPropertyOp4
 70
     1
102
RTVSPropertyOp5
 70
     1
102
RTVSPropertyOp6
 70
     1
102
RTVSPropertyOp7
 70
     1
102
RTVSPropertyOp8
 70
     1
102
RTVSPropertyOp9
 70
     1
102
RTVSPropertyOp10
 70
     1
102
RTVSPropertyOp11
 70
     1
102
RTVSPropertyOp12
 70
     1
102
RTVSPropertyOp13
 70
     1
102
RTVSPropertyOp14
 70
     1
102
RTVSPropertyOp15
 70
     1
102
RTVSPropertyOp16
 70
     1
102
RTVSPropertyOp17
 70
     1
102
RTVSPropertyOp18
 70
     1
102
RTVSPropertyOp19
 70
     1
102
RTVSPropertyOp20
 70
     1
102
RTVSPropertyOp21
 70
     1
102
RTVSPropertyOp22
 70
     1
102
RTVSPropertyOp23
 70
     1
102
RTVSPropertyOp24
 70
     1
102
RTVSPropertyOp25
 70
     1
102
RTVSPropertyOp26
 70
     1
102
RTVSPropertyOp27
 70
     1
102
RTVSPropertyOp28
 70
     1
102
RTVSPropertyOp29
 70
     1
102
RTVSPropertyOp30
 70
     1
102
RTVSPropertyOp31
 70
     1
102
RTVSPropertyOp32
 70
     1
  0
XRECORD
  5
80F
102
{ACAD_REACTORS
330
80E
102
}
330
80E
100
AcDbXrecord
280
     1
102
RTVSPropertyOp0
 70
     1
102
RTVSPropertyOp1
 70
     1
102
RTVSPropertyOp2
 70
     1
102
RTVSPropertyOp3
 70
     1
102
RTVSPropertyOp4
 70
     1
102
RTVSPropertyOp5
 70
     1
102
RTVSPropertyOp6
 70
     1
102
RTVSPropertyOp7
 70
     1
102
RTVSPropertyOp8
 70
     1
102
RTVSPropertyOp9
 70
     1
102
RTVSPropertyOp10
 70
     1
102
RTVSPropertyOp11
 70
     1
102
RTVSPropertyOp12
 70
     1
102
RTVSPropertyOp13
 70
     1
102
RTVSPropertyOp14
 70
     1
102
RTVSPropertyOp15
 70
     1
102
RTVSPropertyOp16
 70
     1
102
RTVSPropertyOp17
 70
     1
102
RTVSPropertyOp18
 70
     1
102
RTVSPropertyOp19
 70
     1
102
RTVSPropertyOp20
 70
     1
102
RTVSPropertyOp21
 70
     1
102
RTVSPropertyOp22
 70
     1
102
RTVSPropertyOp23
 70
     1
102
RTVSPropertyOp24
 70
     1
102
RTVSPropertyOp25
 70
     1
102
RTVSPropertyOp26
 70
     1
102
RTVSPropertyOp27
 70
     1
102
RTVSPropertyOp28
 70
     1
102
RTVSPropertyOp29
 70
     1
102
RTVSPropertyOp30
 70
     1
102
RTVSPropertyOp31
 70
     1
102
RTVSPropertyOp32
 70
     1
  0
XRECORD
  5
803
102
{ACAD_REACTORS
330
802
102
}
330
802
100
AcDbXrecord
280
     1
102
RTVSPropertyOp0
 70
     1
102
RTVSPropertyOp1
 70
     1
102
RTVSPropertyOp2
 70
     1
102
RTVSPropertyOp3
 70
     1
102
RTVSPropertyOp4
 70
     1
102
RTVSPropertyOp5
 70
     1
102
RTVSPropertyOp6
 70
     1
102
RTVSPropertyOp7
 70
     1
102
RTVSPropertyOp8
 70
     1
102
RTVSPropertyOp9
 70
     1
102
RTVSPropertyOp10
 70
     1
102
RTVSPropertyOp11
 70
     1
102
RTVSPropertyOp12
 70
     1
102
RTVSPropertyOp13
 70
     1
102
RTVSPropertyOp14
 70
     1
102
RTVSPropertyOp15
 70
     1
102
RTVSPropertyOp16
 70
     1
102
RTVSPropertyOp17
 70
     1
102
RTVSPropertyOp18
 70
     1
102
RTVSPropertyOp19
 70
     1
102
RTVSPropertyOp20
 70
     1
102
RTVSPropertyOp21
 70
     1
102
RTVSPropertyOp22
 70
     1
102
RTVSPropertyOp23
 70
     1
102
RTVSPropertyOp24
 70
     1
102
RTVSPropertyOp25
 70
     1
102
RTVSPropertyOp26
 70
     1
102
RTVSPropertyOp27
 70
     1
102
RTVSPropertyOp28
 70
     1
102
RTVSPropertyOp29
 70
     1
102
RTVSPropertyOp30
 70
     1
102
RTVSPropertyOp31
 70
     1
102
RTVSPropertyOp32
 70
     1
  0
XRECORD
  5
81B
102
{ACAD_REACTORS
330
81A
102
}
330
81A
100
AcDbXrecord
280
     1
102
RTVSPropertyOp0
 70
     1
102
RTVSPropertyOp1
 70
     1
102
RTVSPropertyOp2
 70
     1
102
RTVSPropertyOp3
 70
     1
102
RTVSPropertyOp4
 70
     1
102
RTVSPropertyOp5
 70
     1
102
RTVSPropertyOp6
 70
     1
102
RTVSPropertyOp7
 70
     1
102
RTVSPropertyOp8
 70
     1
102
RTVSPropertyOp9
 70
     1
102
RTVSPropertyOp10
 70
     1
102
RTVSPropertyOp11
 70
     1
102
RTVSPropertyOp12
 70
     1
102
RTVSPropertyOp13
 70
     1
102
RTVSPropertyOp14
 70
     1
102
RTVSPropertyOp15
 70
     1
102
RTVSPropertyOp16
 70
     1
102
RTVSPropertyOp17
 70
     1
102
RTVSPropertyOp18
 70
     1
102
RTVSPropertyOp19
 70
     1
102
RTVSPropertyOp20
 70
     1
102
RTVSPropertyOp21
 70
     1
102
RTVSPropertyOp22
 70
     1
102
RTVSPropertyOp23
 70
     1
102
RTVSPropertyOp24
 70
     1
102
RTVSPropertyOp25
 70
     1
102
RTVSPropertyOp26
 70
     1
102
RTVSPropertyOp27
 70
     1
102
RTVSPropertyOp28
 70
     1
102
RTVSPropertyOp29
 70
     1
102
RTVSPropertyOp30
 70
     1
102
RTVSPropertyOp31
 70
     1
102
RTVSPropertyOp32
 70
     1
  0
ENDSEC
  0
EOF
