  0
SECTION
  2
HEADER
  9
$ACADVER
  1
AC1018
  9
$ACADMAINTVER
 70
   104
  9
$DWGCODEPAGE
  3
ANSI_932
  9
$TITLE
  1
ソケット
  9
$AUTHOR
  1
水田
  9
$LASTSAVEDBY
  1
user
  9
$CUSTOMPROPERTYTAG
  1
マネージャ
  9
$CUSTOMPROPERTY
  1

  9
$CUSTOMPROPERTYTAG
  1
会社
  9
$CUSTOMPROPERTY
  1

  9
$CUSTOMPROPERTYTAG
  1
カテゴリ
  9
$CUSTOMPROPERTY
  1

  9
$CUSTOMPROPERTYTAG
  1
部品番号
  9
$CUSTOMPROPERTY
  1
\U+03C66三方弁試作図面Ver500
  9
$CUSTOMPROPERTYTAG
  1
説明
  9
$CUSTOMPROPERTY
  1

  9
$CUSTOMPROPERTYTAG
  1
プロジェクト
  9
$CUSTOMPROPERTY
  1

  9
$CUSTOMPROPERTYTAG
  1
設計者
  9
$CUSTOMPROPERTY
  1
水田
  9
$CUSTOMPROPERTYTAG
  1
エンジニア
  9
$CUSTOMPROPERTY
  1

  9
$CUSTOMPROPERTYTAG
  1
責任者
  9
$CUSTOMPROPERTY
  1
mizuta
  9
$CUSTOMPROPERTYTAG
  1
コスト センター
  9
$CUSTOMPROPERTY
  1

  9
$CUSTOMPROPERTYTAG
  1
ベンダー
  9
$CUSTOMPROPERTY
  1

  9
$CUSTOMPROPERTYTAG
  1
ユーザ ステータス
  9
$CUSTOMPROPERTY
  1

  9
$CUSTOMPROPERTYTAG
  1
設計ステータス
  9
$CUSTOMPROPERTY
  1
作業中
  9
$CUSTOMPROPERTYTAG
  1
確認者
  9
$CUSTOMPROPERTY
  1
mizuta
  9
$CUSTOMPROPERTYTAG
  1
エンジニアリング承認者
  9
$CUSTOMPROPERTY
  1

  9
$CUSTOMPROPERTYTAG
  1
製造承認者
  9
$CUSTOMPROPERTY
  1

  9
$INSBASE
 10
0.0
 20
0.0
 30
0.0
  9
$EXTMIN
 10
96.82251085623001
 20
37.22016980221986
 30
-0.0015258207003583
  9
$EXTMAX
 10
240.6015022338852
 20
154.0062108521888
 30
0.0000000349246037
  9
$LIMMIN
 10
0.0
 20
0.0
  9
$LIMMAX
 10
420.0
 20
297.0
  9
$ORTHOMODE
 70
     0
  9
$REGENMODE
 70
     1
  9
$FILLMODE
 70
     1
  9
$QTEXTMODE
 70
     0
  9
$MIRRTEXT
 70
     0
  9
$LTSCALE
 40
1.0
  9
$ATTMODE
 70
     1
  9
$TEXTSIZE
 40
0.2
  9
$TRACEWID
 40
0.05
  9
$TEXTSTYLE
  7
Standard
  9
$CLAYER
  8
0
  9
$CELTYPE
  6
ByLayer
  9
$CECOLOR
 62
   256
  9
$CELTSCALE
 40
1.0
  9
$DISPSILH
 70
     0
  9
$DIMSCALE
 40
1.0
  9
$DIMASZ
 40
1.799999999999999
  9
$DIMEXO
 40
0.0625
  9
$DIMDLI
 40
0.38
  9
$DIMRND
 40
0.0
  9
$DIMDLE
 40
0.0
  9
$DIMEXE
 40
0.18
  9
$DIMTP
 40
0.0
  9
$DIMTM
 40
0.0
  9
$DIMTXT
 40
0.25
  9
$DIMCEN
 40
0.09
  9
$DIMTSZ
 40
0.0
  9
$DIMTOL
 70
     0
  9
$DIMLIM
 70
     0
  9
$DIMTIH
 70
     1
  9
$DIMTOH
 70
     1
  9
$DIMSE1
 70
     0
  9
$DIMSE2
 70
     0
  9
$DIMTAD
 70
     0
  9
$DIMZIN
 70
     0
  9
$DIMBLK
  1

  9
$DIMASO
 70
     1
  9
$DIMSHO
 70
     1
  9
$DIMPOST
  1

  9
$DIMAPOST
  1

  9
$DIMALT
 70
     0
  9
$DIMALTD
 70
     2
  9
$DIMALTF
 40
25.4
  9
$DIMLFAC
 40
1.0
  9
$DIMTOFL
 70
     0
  9
$DIMTVP
 40
0.0
  9
$DIMTIX
 70
     0
  9
$DIMSOXD
 70
     0
  9
$DIMSAH
 70
     0
  9
$DIMBLK1
  1

  9
$DIMBLK2
  1

  9
$DIMSTYLE
  2
Standard
  9
$DIMCLRD
 70
     0
  9
$DIMCLRE
 70
     0
  9
$DIMCLRT
 70
     0
  9
$DIMTFAC
 40
1.0
  9
$DIMGAP
 40
0.09
  9
$DIMJUST
 70
     0
  9
$DIMSD1
 70
     0
  9
$DIMSD2
 70
     0
  9
$DIMTOLJ
 70
     1
  9
$DIMTZIN
 70
     0
  9
$DIMALTZ
 70
     0
  9
$DIMALTTZ
 70
     0
  9
$DIMUPT
 70
     0
  9
$DIMDEC
 70
     4
  9
$DIMTDEC
 70
     4
  9
$DIMALTU
 70
     2
  9
$DIMALTTD
 70
     2
  9
$DIMTXSTY
  7
Standard
  9
$DIMAUNIT
 70
     0
  9
$DIMADEC
 70
     0
  9
$DIMALTRND
 40
0.0
  9
$DIMAZIN
 70
     0
  9
$DIMDSEP
 70
    46
  9
$DIMATFIT
 70
     3
  9
$DIMFRAC
 70
     0
  9
$DIMLDRBLK
  1

  9
$DIMLUNIT
 70
     2
  9
$DIMLWD
 70
    -2
  9
$DIMLWE
 70
    -2
  9
$DIMTMOVE
 70
     0
  9
$LUNITS
 70
     2
  9
$LUPREC
 70
     4
  9
$SKETCHINC
 40
0.1
  9
$FILLETRAD
 40
0.0
  9
$AUNITS
 70
     0
  9
$AUPREC
 70
     0
  9
$MENU
  1
.
  9
$ELEVATION
 40
0.0
  9
$PELEVATION
 40
0.0
  9
$THICKNESS
 40
0.0
  9
$LIMCHECK
 70
     0
  9
$CHAMFERA
 40
0.0
  9
$CHAMFERB
 40
0.0
  9
$CHAMFERC
 40
0.0
  9
$CHAMFERD
 40
0.0
  9
$SKPOLY
 70
     0
  9
$TDCREATE
 40
2456687.485929016
  9
$TDUCREATE
 40
2456687.110929016
  9
$TDUPDATE
 40
2456687.504803831
  9
$TDUUPDATE
 40
2456687.129803831
  9
$TDINDWG
 40
0.0015016551
  9
$TDUSRTIMER
 40
0.0015016088
  9
$USRTIMER
 70
     1
  9
$ANGBASE
 50
0.0
  9
$ANGDIR
 70
     0
  9
$PDMODE
 70
     0
  9
$PDSIZE
 40
0.0
  9
$PLINEWID
 40
0.0
  9
$SPLFRAME
 70
     0
  9
$SPLINETYPE
 70
     6
  9
$SPLINESEGS
 70
     8
  9
$HANDSEED
  5
6EB
  9
$SURFTAB1
 70
     6
  9
$SURFTAB2
 70
     6
  9
$SURFTYPE
 70
     6
  9
$SURFU
 70
     6
  9
$SURFV
 70
     6
  9
$UCSBASE
  2

  9
$UCSNAME
  2

  9
$UCSORG
 10
0.0
 20
0.0
 30
0.0
  9
$UCSXDIR
 10
1.0
 20
0.0
 30
0.0
  9
$UCSYDIR
 10
0.0
 20
1.0
 30
0.0
  9
$UCSORTHOREF
  2

  9
$UCSORTHOVIEW
 70
     0
  9
$UCSORGTOP
 10
0.0
 20
0.0
 30
0.0
  9
$UCSORGBOTTOM
 10
0.0
 20
0.0
 30
0.0
  9
$UCSORGLEFT
 10
0.0
 20
0.0
 30
0.0
  9
$UCSORGRIGHT
 10
0.0
 20
0.0
 30
0.0
  9
$UCSORGFRONT
 10
0.0
 20
0.0
 30
0.0
  9
$UCSORGBACK
 10
0.0
 20
0.0
 30
0.0
  9
$PUCSBASE
  2

  9
$PUCSNAME
  2

  9
$PUCSORG
 10
0.0
 20
0.0
 30
0.0
  9
$PUCSXDIR
 10
1.0
 20
0.0
 30
0.0
  9
$PUCSYDIR
 10
0.0
 20
1.0
 30
0.0
  9
$PUCSORTHOREF
  2

  9
$PUCSORTHOVIEW
 70
     0
  9
$PUCSORGTOP
 10
0.0
 20
0.0
 30
0.0
  9
$PUCSORGBOTTOM
 10
0.0
 20
0.0
 30
0.0
  9
$PUCSORGLEFT
 10
0.0
 20
0.0
 30
0.0
  9
$PUCSORGRIGHT
 10
0.0
 20
0.0
 30
0.0
  9
$PUCSORGFRONT
 10
0.0
 20
0.0
 30
0.0
  9
$PUCSORGBACK
 10
0.0
 20
0.0
 30
0.0
  9
$USERI1
 70
     0
  9
$USERI2
 70
     0
  9
$USERI3
 70
     0
  9
$USERI4
 70
     0
  9
$USERI5
 70
     0
  9
$USERR1
 40
0.0
  9
$USERR2
 40
0.0
  9
$USERR3
 40
0.0
  9
$USERR4
 40
0.0
  9
$USERR5
 40
0.0
  9
$WORLDVIEW
 70
     1
  9
$SHADEDGE
 70
     3
  9
$SHADEDIF
 70
    70
  9
$TILEMODE
 70
     1
  9
$MAXACTVP
 70
    64
  9
$PINSBASE
 10
0.0
 20
0.0
 30
0.0
  9
$PLIMCHECK
 70
     0
  9
$PEXTMIN
 10
0.0
 20
0.0
 30
0.0
  9
$PEXTMAX
 10
420.0
 20
297.0
 30
0.0
  9
$PLIMMIN
 10
0.0
 20
0.0
  9
$PLIMMAX
 10
420.0
 20
297.0
  9
$UNITMODE
 70
     0
  9
$VISRETAIN
 70
     1
  9
$PLINEGEN
 70
     0
  9
$PSLTSCALE
 70
     1
  9
$TREEDEPTH
 70
  3020
  9
$CMLSTYLE
  2
Standard
  9
$CMLJUST
 70
     0
  9
$CMLSCALE
 40
1.0
  9
$PROXYGRAPHICS
 70
     1
  9
$MEASUREMENT
 70
     1
  9
$CELWEIGHT
370
    -1
  9
$ENDCAPS
280
     0
  9
$JOINSTYLE
280
     0
  9
$LWDISPLAY
290
     0
  9
$INSUNITS
 70
     4
  9
$HYPERLINKBASE
  1

  9
$STYLESHEET
  1

  9
$XEDIT
290
     1
  9
$CEPSNTYPE
380
     0
  9
$PSTYLEMODE
290
     1
  9
$FINGERPRINTGUID
  2
{FC884411-3F56-4F94-8C0F-F1A4F2025979}
  9
$VERSIONGUID
  2
{35C21ABC-5055-4E7E-A149-2888F1F07DEA}
  9
$EXTNAMES
290
     1
  9
$PSVPSCALE
 40
0.0
  9
$OLESTARTUP
290
     0
  9
$SORTENTS
280
   127
  9
$INDEXCTL
280
     0
  9
$HIDETEXT
280
     1
  9
$XCLIPFRAME
290
     0
  9
$HALOGAP
280
     0
  9
$OBSCOLOR
 70
   257
  9
$OBSLTYPE
280
     0
  9
$INTERSECTIONDISPLAY
280
     0
  9
$INTERSECTIONCOLOR
 70
   257
  9
$DIMASSOC
280
     1
  9
$PROJECTNAME
  1

  0
ENDSEC
  0
SECTION
  2
CLASSES
  0
CLASS
  1
ACDBDICTIONARYWDFLT
  2
AcDbDictionaryWithDefault
  3
ObjectDBX Classes
 90
        0
 91
        1
280
     0
281
     0
  0
CLASS
  1
MATERIAL
  2
AcDbMaterial
  3
ObjectDBX Classes
 90
     1153
 91
        3
280
     0
281
     0
  0
CLASS
  1
VISUALSTYLE
  2
AcDbVisualStyle
  3
ObjectDBX Classes
 90
     4095
 91
       24
280
     0
281
     0
  0
CLASS
  1
SCALE
  2
AcDbScale
  3
ObjectDBX Classes
 90
     1153
 91
       17
280
     0
281
     0
  0
CLASS
  1
TABLESTYLE
  2
AcDbTableStyle
  3
ObjectDBX Classes
 90
     4095
 91
        1
280
     0
281
     0
  0
CLASS
  1
MLEADERSTYLE
  2
AcDbMLeaderStyle
  3
ACDB_MLEADERSTYLE_CLASS
 90
     4095
 91
        1
280
     0
281
     0
  0
CLASS
  1
DICTIONARYVAR
  2
AcDbDictionaryVar
  3
ObjectDBX Classes
 90
        0
 91
        9
280
     0
281
     0
  0
CLASS
  1
CELLSTYLEMAP
  2
AcDbCellStyleMap
  3
ObjectDBX Classes
 90
     1152
 91
        2
280
     0
281
     0
  0
CLASS
  1
AMGSETTINGSOBJ
  2
AmgSettingsObj
  3
"AcadM|Product Description: AutoCAD Mechanical|Company: Autodesk, Inc."
 90
     1024
 91
        2
280
     0
281
     0
  0
CLASS
  1
AMGOBJPROPCFG
  2
AmgObjPropCfg
  3
"AmgLay|Product Description: AutoCAD Mechanical|Company: Autodesk, Inc."
 90
     1025
 91
        2
280
     0
281
     0
  0
CLASS
  1
ACMESCOPE
  2
AcMeScope
  3
AcMeServices
 90
     1024
 91
        1
280
     0
281
     0
  0
CLASS
  1
ACGREFMASTER
  2
AcGrefMaster
  3
AcAttribServices
 90
     1024
 91
        1
280
     0
281
     0
  0
CLASS
  1
ACME_DOCUMENT
  2
AcMeDbDoc
  3
AcMeServices
 90
     1024
 91
        1
280
     0
281
     0
  0
CLASS
  1
ACMECOMMANDHISTORY
  2
AcMeCommandHistory
  3
AcMeServices
 90
     1024
 91
        1
280
     0
281
     0
  0
CLASS
  1
ACIMSYSVARMAN
  2
AcImSysVarManager
  3
AcMeServices
 90
     1024
 91
        4
280
     0
281
     0
  0
CLASS
  1
ACIMINTSYSVAR
  2
AcImIntSysVar
  3
AcMeServices
 90
     1024
 91
       27
280
     0
281
     0
  0
CLASS
  1
ACMESTATEMGR
  2
AcMeStateMgr
  3
AcMeServices
 90
     1024
 91
        1
280
     0
281
     0
  0
CLASS
  1
ACDBENTITYCACHE
  2
AcMeEntityCache
  3
AcMeServices
 90
     1024
 91
        1
280
     0
281
     0
  0
CLASS
  1
AM_DRAWING_MGR
  2
AcDmDwgMgr
  3
AcMechDwgViewMgmt
 90
     1024
 91
        1
280
     0
281
     0
  0
CLASS
  1
AM_DWG_DOCUMENT
  2
AcDmDwgDocument
  3
AcMechDwgViewMgmt
 90
     1024
 91
        1
280
     0
281
     0
  0
CLASS
  1
AM_DWG_SHEET
  2
AcDmSheet
  3
AcMechDwgViewMgmt
 90
     1024
 91
        2
280
     0
281
     0
  0
CLASS
  1
AM_VIEWDIMPARMAP
  2
AcDmViewDimParMap
  3
AcMechDwgViewMgmt
 90
     1024
 91
        2
280
     0
281
     0
  0
CLASS
  1
AMDTINTERNALREACTOR
  2
AmdtInternalReactor
  3
AcMeServices
 90
     1024
 91
        1
280
     0
281
     0
  0
CLASS
  1
ACIMREALSYSVAR
  2
AcImRealSysVar
  3
AcMeServices
 90
     1024
 91
        1
280
     0
281
     0
  0
CLASS
  1
AM_DWGMGR_NAME
  2
AcDmDwgMgrName
  3
AcMechDwgViewMgmt
 90
     1024
 91
        1
280
     0
281
     0
  0
CLASS
  1
ACME_DATABASE
  2
AcMeDbDatabase
  3
AcMeServices
 90
     1024
 91
        1
280
     0
281
     0
  0
CLASS
  1
ACRFINSADJUSTERMGR
  2
AcRfInsAdjusterMgr
  3
AcMeServices
 90
     1024
 91
        1
280
     0
281
     0
  0
CLASS
  1
ACGREFACADMASTER
  2
AcGrefacadMaster
  3
AcGrefServices
 90
     1024
 91
        1
280
     0
281
     0
  0
CLASS
  1
AMDTMENUSTATEMGR
  2
AmdtMenuStateMgr
  3
McadcomServices
 90
     1024
 91
        1
280
     0
281
     0
  0
CLASS
  1
AMDTMCOMMENUSTATE
  2
AmdtMcomMenuState
  3
McadcomServices
 90
     1024
 91
        1
280
     0
281
     0
  0
CLASS
  1
AMIMASTER
  2
AmiMaster
  3
AmiServices
 90
     1024
 91
        1
280
     0
281
     0
  0
CLASS
  1
MAPIAMMOUDLE
  2
MApiAmModule
  3
MApiAmServices
 90
     1024
 91
        1
280
     0
281
     0
  0
CLASS
  1
ACMSTANDARDANSI
  2
AcmStandardANSI
  3
"Amdt_StdImp|Product Description: AutoCAD Mechanical|Company: Autodesk, Inc."
 90
     1024
 91
        1
280
     0
281
     0
  0
CLASS
  1
ACMSURFSTANDARDANSI
  2
AcmSurfTextStdANSI
  3
"Amdt_StdImp|Product Description: AutoCAD Mechanical|Company: Autodesk, Inc."
 90
     1024
 91
        1
280
     0
281
     0
  0
CLASS
  1
ACMFCFSTANDARDANSI
  2
AcmFCFStdANSI
  3
"Amdt_StdImp|Product Description: AutoCAD Mechanical|Company: Autodesk, Inc."
 90
     1024
 91
        1
280
     0
281
     0
  0
CLASS
  1
ACMWELDSTANDARDANSI
  2
AcmWeldingStdANSI
  3
"Amdt_StdImp|Product Description: AutoCAD Mechanical|Company: Autodesk, Inc."
 90
     1024
 91
        1
280
     0
281
     0
  0
CLASS
  1
ACMIDSTANDARDANSI
  2
AcmIdStdANSI
  3
"Amdt_StdImp|Product Description: AutoCAD Mechanical|Company: Autodesk, Inc."
 90
     1024
 91
        1
280
     0
281
     0
  0
CLASS
  1
ACMDATUMSTANDARDANSI
  2
AcmDatumStdANSI
  3
"Amdt_StdImp|Product Description: AutoCAD Mechanical|Company: Autodesk, Inc."
 90
     1024
 91
        1
280
     0
281
     0
  0
CLASS
  1
ACMBOMSTANDARDANSI
  2
AcmBOMStdANSI
  3
"Amdt_StdImp|Product Description: AutoCAD Mechanical|Company: Autodesk, Inc."
 90
     1024
 91
        1
280
     0
281
     0
  0
CLASS
  1
ACMDETAILSTANDARDANSI
  2
AmdtDetailSymStdANSI
  3
"Amdt_StdImp|Product Description: AutoCAD Mechanical|Company: Autodesk, Inc."
 90
     1024
 91
        1
280
     0
281
     0
  0
CLASS
  1
ACMSECTIONSTANDARDANSI
  2
AmdtSectionSymStdANSI
  3
"Amdt_StdImp|Product Description: AutoCAD Mechanical|Company: Autodesk, Inc."
 90
     1024
 91
        1
280
     0
281
     0
  0
CLASS
  1
ACMCENTERLINESTANDARDANSI
  2
AmdtCenterLineStdANSI
  3
"Amdt_StdImp|Product Description: AutoCAD Mechanical|Company: Autodesk, Inc."
 90
     1024
 91
        1
280
     0
281
     0
  0
CLASS
  1
ACMNOTESTANDARDANSI
  2
AmdtNoteStdANSI
  3
"Amdt_StdImp|Product Description: AutoCAD Mechanical|Company: Autodesk, Inc."
 90
     1024
 91
        1
280
     0
281
     0
  0
CLASS
  1
ACAMGLAYSTD
  2
AcAmgLayStd
  3
"AmgLay|Product Description: AutoCAD Mechanical|Company: Autodesk, Inc."
 90
     1024
 91
        2
280
     0
281
     0
  0
CLASS
  1
ACAMGDIMSTD
  2
AcAmgDimStd
  3
"AmgDim|Product Description: AutoCAD Mechanical|Company: Autodesk, Inc."
 90
     1024
 91
        2
280
     0
281
     0
  0
CLASS
  1
ACAMGHOLECHARTSTDANSI
  2
AcAmgHoleChartStdANSI
  3
AmgDim|Product Description: AutoCAD Mechanical|Company: Autodesk, Inc.
 90
     1024
 91
        1
280
     0
281
     0
  0
CLASS
  1
ACAMGTITLESTD
  2
AcAmgTitleStd
  3
"AmgTitle|Product Description: AutoCAD Mechanical|Company: Autodesk, Inc."
 90
     4095
 91
        2
280
     0
281
     0
  0
CLASS
  1
ACMTHREADLINESTANDARDANSI
  2
AmdtThreadLineStdANSI
  3
"Amdt_StdImp|Product Description: AutoCAD Mechanical|Company: Autodesk, Inc."
 90
     1024
 91
        1
280
     0
281
     0
  0
CLASS
  1
ACMTAPERSTANDARDANSI
  2
AcmTaperStdANSI
  3
"Amdt_StdImp|Product Description: AutoCAD Mechanical|Company: Autodesk, Inc."
 90
     1024
 91
        1
280
     0
281
     0
  0
CLASS
  1
ACMANOOTATIONVIEWSTANDARDANSI
  2
AmdtAnViewStdANSI
  3
"Amdt_StdImp|Product Description: AutoCAD Mechanical|Company: Autodesk, Inc."
 90
     1024
 91
        1
280
     0
281
     0
  0
CLASS
  1
ACMSTANDARDJIS
  2
AcmStandardJIS
  3
"Amdt_StdImp|Product Description: AutoCAD Mechanical|Company: Autodesk, Inc."
 90
     1024
 91
        1
280
     0
281
     0
  0
CLASS
  1
ACMSURFSTANDARDJIS
  2
AcmSurfTextStdJIS
  3
"Amdt_StdImp|Product Description: AutoCAD Mechanical|Company: Autodesk, Inc."
 90
     1024
 91
        1
280
     0
281
     0
  0
CLASS
  1
ACMFCFSTANDARDJIS98
  2
AcmFCFStdJIS98
  3
"Amdt_StdImp|Product Description: AutoCAD Mechanical|Company: Autodesk, Inc."
 90
     1024
 91
        1
280
     0
281
     0
  0
CLASS
  1
ACMWELDSTANDARDJIS
  2
AcmWeldingStdJIS
  3
"Amdt_StdImp|Product Description: AutoCAD Mechanical|Company: Autodesk, Inc."
 90
     1024
 91
        1
280
     0
281
     0
  0
CLASS
  1
ACMIDSTANDARDJIS
  2
AcmIdStdJIS
  3
"Amdt_StdImp|Product Description: AutoCAD Mechanical|Company: Autodesk, Inc."
 90
     1024
 91
        1
280
     0
281
     0
  0
CLASS
  1
ACMDATUMSTANDARDJIS
  2
AcmDatumStdJIS
  3
"Amdt_StdImp|Product Description: AutoCAD Mechanical|Company: Autodesk, Inc."
 90
     1024
 91
        1
280
     0
281
     0
  0
CLASS
  1
ACMBOMSTANDARDJIS
  2
AcmBOMStdJIS
  3
"Amdt_StdImp|Product Description: AutoCAD Mechanical|Company: Autodesk, Inc."
 90
     1024
 91
        1
280
     0
281
     0
  0
CLASS
  1
ACMDETAILSTANDARDJIS
  2
AmdtDetailSymStdJIS
  3
"Amdt_StdImp|Product Description: AutoCAD Mechanical|Company: Autodesk, Inc."
 90
     1024
 91
        1
280
     0
281
     0
  0
CLASS
  1
ACMSECTIONSTANDARDJIS
  2
AmdtSectionSymStdJIS
  3
"Amdt_StdImp|Product Description: AutoCAD Mechanical|Company: Autodesk, Inc."
 90
     1024
 91
        1
280
     0
281
     0
  0
CLASS
  1
ACMCENTERLINESTANDARDJIS
  2
AmdtCenterLineStdJIS
  3
"Amdt_StdImp|Product Description: AutoCAD Mechanical|Company: Autodesk, Inc."
 90
     1024
 91
        1
280
     0
281
     0
  0
CLASS
  1
ACMNOTESTANDARDJIS
  2
AmdtNoteStdJIS
  3
"Amdt_StdImp|Product Description: AutoCAD Mechanical|Company: Autodesk, Inc."
 90
     1024
 91
        1
280
     0
281
     0
  0
CLASS
  1
AMDTNOTETEMPLATEDB
  2
AmdtNoteTemplateDB
  3
AcmSymBB|Product Description: AutoCAD Mechanical|Company: Autodesk, Inc.
 90
     1024
 91
        8
280
     0
281
     0
  0
CLASS
  1
ACAMGHOLECHARTSTDJIS
  2
AcAmgHoleChartStdJIS
  3
AmgDim|Product Description: AutoCAD Mechanical|Company: Autodesk, Inc.
 90
     1024
 91
        1
280
     0
281
     0
  0
CLASS
  1
ACMTHREADLINESTANDARDJIS
  2
AmdtThreadLineStdJIS
  3
"Amdt_StdImp|Product Description: AutoCAD Mechanical|Company: Autodesk, Inc."
 90
     1024
 91
        1
280
     0
281
     0
  0
CLASS
  1
ACMTAPERSTANDARDJIS
  2
AcmTaperStdJIS
  3
"Amdt_StdImp|Product Description: AutoCAD Mechanical|Company: Autodesk, Inc."
 90
     1024
 91
        1
280
     0
281
     0
  0
CLASS
  1
ACMANOOTATIONVIEWSTANDARDJIS
  2
AmdtAnViewStdJIS
  3
"Amdt_StdImp|Product Description: AutoCAD Mechanical|Company: Autodesk, Inc."
 90
     1024
 91
        1
280
     0
281
     0
  0
CLASS
  1
AMDTEDGESTANDARDJIS
  2
AmdtEdgeStdJIS
  3
"Amdt_StdImp|Product Description: AutoCAD Mechanical|Company: Autodesk, Inc."
 90
     1024
 91
        1
280
     0
281
     0
  0
CLASS
  1
ACIMSTRSYSVAR
  2
AcImStrSysVar
  3
AcMeServices
 90
     1024
 91
        5
280
     0
281
     0
  0
CLASS
  1
AMDTDMMENUSTATE
  2
AmdtDmMenuState
  3
AcMechDwgViewMgmt
 90
     1024
 91
        1
280
     0
281
     0
  0
CLASS
  1
AMDTAMMENUSTATE
  2
AmdtAmMenuState
  3
DesignerAssemblies
 90
     1024
 91
        1
280
     0
281
     0
  0
CLASS
  1
ACAMPROJECT
  2
AcAmProject
  3
DesignerAssemblies
 90
     1024
 91
        1
280
     0
281
     0
  0
CLASS
  1
ACAMGRCOMPDEF
  2
AcAmGrCompDef
  3
DesignerAssemblies
 90
     1024
 91
        1
280
     0
281
     0
  0
CLASS
  1
ACAMCOMPDEF
  2
AcAmCompDef
  3
DesignerAssemblies
 90
     1024
 91
        1
280
     0
281
     0
  0
CLASS
  1
ACAMCOMPDEFMGR
  2
AcAmCompDefMgr
  3
DesignerAssemblies
 90
     1024
 91
        1
280
     0
281
     0
  0
CLASS
  1
AMCONTEXTMGR
  2
AcAmContextMgr
  3
DesignerAssemblies
 90
     1024
 91
        1
280
     0
281
     0
  0
CLASS
  1
ACAMCONTEXTMODELER
  2
AcAmContextModeler
  3
DesignerAssemblies
 90
     1024
 91
        1
280
     0
281
     0
  0
CLASS
  1
ACMDATADICTIONARY
  2
AcmDataDictionary
  3
"AcmSymBB|Product Description: AutoCAD Mechanical|Company: Autodesk, Inc."
 90
     1024
 91
        1
280
     0
281
     0
  0
CLASS
  1
ACAMGRCOMPDEFSET
  2
AcAmGrCompDefSet
  3
DesignerAssemblies
 90
     1024
 91
        1
280
     0
281
     0
  0
CLASS
  1
AMDTBROWSERDBTAB
  2
AmdtBrowserDbTab
  3
McadcomServices
 90
     1024
 91
        1
280
     0
281
     0
  0
CLASS
  1
CBROWSERAPPOBJECT
  2
CBrowserAppObject
  3
McadcomServices
 90
     1024
 91
        2
280
     0
281
     0
  0
CLASS
  1
DM_PLACEHOLDER
  2
AcDmSelsetPlaceholder
  3
AcMechDwgViewMgmt
 90
     1024
 91
        1
280
     0
281
     0
  0
CLASS
  1
ACAMGFILTERDAT
  2
AcAmgFilterDat
  3
"AcadM|Product Description: AutoCAD Mechanical|Company: Autodesk, Inc."
 90
     1024
 91
        6
280
     0
281
     0
  0
ENDSEC
  0
SECTION
  2
TABLES
  0
TABLE
  2
VPORT
  5
8
330
0
100
AcDbSymbolTable
 70
     1
  0
VPORT
  5
57
330
8
100
AcDbSymbolTableRecord
100
AcDbViewportTableRecord
  2
*Active
 70
     0
 10
0.0
 20
0.0
 11
1.0
 21
1.0
 12
168.7120065450576
 22
95.61319032720433
 13
0.0
 23
0.0
 14
1.0
 24
1.0
 15
0.0
 25
0.0
 16
0.0
 26
0.0
 36
1.0
 17
0.0
 27
0.0
 37
0.0
 40
117.6890259034481
 41
1.623225806451612
 42
50.0
 43
0.0
 44
0.0
 50
0.0
 51
0.0
 71
     0
 72
   100
 73
     1
 74
     1
 75
     0
 76
     0
 77
     0
 78
     0
281
     0
 65
     1
110
0.0
120
0.0
130
0.0
111
1.0
121
0.0
131
0.0
112
0.0
122
1.0
132
0.0
 79
     0
146
0.0
  0
ENDTAB
  0
TABLE
  2
LTYPE
  5
5
330
0
100
AcDbSymbolTable
 70
    70
  0
LTYPE
  5
5B
330
5
100
AcDbSymbolTableRecord
100
AcDbLinetypeTableRecord
  2
ByBlock
 70
     0
  3

 72
    65
 73
     0
 40
0.0
  0
LTYPE
  5
5C
330
5
100
AcDbSymbolTableRecord
100
AcDbLinetypeTableRecord
  2
ByLayer
 70
     0
  3

 72
    65
 73
     0
 40
0.0
  0
LTYPE
  5
5D
330
5
100
AcDbSymbolTableRecord
100
AcDbLinetypeTableRecord
  2
Continuous
 70
     0
  3
Solid line
 72
    65
 73
     0
 40
0.0
  0
LTYPE
  5
74
330
5
100
AcDbSymbolTableRecord
100
AcDbLinetypeTableRecord
  2
CHAIN
 70
     0
  3
Chain ____ _ ____ _ ____ _ ____ _ ____ _ ____
 72
    65
 73
     4
 40
0.3543
 49
0.2362
 74
     0
 49
-0.0295
 74
     0
 49
0.0591
 74
     0
 49
-0.0295
 74
     0
  0
LTYPE
  5
75
330
5
100
AcDbSymbolTableRecord
100
AcDbLinetypeTableRecord
  2
DASH_DOT
 70
     0
  3
Dash dot __ . __ . __ . __ . __ . __ . __ . __
 72
    65
 73
     4
 40
0.37
 49
0.24
 74
     0
 49
-0.06
 74
     0
 49
0.01
 74
     0
 49
-0.06
 74
     0
  0
LTYPE
  5
76
330
5
100
AcDbSymbolTableRecord
100
AcDbLinetypeTableRecord
  2
DASH_DOUBLE_DOT
 70
     0
  3
Dash Double-Dot __ . . __ . . __ . . __ . .
 72
    65
 73
     6
 40
0.4398000000000001
 49
0.24
 74
     0
 49
-0.06
 74
     0
 49
0.0098
 74
     0
 49
-0.06
 74
     0
 49
0.01
 74
     0
 49
-0.06
 74
     0
  0
LTYPE
  5
77
330
5
100
AcDbSymbolTableRecord
100
AcDbLinetypeTableRecord
  2
DASH_TRIPLE_DOT
 70
     0
  3
Dash Triple-Dot _ . . . _ . . . _ . . . _
 72
    65
 73
     8
 40
0.51
 49
0.24
 74
     0
 49
-0.06
 74
     0
 49
0.01
 74
     0
 49
-0.06
 74
     0
 49
0.01
 74
     0
 49
-0.06
 74
     0
 49
0.01
 74
     0
 49
-0.06
 74
     0
  0
LTYPE
  5
78
330
5
100
AcDbSymbolTableRecord
100
AcDbLinetypeTableRecord
  2
DASHED
 70
     0
  3
Dashed __ __ __ __ __ __ __ __ __ __ __ __ __ _
 72
    65
 73
     2
 40
0.2067
 49
0.1654
 74
     0
 49
-0.0413
 74
     0
  0
LTYPE
  5
79
330
5
100
AcDbSymbolTableRecord
100
AcDbLinetypeTableRecord
  2
DASHED_SPACE
 70
     0
  3
Dashed Space __ __ __ __ __ __ __ __ __ __ __ _
 72
    65
 73
     2
 40
0.0826
 49
0.0413
 74
     0
 49
-0.0413
 74
     0
  0
LTYPE
  5
7A
330
5
100
AcDbSymbolTableRecord
100
AcDbLinetypeTableRecord
  2
DOTTED
 70
     0
  3
Dotted . . . . . . . . . . . . . . . . . . . . 
 72
    65
 73
     2
 40
0.0482
 49
0.0069
 74
     0
 49
-0.0413
 74
     0
  0
LTYPE
  5
7B
330
5
100
AcDbSymbolTableRecord
100
AcDbLinetypeTableRecord
  2
DOUBLE_DASH_CHAIN
 70
     0
  3
Double Dash Chain ___ _ _ ___ _ _ ___ _ _ ___ _
 72
    65
 73
     6
 40
1.240299999999998
 49
0.6614
 74
     0
 49
-0.0827
 74
     0
 49
0.1654
 74
     0
 49
-0.0827
 74
     0
 49
0.1654
 74
     0
 49
-0.0827
 74
     0
  0
LTYPE
  5
7C
330
5
100
AcDbSymbolTableRecord
100
AcDbLinetypeTableRecord
  2
DOUBLE_DASH_DOT
 70
     0
  3
Double Dash Dot __ __ . __ __ . __ __ . __ _
 72
    65
 73
     6
 40
0.6700000000000001
 49
0.24
 74
     0
 49
-0.06
 74
     0
 49
0.24
 74
     0
 49
-0.06
 74
     0
 49
0.01
 74
     0
 49
-0.06
 74
     0
  0
LTYPE
  5
7D
330
5
100
AcDbSymbolTableRecord
100
AcDbLinetypeTableRecord
  2
DOUBLE_DASH_DOUBLE_DOT
 70
     0
  3
Double-dash double-dot _ _ . . _ _ . . _
 72
    65
 73
     8
 40
0.7400000000000002
 49
0.24
 74
     0
 49
-0.06
 74
     0
 49
0.24
 74
     0
 49
-0.06
 74
     0
 49
0.01
 74
     0
 49
-0.06
 74
     0
 49
0.01
 74
     0
 49
-0.06
 74
     0
  0
LTYPE
  5
7E
330
5
100
AcDbSymbolTableRecord
100
AcDbLinetypeTableRecord
  2
DOUBLE_DASH_TRIPLE_DOT
 70
     0
  3
Double Dash Triple Dot __ __ . . . __ __ . . .
 72
    65
 73
    10
 40
0.8100000000000001
 49
0.24
 74
     0
 49
-0.06
 74
     0
 49
0.24
 74
     0
 49
-0.06
 74
     0
 49
0.01
 74
     0
 49
-0.06
 74
     0
 49
0.01
 74
     0
 49
-0.06
 74
     0
 49
0.01
 74
     0
 49
-0.06
 74
     0
  0
LTYPE
  5
7F
330
5
100
AcDbSymbolTableRecord
100
AcDbLinetypeTableRecord
  2
LONG_DASH_DOTTED
 70
     0
  3
Long Dash Dotted ____ . ____ . ____ . ____ . _
 72
    65
 73
     4
 40
0.61
 49
0.48
 74
     0
 49
-0.06
 74
     0
 49
0.01
 74
     0
 49
-0.06
 74
     0
  0
LTYPE
  5
80
330
5
100
AcDbSymbolTableRecord
100
AcDbLinetypeTableRecord
  2
LONG_DASH_DOUBLE_DOT
 70
     0
  3
Long Dash Double Dot ____ . . ____ . . ____ . .
 72
    65
 73
     6
 40
0.3345
 49
0.2362
 74
     0
 49
-0.0295
 74
     0
 49
0.0049
 74
     0
 49
-0.0295
 74
     0
 49
0.0049
 74
     0
 49
-0.0295
 74
     0
  0
LTYPE
  5
81
330
5
100
AcDbSymbolTableRecord
100
AcDbLinetypeTableRecord
  2
LONG_DASH_TRIPLE_DOT
 70
     0
  3
Long Dash Triple Dot ____ ... ____ ... ____
 72
    65
 73
     8
 40
0.75
 49
0.48
 74
     0
 49
-0.06
 74
     0
 49
0.01
 74
     0
 49
-0.06
 74
     0
 49
0.01
 74
     0
 49
-0.06
 74
     0
 49
0.01
 74
     0
 49
-0.06
 74
     0
  0
LTYPE
  5
82
330
5
100
AcDbSymbolTableRecord
100
AcDbLinetypeTableRecord
  2
BORDER
 70
     0
  3
Border __ __ . __ __ . __ __ . __ __ . __ __ .
 72
    65
 73
     6
 40
44.45
 49
12.7
 74
     0
 49
-6.349999999999998
 74
     0
 49
12.7
 74
     0
 49
-6.349999999999998
 74
     0
 49
0.0
 74
     0
 49
-6.349999999999998
 74
     0
  0
LTYPE
  5
83
330
5
100
AcDbSymbolTableRecord
100
AcDbLinetypeTableRecord
  2
BORDER2
 70
     0
  3
Border (.5x) __.__.__.__.__.__.__.__.__.__.__.
 72
    65
 73
     6
 40
22.225
 49
6.349999999999998
 74
     0
 49
-3.174999999999998
 74
     0
 49
6.349999999999998
 74
     0
 49
-3.174999999999998
 74
     0
 49
0.0
 74
     0
 49
-3.174999999999998
 74
     0
  0
LTYPE
  5
84
330
5
100
AcDbSymbolTableRecord
100
AcDbLinetypeTableRecord
  2
BORDERX2
 70
     0
  3
Border (2x) ____  ____  .  ____  ____  .  ___
 72
    65
 73
     6
 40
88.9
 49
25.4
 74
     0
 49
-12.7
 74
     0
 49
25.4
 74
     0
 49
-12.7
 74
     0
 49
0.0
 74
     0
 49
-12.7
 74
     0
  0
LTYPE
  5
85
330
5
100
AcDbSymbolTableRecord
100
AcDbLinetypeTableRecord
  2
CENTER
 70
     0
  3
Center ____ _ ____ _ ____ _ ____ _ ____ _ ____
 72
    65
 73
     4
 40
2.0
 49
1.25
 74
     0
 49
-0.25
 74
     0
 49
0.25
 74
     0
 49
-0.25
 74
     0
  0
LTYPE
  5
86
330
5
100
AcDbSymbolTableRecord
100
AcDbLinetypeTableRecord
  2
CENTER2
 70
     0
  3
Center (.5x) ___ _ ___ _ ___ _ ___ _ ___ _ ___
 72
    65
 73
     4
 40
28.575
 49
19.05
 74
     0
 49
-3.174999999999998
 74
     0
 49
3.174999999999998
 74
     0
 49
-3.174999999999998
 74
     0
  0
LTYPE
  5
87
330
5
100
AcDbSymbolTableRecord
100
AcDbLinetypeTableRecord
  2
CENTERX2
 70
     0
  3
Center (2x) ________  __  ________  __  _____
 72
    65
 73
     4
 40
101.6
 49
63.5
 74
     0
 49
-12.7
 74
     0
 49
12.7
 74
     0
 49
-12.7
 74
     0
  0
LTYPE
  5
88
330
5
100
AcDbSymbolTableRecord
100
AcDbLinetypeTableRecord
  2
DASHDOT
 70
     0
  3
Dash dot __ . __ . __ . __ . __ . __ . __ . __
 72
    65
 73
     4
 40
25.4
 49
12.7
 74
     0
 49
-6.349999999999998
 74
     0
 49
0.0
 74
     0
 49
-6.349999999999998
 74
     0
  0
LTYPE
  5
89
330
5
100
AcDbSymbolTableRecord
100
AcDbLinetypeTableRecord
  2
DASHDOT2
 70
     0
  3
Dash dot (.5x) _._._._._._._._._._._._._._._.
 72
    65
 73
     4
 40
12.7
 49
6.349999999999998
 74
     0
 49
-3.174999999999998
 74
     0
 49
0.0
 74
     0
 49
-3.174999999999998
 74
     0
  0
LTYPE
  5
8A
330
5
100
AcDbSymbolTableRecord
100
AcDbLinetypeTableRecord
  2
DASHDOTX2
 70
     0
  3
Dash dot (2x) ____  .  ____  .  ____  .  ___
 72
    65
 73
     4
 40
50.8
 49
25.4
 74
     0
 49
-12.7
 74
     0
 49
0.0
 74
     0
 49
-12.7
 74
     0
  0
LTYPE
  5
8B
330
5
100
AcDbSymbolTableRecord
100
AcDbLinetypeTableRecord
  2
DASHED2
 70
     0
  3
Dashed (.5x) _ _ _ _ _ _ _ _ _ _ _ _ _ _ _ _ _
 72
    65
 73
     2
 40
9.524999999999996
 49
6.349999999999998
 74
     0
 49
-3.174999999999998
 74
     0
  0
LTYPE
  5
8C
330
5
100
AcDbSymbolTableRecord
100
AcDbLinetypeTableRecord
  2
DASHEDX2
 70
     0
  3
Dashed (2x) ____  ____  ____  ____  ____  ___
 72
    65
 73
     2
 40
38.1
 49
25.4
 74
     0
 49
-12.7
 74
     0
  0
LTYPE
  5
8D
330
5
100
AcDbSymbolTableRecord
100
AcDbLinetypeTableRecord
  2
DIVIDE
 70
     0
  3
Divide ____ . . ____ . . ____ . . ____ . . ____
 72
    65
 73
     6
 40
31.75
 49
12.7
 74
     0
 49
-6.349999999999998
 74
     0
 49
0.0
 74
     0
 49
-6.349999999999998
 74
     0
 49
0.0
 74
     0
 49
-6.349999999999998
 74
     0
  0
LTYPE
  5
8E
330
5
100
AcDbSymbolTableRecord
100
AcDbLinetypeTableRecord
  2
DIVIDE2
 70
     0
  3
Divide (.5x) __..__..__..__..__..__..__..__.._
 72
    65
 73
     6
 40
15.875
 49
6.349999999999998
 74
     0
 49
-3.174999999999998
 74
     0
 49
0.0
 74
     0
 49
-3.174999999999998
 74
     0
 49
0.0
 74
     0
 49
-3.174999999999998
 74
     0
  0
LTYPE
  5
8F
330
5
100
AcDbSymbolTableRecord
100
AcDbLinetypeTableRecord
  2
DIVIDEX2
 70
     0
  3
Divide (2x) ________  .  .  ________  .  .  _
 72
    65
 73
     6
 40
63.49999999999999
 49
25.4
 74
     0
 49
-12.7
 74
     0
 49
0.0
 74
     0
 49
-12.7
 74
     0
 49
0.0
 74
     0
 49
-12.7
 74
     0
  0
LTYPE
  5
90
330
5
100
AcDbSymbolTableRecord
100
AcDbLinetypeTableRecord
  2
DOT2
 70
     0
  3
Dot (.5x) .....................................
 72
    65
 73
     2
 40
3.174999999999998
 49
0.0
 74
     0
 49
-3.174999999999998
 74
     0
  0
LTYPE
  5
91
330
5
100
AcDbSymbolTableRecord
100
AcDbLinetypeTableRecord
  2
DOTX2
 70
     0
  3
Dot (2x) .  .  .  .  .  .  .  .  .  .  .  .  . 
 72
    65
 73
     2
 40
12.7
 49
0.0
 74
     0
 49
-12.7
 74
     0
  0
LTYPE
  5
92
330
5
100
AcDbSymbolTableRecord
100
AcDbLinetypeTableRecord
  2
HIDDEN
 70
     0
  3
Hidden __ __ __ __ __ __ __ __ __ __ __ __ __ _
 72
    65
 73
     2
 40
9.524999999999996
 49
6.349999999999998
 74
     0
 49
-3.174999999999998
 74
     0
  0
LTYPE
  5
93
330
5
100
AcDbSymbolTableRecord
100
AcDbLinetypeTableRecord
  2
HIDDEN2
 70
     0
  3
Hidden (.5x) _ _ _ _ _ _ _ _ _ _ _ _ _ _ _ _ _
 72
    65
 73
     2
 40
4.762499999999998
 49
3.174999999999998
 74
     0
 49
-1.587499999999999
 74
     0
  0
LTYPE
  5
94
330
5
100
AcDbSymbolTableRecord
100
AcDbLinetypeTableRecord
  2
HIDDENX2
 70
     0
  3
Hidden (2x) ____ ____ ____ ____ ____ ____ ____
 72
    65
 73
     2
 40
19.05
 49
12.7
 74
     0
 49
-6.349999999999998
 74
     0
  0
LTYPE
  5
95
330
5
100
AcDbSymbolTableRecord
100
AcDbLinetypeTableRecord
  2
PHANTOM
 70
     0
  3
Phantom ______  __  __  ______  __  __  ______
 72
    65
 73
     6
 40
63.5
 49
31.75
 74
     0
 49
-6.349999999999998
 74
     0
 49
6.349999999999998
 74
     0
 49
-6.349999999999998
 74
     0
 49
6.349999999999998
 74
     0
 49
-6.349999999999998
 74
     0
  0
LTYPE
  5
96
330
5
100
AcDbSymbolTableRecord
100
AcDbLinetypeTableRecord
  2
PHANTOM2
 70
     0
  3
Phantom (.5x) ___ _ _ ___ _ _ ___ _ _ ___ _ _
 72
    65
 73
     6
 40
1.25
 49
0.625
 74
     0
 49
-0.125
 74
     0
 49
0.125
 74
     0
 49
-0.125
 74
     0
 49
0.125
 74
     0
 49
-0.125
 74
     0
  0
LTYPE
  5
97
330
5
100
AcDbSymbolTableRecord
100
AcDbLinetypeTableRecord
  2
PHANTOMX2
 70
     0
  3
Phantom (2x) ____________    ____    ____   _
 72
    65
 73
     6
 40
127.0
 49
63.5
 74
     0
 49
-12.7
 74
     0
 49
12.7
 74
     0
 49
-12.7
 74
     0
 49
12.7
 74
     0
 49
-12.7
 74
     0
  0
LTYPE
  5
98
330
5
100
AcDbSymbolTableRecord
100
AcDbLinetypeTableRecord
  2
ACAD_ISO02W100
 70
     0
  3
ISO dash __ __ __ __ __ __ __ __ __ __ __ __ __
 72
    65
 73
     2
 40
15.0
 49
12.0
 74
     0
 49
-3.0
 74
     0
  0
LTYPE
  5
99
330
5
100
AcDbSymbolTableRecord
100
AcDbLinetypeTableRecord
  2
ACAD_ISO03W100
 70
     0
  3
ISO dash space __    __    __    __    __    __
 72
    65
 73
     2
 40
30.0
 49
12.0
 74
     0
 49
-18.0
 74
     0
  0
LTYPE
  5
9A
330
5
100
AcDbSymbolTableRecord
100
AcDbLinetypeTableRecord
  2
ACAD_ISO04W100
 70
     0
  3
ISO long-dash dot ____ . ____ . ____ . ____ . _
 72
    65
 73
     4
 40
30.0
 49
24.0
 74
     0
 49
-3.0
 74
     0
 49
0.0
 74
     0
 49
-3.0
 74
     0
  0
LTYPE
  5
9B
330
5
100
AcDbSymbolTableRecord
100
AcDbLinetypeTableRecord
  2
ACAD_ISO05W100
 70
     0
  3
ISO long-dash double-dot ____ .. ____ .. ____ .
 72
    65
 73
     6
 40
33.0
 49
24.0
 74
     0
 49
-3.0
 74
     0
 49
0.0
 74
     0
 49
-3.0
 74
     0
 49
0.0
 74
     0
 49
-3.0
 74
     0
  0
LTYPE
  5
9C
330
5
100
AcDbSymbolTableRecord
100
AcDbLinetypeTableRecord
  2
ACAD_ISO06W100
 70
     0
  3
ISO long-dash triple-dot ____ ... ____ ... ____
 72
    65
 73
     8
 40
36.0
 49
24.0
 74
     0
 49
-3.0
 74
     0
 49
0.0
 74
     0
 49
-3.0
 74
     0
 49
0.0
 74
     0
 49
-3.0
 74
     0
 49
0.0
 74
     0
 49
-3.0
 74
     0
  0
LTYPE
  5
9D
330
5
100
AcDbSymbolTableRecord
100
AcDbLinetypeTableRecord
  2
ACAD_ISO07W100
 70
     0
  3
ISO dot . . . . . . . . . . . . . . . . . . . .
 72
    65
 73
     2
 40
3.0
 49
0.0
 74
     0
 49
-3.0
 74
     0
  0
LTYPE
  5
9E
330
5
100
AcDbSymbolTableRecord
100
AcDbLinetypeTableRecord
  2
ACAD_ISO08W100
 70
     0
  3
ISO long-dash short-dash ____ __ ____ __ ____ _
 72
    65
 73
     4
 40
36.0
 49
24.0
 74
     0
 49
-3.0
 74
     0
 49
6.0
 74
     0
 49
-3.0
 74
     0
  0
LTYPE
  5
9F
330
5
100
AcDbSymbolTableRecord
100
AcDbLinetypeTableRecord
  2
ACAD_ISO09W100
 70
     0
  3
ISO long-dash double-short-dash ____ __ __ ____
 72
    65
 73
     6
 40
45.0
 49
24.0
 74
     0
 49
-3.0
 74
     0
 49
6.0
 74
     0
 49
-3.0
 74
     0
 49
6.0
 74
     0
 49
-3.0
 74
     0
  0
LTYPE
  5
A0
330
5
100
AcDbSymbolTableRecord
100
AcDbLinetypeTableRecord
  2
ACAD_ISO10W100
 70
     0
  3
ISO dash dot __ . __ . __ . __ . __ . __ . __ .
 72
    65
 73
     4
 40
18.0
 49
12.0
 74
     0
 49
-3.0
 74
     0
 49
0.0
 74
     0
 49
-3.0
 74
     0
  0
LTYPE
  5
A1
330
5
100
AcDbSymbolTableRecord
100
AcDbLinetypeTableRecord
  2
ACAD_ISO11W100
 70
     0
  3
ISO double-dash dot __ __ . __ __ . __ __ . __ 
 72
    65
 73
     6
 40
33.0
 49
12.0
 74
     0
 49
-3.0
 74
     0
 49
12.0
 74
     0
 49
-3.0
 74
     0
 49
0.0
 74
     0
 49
-3.0
 74
     0
  0
LTYPE
  5
A2
330
5
100
AcDbSymbolTableRecord
100
AcDbLinetypeTableRecord
  2
ACAD_ISO12W100
 70
     0
  3
ISO dash double-dot __ . . __ . . __ . . __ . .
 72
    65
 73
     6
 40
21.0
 49
12.0
 74
     0
 49
-3.0
 74
     0
 49
0.0
 74
     0
 49
-3.0
 74
     0
 49
0.0
 74
     0
 49
-3.0
 74
     0
  0
LTYPE
  5
A3
330
5
100
AcDbSymbolTableRecord
100
AcDbLinetypeTableRecord
  2
ACAD_ISO13W100
 70
     0
  3
ISO double-dash double-dot __ __ . . __ __ . . 
 72
    65
 73
     8
 40
36.0
 49
12.0
 74
     0
 49
-3.0
 74
     0
 49
12.0
 74
     0
 49
-3.0
 74
     0
 49
0.0
 74
     0
 49
-3.0
 74
     0
 49
0.0
 74
     0
 49
-3.0
 74
     0
  0
LTYPE
  5
A4
330
5
100
AcDbSymbolTableRecord
100
AcDbLinetypeTableRecord
  2
ACAD_ISO14W100
 70
     0
  3
ISO dash triple-dot __ . . . __ . . . __ . . . 
 72
    65
 73
     8
 40
24.0
 49
12.0
 74
     0
 49
-3.0
 74
     0
 49
0.0
 74
     0
 49
-3.0
 74
     0
 49
0.0
 74
     0
 49
-3.0
 74
     0
 49
0.0
 74
     0
 49
-3.0
 74
     0
  0
LTYPE
  5
A5
330
5
100
AcDbSymbolTableRecord
100
AcDbLinetypeTableRecord
  2
ACAD_ISO15W100
 70
     0
  3
ISO double-dash triple-dot __ __ . . . __ __ . 
 72
    65
 73
    10
 40
39.0
 49
12.0
 74
     0
 49
-3.0
 74
     0
 49
12.0
 74
     0
 49
-3.0
 74
     0
 49
0.0
 74
     0
 49
-3.0
 74
     0
 49
0.0
 74
     0
 49
-3.0
 74
     0
 49
0.0
 74
     0
 49
-3.0
 74
     0
  0
LTYPE
  5
A8
330
5
100
AcDbSymbolTableRecord
100
AcDbLinetypeTableRecord
  2
FENCELINE1
 70
     0
  3
Fenceline circle ----0-----0----0-----0----0---
 72
    65
 73
     4
 40
36.83
 49
6.349999999999998
 74
     0
 49
-2.54
 74
     4
 75
   133
340
A7
 46
2.54
 50
0.0
 44
-2.54
 45
0.0
 49
-2.54
 74
     0
 49
25.4
 74
     0
  0
LTYPE
  5
A9
330
5
100
AcDbSymbolTableRecord
100
AcDbLinetypeTableRecord
  2
FENCELINE2
 70
     0
  3
Fenceline square ----[]-----[]----[]-----[]----
 72
    65
 73
     4
 40
36.83
 49
6.349999999999998
 74
     0
 49
-2.54
 74
     4
 75
   132
340
A7
 46
2.54
 50
0.0
 44
-2.54
 45
0.0
 49
-2.54
 74
     0
 49
25.4
 74
     0
  0
LTYPE
  5
AA
330
5
100
AcDbSymbolTableRecord
100
AcDbLinetypeTableRecord
  2
TRACKS
 70
     0
  3
Tracks -|-|-|-|-|-|-|-|-|-|-|-|-|-|-|-|-|-|-|-|
 72
    65
 73
     2
 40
7.62
 49
3.81
 74
     4
 75
   130
340
A7
 46
6.349999999999998
 50
0.0
 44
0.0
 45
0.0
 49
3.81
 74
     0
  0
LTYPE
  5
AB
330
5
100
AcDbSymbolTableRecord
100
AcDbLinetypeTableRecord
  2
BATTING
 70
     0
  3
Batting SSSSSSSSSSSSSSSSSSSSSSSSSSSSSSSSSSSSSSS
 72
    65
 73
     4
 40
10.16254
 49
0.00254
 74
     0
 49
-2.54
 74
     4
 75
   134
340
A7
 46
2.54
 50
0.0
 44
-2.54
 45
0.0
 49
-5.08
 74
     4
 75
   134
340
A7
 46
2.54
 50
180.0
 44
2.54
 45
0.0
 49
-2.54
 74
     0
  0
LTYPE
  5
AC
330
5
100
AcDbSymbolTableRecord
100
AcDbLinetypeTableRecord
  2
HOT_WATER_SUPPLY
 70
     0
  3
Hot water supply ---- HW ---- HW ---- HW ----
 72
    65
 73
     3
 40
22.86
 49
12.7
 74
     0
 49
-5.08
 74
     2
 75
     0
340
55
 46
2.54
 50
0.0
 44
-2.54
 45
-1.27
  9
HW
 49
-5.08
 74
     0
  0
LTYPE
  5
AD
330
5
100
AcDbSymbolTableRecord
100
AcDbLinetypeTableRecord
  2
GAS_LINE
 70
     0
  3
Gas line ----GAS----GAS----GAS----GAS----GAS---
 72
    65
 73
     3
 40
24.13
 49
12.7
 74
     0
 49
-5.08
 74
     2
 75
     0
340
55
 46
2.54
 50
0.0
 44
-2.54
 45
-1.27
  9
GAS
 49
-6.349999999999998
 74
     0
  0
LTYPE
  5
AE
330
5
100
AcDbSymbolTableRecord
100
AcDbLinetypeTableRecord
  2
ZIGZAG
 70
     0
  3
Zig zag /\/\/\/\/\/\/\/\/\/\/\/\/\/\/\/\/\/\/\/
 72
    65
 73
     4
 40
20.32254
 49
0.00254
 74
     0
 49
-5.08
 74
     4
 75
   131
340
A7
 46
5.08
 50
0.0
 44
-5.08
 45
0.0
 49
-10.16
 74
     4
 75
   131
340
A7
 46
5.08
 50
180.0
 44
5.08
 45
0.0
 49
-5.08
 74
     0
  0
LTYPE
  5
5FD
330
5
100
AcDbSymbolTableRecord
100
AcDbLinetypeTableRecord
  2
AM_ISO02W050
 70
     0
  3
__ __ __ __ __ __ __ __ __ __ __ __ __ __ __
 72
    65
 73
     2
 40
7.5
 49
6.0
 74
     0
 49
-1.5
 74
     0
  0
LTYPE
  5
5FE
330
5
100
AcDbSymbolTableRecord
100
AcDbLinetypeTableRecord
  2
AM_ISO08W050
 70
     0
  3
____ . ____ . ____ . ____ . ____ . ____ . ____
 72
    65
 73
     4
 40
18.0
 49
12.0
 74
     0
 49
-1.5
 74
     0
 49
3.0
 74
     0
 49
-1.5
 74
     0
  0
LTYPE
  5
5FF
330
5
100
AcDbSymbolTableRecord
100
AcDbLinetypeTableRecord
  2
AM_ISO09W050
 70
     0
  3
_____ . . _____ . . _____ . . ____ .. ____
 72
    65
 73
     6
 40
22.5
 49
12.0
 74
     0
 49
-1.5
 74
     0
 49
3.0
 74
     0
 49
-1.5
 74
     0
 49
3.0
 74
     0
 49
-1.5
 74
     0
  0
LTYPE
  5
600
330
5
100
AcDbSymbolTableRecord
100
AcDbLinetypeTableRecord
  2
Amconstr
 70
     0
  3
_______________________
 72
    65
 73
     2
 40
9999.0
 49
9999.0
 74
     0
 49
0.0
 74
     0
  0
LTYPE
  5
601
330
5
100
AcDbSymbolTableRecord
100
AcDbLinetypeTableRecord
  2
AM_ISO08W050x2
 70
     0
  3
__ . __ . __ . __ . __ . __
 72
    65
 73
     4
 40
9.0
 49
6.0
 74
     0
 49
-0.75
 74
     0
 49
1.5
 74
     0
 49
-0.75
 74
     0
  0
LTYPE
  5
602
330
5
100
AcDbSymbolTableRecord
100
AcDbLinetypeTableRecord
  2
AM_ISO02W050x2
 70
     0
  3
 _ _ _ _ _ _ _ _ _ _ _ _
 72
    65
 73
     2
 40
3.75
 49
3.0
 74
     0
 49
-0.75
 74
     0
  0
LTYPE
  5
603
330
5
100
AcDbSymbolTableRecord
100
AcDbLinetypeTableRecord
  2
Amzigzag
 70
     0
  3
/\/-/\/-/\/-/\/-/\/-/\/
 72
    65
 73
     2
 40
11.0001
 49
0.0001
 74
     4
 75
   135
340
A7
 46
0.04
 50
0.0
 44
0.0
 45
0.0
 49
-11.0
 74
     0
  0
LTYPE
  5
642
330
5
100
AcDbSymbolTableRecord
100
AcDbLinetypeTableRecord
  2
ACANSTGB
 70
     0
  3
__ . . __ . .
 72
    65
 73
     6
 40
0.35433070866
 49
0.15748031496
 74
     0
 49
-0.03937007874
 74
     0
 49
0.03937007874
 74
     0
 49
-0.03937007874
 74
     0
 49
0.03937007874
 74
     0
 49
-0.03937007874
 74
     0
  0
LTYPE
  5
643
330
5
100
AcDbSymbolTableRecord
100
AcDbLinetypeTableRecord
  2
ACANSTGL
 70
     0
  3
_ _ _ _ _
 72
    65
 73
     2
 40
0.11811023622
 49
0.07874015748
 74
     0
 49
-0.03937007874
 74
     0
  0
LTYPE
  5
66B
330
5
100
AcDbSymbolTableRecord
100
AcDbLinetypeTableRecord
  2
ACJISTGB
 70
     0
  3
__ . . __ . .
 72
    65
 73
     6
 40
9.0
 49
4.0
 74
     0
 49
-1.0
 74
     0
 49
1.0
 74
     0
 49
-1.0
 74
     0
 49
1.0
 74
     0
 49
-1.0
 74
     0
  0
LTYPE
  5
66C
330
5
100
AcDbSymbolTableRecord
100
AcDbLinetypeTableRecord
  2
ACJISTGL
 70
     0
  3
_ _ _ _ _
 72
    65
 73
     2
 40
3.0
 49
2.0
 74
     0
 49
-1.0
 74
     0
  0
ENDTAB
  0
TABLE
  2
LAYER
  5
2
330
0
100
AcDbSymbolTable
 70
     4
  0
LAYER
  5
54
330
2
100
AcDbSymbolTableRecord
100
AcDbLayerTableRecord
  2
0
 70
     0
 62
     7
  6
Continuous
370
    25
390
F
  0
LAYER
  5
BF
330
2
100
AcDbSymbolTableRecord
100
AcDbLayerTableRecord
  2
Overlay (ISO)
 70
     0
 62
     7
  6
LONG_DASH_DOTTED
370
    18
390
F
  0
LAYER
  5
C6
330
2
100
AcDbSymbolTableRecord
100
AcDbLayerTableRecord
  2
Visible (ISO)
 70
     0
 62
     7
  6
Continuous
370
    35
390
F
  0
LAYER
  5
C7
330
2
100
AcDbSymbolTableRecord
100
AcDbLayerTableRecord
  2
Visible Narrow (ISO)
 70
     0
 62
     7
  6
Continuous
370
    35
390
F
  0
ENDTAB
  0
TABLE
  2
STYLE
  5
3
330
0
100
AcDbSymbolTable
 70
     7
  0
STYLE
  5
55
330
3
100
AcDbSymbolTableRecord
100
AcDbTextStyleTableRecord
  2
Standard
 70
     0
 40
0.0
 41
1.0
 50
0.0
 71
     0
 42
0.2
  3

  4

1001
ACAD
1000
MS PGothic
1071
      256
  0
STYLE
  5
5A
330
3
100
AcDbSymbolTableRecord
100
AcDbTextStyleTableRecord
  2
Annotative
 70
     0
 40
0.0
 41
1.0
 50
0.0
 71
     0
 42
0.2
  3
txt
  4

1001
AcadAnnotative
1000
AnnotativeData
1002
{
1070
     1
1070
     1
1002
}
  0
STYLE
  5
A7
330
3
100
AcDbSymbolTableRecord
100
AcDbTextStyleTableRecord
  2

 70
     1
 40
0.0
 41
1.0
 50
0.0
 71
     0
 42
0.2
  3
ltypeshp.shx
  4

  0
STYLE
  5
63B
330
3
100
AcDbSymbolTableRecord
100
AcDbTextStyleTableRecord
  2
ACANSTS
 70
     0
 40
1.0
 41
1.0
 50
0.0
 71
     0
 42
0.2
  3
romans.shx
  4

  0
STYLE
  5
63E
330
3
100
AcDbSymbolTableRecord
100
AcDbTextStyleTableRecord
  2
ACANSGDT
 70
     0
 40
0.0
 41
1.0
 50
0.0
 71
     0
 42
0.2
  3
amgdtans.shx
  4

  0
STYLE
  5
664
330
3
100
AcDbSymbolTableRecord
100
AcDbTextStyleTableRecord
  2
ACJISTS
 70
     0
 40
1.0
 41
1.0
 50
0.0
 71
     0
 42
0.2
  3
isocp.shx
  4
extfont.shx
  0
STYLE
  5
667
330
3
100
AcDbSymbolTableRecord
100
AcDbTextStyleTableRecord
  2
ACJISGDT
 70
     0
 40
0.0
 41
1.0
 50
0.0
 71
     0
 42
0.2
  3
amgdt.shx
  4

  0
ENDTAB
  0
TABLE
  2
VIEW
  5
6
330
0
100
AcDbSymbolTable
 70
     0
  0
ENDTAB
  0
TABLE
  2
UCS
  5
7
330
0
100
AcDbSymbolTable
 70
     0
  0
ENDTAB
  0
TABLE
  2
APPID
  5
9
330
0
100
AcDbSymbolTable
 70
    17
  0
APPID
  5
56
330
9
100
AcDbSymbolTableRecord
100
AcDbRegAppTableRecord
  2
ACAD
 70
     0
  0
APPID
  5
5E
330
9
100
AcDbSymbolTableRecord
100
AcDbRegAppTableRecord
  2
AcadAnnotative
 70
     0
  0
APPID
  5
5E8
330
9
100
AcDbSymbolTableRecord
100
AcDbRegAppTableRecord
  2
ACAD_MLEADERVER
 70
     0
  0
APPID
  5
5F1
330
9
100
AcDbSymbolTableRecord
100
AcDbRegAppTableRecord
  2
MCAD_NO_VIS
 70
     0
  0
APPID
  5
5F2
330
9
100
AcDbSymbolTableRecord
100
AcDbRegAppTableRecord
  2
ACAD_TEMP_GRAPHIC
 70
     0
  0
APPID
  5
5F3
330
9
100
AcDbSymbolTableRecord
100
AcDbRegAppTableRecord
  2
ACATTRIBSERVICES
 70
     0
  0
APPID
  5
5F4
330
9
100
AcDbSymbolTableRecord
100
AcDbRegAppTableRecord
  2
AD_DRAW
 70
     0
  0
APPID
  5
5F5
330
9
100
AcDbSymbolTableRecord
100
AcDbRegAppTableRecord
  2
DESIGNERASSEMBLIES
 70
     0
  0
APPID
  5
5F6
330
9
100
AcDbSymbolTableRecord
100
AcDbRegAppTableRecord
  2
ACADM_DIM_EDIT
 70
     0
  0
APPID
  5
5F7
330
9
100
AcDbSymbolTableRecord
100
AcDbRegAppTableRecord
  2
AMDT_DM_ADJ
 70
     0
  0
APPID
  5
5F8
330
9
100
AcDbSymbolTableRecord
100
AcDbRegAppTableRecord
  2
ACAD_DSTYLE_DIMJAG
 70
     0
  0
APPID
  5
5F9
330
9
100
AcDbSymbolTableRecord
100
AcDbRegAppTableRecord
  2
ACAD_DSTYLE_DIMBREAK
 70
     0
  0
APPID
  5
6AF
330
9
100
AcDbSymbolTableRecord
100
AcDbRegAppTableRecord
  2
ACAD_EXEMPT_FROM_CAD_STANDARDS
 70
     0
  0
APPID
  5
6E7
330
9
100
AcDbSymbolTableRecord
100
AcDbRegAppTableRecord
  2
ACAD_DSTYLE_DIMARC_LENGTH_SYMBOL
 70
     0
  0
APPID
  5
6E8
330
9
100
AcDbSymbolTableRecord
100
AcDbRegAppTableRecord
  2
ACAD_DSTYLE_DIM_LINETYPE
 70
     0
  0
APPID
  5
6E9
330
9
100
AcDbSymbolTableRecord
100
AcDbRegAppTableRecord
  2
ACAD_DSTYLE_DIM_EXT1_LINETYPE
 70
     0
  0
APPID
  5
6EA
330
9
100
AcDbSymbolTableRecord
100
AcDbRegAppTableRecord
  2
ACAD_DSTYLE_DIM_EXT2_LINETYPE
 70
     0
  0
ENDTAB
  0
TABLE
  2
DIMSTYLE
  5
A
330
0
100
AcDbSymbolTable
 70
    15
100
AcDbDimStyleTable
 71
     0
  0
DIMSTYLE
105
58
330
A
100
AcDbSymbolTableRecord
100
AcDbDimStyleTableRecord
  2
Standard
 70
     0
340
55
  0
DIMSTYLE
105
59
330
A
100
AcDbSymbolTableRecord
100
AcDbDimStyleTableRecord
  2
Annotative
 70
     0
340
55
1001
AcadAnnotative
1000
AnnotativeData
1002
{
1070
     1
1070
     1
1002
}
  0
DIMSTYLE
105
654
330
A
100
AcDbSymbolTableRecord
100
AcDbDimStyleTableRecord
  2
AM_ANSI
 70
     0
  4
mm
 40
0.5
 41
0.1
 42
0.05
 43
0.5
 44
0.1
 47
0.1
 48
0.1
 78
     7
 79
     2
140
0.12
141
0.0
146
0.71
147
0.06
176
   256
177
   256
178
     2
274
     4
284
     7
340
55
371
    -1
372
    -1
  0
DIMSTYLE
105
655
330
A
100
AcDbSymbolTableRecord
100
AcDbDimStyleTableRecord
  2
AM_ANSI$3
 70
     0
  4
mm
 40
0.5
 41
0.1
 42
0.05
 43
0.5
 44
0.1
 47
0.1
 48
0.1
 78
     7
 79
     2
140
0.12
141
0.0
146
0.71
147
0.06
176
   256
177
   256
178
     2
274
     4
284
     7
288
     1
289
     0
340
55
371
    -1
372
    -1
  0
DIMSTYLE
105
656
330
A
100
AcDbSymbolTableRecord
100
AcDbDimStyleTableRecord
  2
AM_ANSI$4
 70
     0
  4
mm
 40
0.5
 41
0.1
 42
0.05
 43
0.5
 44
0.1
 47
0.1
 48
0.1
 78
     7
 79
     2
140
0.12
141
0.0
146
0.71
147
0.06
176
   256
177
   256
178
     2
274
     4
284
     7
288
     1
289
     0
340
55
371
    -1
372
    -1
  0
DIMSTYLE
105
657
330
A
100
AcDbSymbolTableRecord
100
AcDbDimStyleTableRecord
  2
AM_ANSI$7
 70
     0
  4
mm
 40
0.5
 41
0.1
 42
0.05
 43
0.5
 44
0.1
 47
0.1
 48
0.1
 78
     7
 79
     2
140
0.24
141
0.0
146
0.71
147
0.06
176
   256
177
   256
178
     2
274
     4
284
     7
340
55
371
    -1
372
    -1
  0
DIMSTYLE
105
658
330
A
100
AcDbSymbolTableRecord
100
AcDbDimStyleTableRecord
  2
AM_ANSI$SF
 70
     0
  4
mm
 40
0.5
 41
0.1
 42
0.05
 43
0.5
 44
0.1
 47
0.1
 48
0.1
 75
     1
 76
     1
 78
     7
 79
     2
140
0.12
141
0.0
146
0.71
147
0.06
176
   256
177
   256
178
     2
274
     4
284
     7
340
55
371
    -1
372
    -1
  0
DIMSTYLE
105
659
330
A
100
AcDbSymbolTableRecord
100
AcDbDimStyleTableRecord
  2
AM_ANSI$SH
 70
     0
  4
mm
 40
0.5
 41
0.1
 42
0.05
 43
0.5
 44
0.1
 47
0.1
 48
0.1
 75
     1
 76
     1
 78
     7
 79
     2
140
0.12
141
0.0
146
0.71
147
0.06
173
     1
176
   256
177
   256
178
     2
274
     4
284
     7
340
55
343
65A
371
    -1
372
    -1
  0
DIMSTYLE
105
67D
330
A
100
AcDbSymbolTableRecord
100
AcDbDimStyleTableRecord
  2
AM_JIS
 70
     0
  4
"
 40
0.5
 41
2.5
 42
1.0
 43
10.0
 44
1.0
 47
0.1
 48
0.1
 73
     0
 74
     0
 77
     3
 78
     8
 79
     2
140
3.5
141
0.0
143
0.0393701
146
0.71
147
1.5
172
     1
176
   256
177
   256
178
     2
271
     2
272
     3
274
     4
283
     0
284
     8
340
55
341
67E
342
67E
343
67E
344
67E
371
    -1
372
    -1
1001
ACAD_DSTYLE_DIMJAG
1070
   388
1040
1.5
1001
ACAD_DSTYLE_DIMBREAK
1070
   391
1040
3.75
1001
ACAD_DSTYLE_DIMARC_LENGTH_SYMBOL
1070
   379
1070
     1
1001
ACAD_DSTYLE_DIM_LINETYPE
1070
   380
1005
5B
1001
ACAD_DSTYLE_DIM_EXT1_LINETYPE
1070
   381
1005
5B
1001
ACAD_DSTYLE_DIM_EXT2_LINETYPE
1070
   382
1005
5B
  0
DIMSTYLE
105
684
330
A
100
AcDbSymbolTableRecord
100
AcDbDimStyleTableRecord
  2
AM_JIS$3
 70
     0
  4
"
 40
0.5
 41
2.5
 42
1.0
 43
10.0
 44
1.0
 47
0.1
 48
0.1
 73
     0
 77
     3
 78
     8
 79
     2
140
3.5
141
0.0
143
0.0393701
146
0.71
147
1.5
172
     1
176
   256
177
   256
178
     2
271
     2
272
     3
274
     4
283
     0
284
     8
288
     1
289
     0
340
55
341
67E
342
67E
343
67E
344
67E
371
    -1
372
    -1
1001
ACAD_DSTYLE_DIMBREAK
1070
   391
1040
3.75
1001
ACAD_DSTYLE_DIMJAG
1070
   388
1040
1.5
1001
ACAD_DSTYLE_DIMARC_LENGTH_SYMBOL
1070
   379
1070
     1
1001
ACAD_DSTYLE_DIM_LINETYPE
1070
   380
1005
5B
1001
ACAD_DSTYLE_DIM_EXT1_LINETYPE
1070
   381
1005
5B
1001
ACAD_DSTYLE_DIM_EXT2_LINETYPE
1070
   382
1005
5B
  0
DIMSTYLE
105
685
330
A
100
AcDbSymbolTableRecord
100
AcDbDimStyleTableRecord
  2
AM_JIS$4
 70
     0
  4
"
 40
0.5
 41
2.5
 42
1.0
 43
10.0
 44
1.0
 47
0.1
 48
0.1
 73
     0
 74
     0
 77
     3
 78
     8
 79
     2
140
3.5
141
0.0
143
0.0393701
146
0.71
147
1.5
172
     1
176
   256
177
   256
178
     2
271
     2
272
     3
274
     4
283
     0
284
     8
340
55
341
67E
342
67E
343
67E
344
67E
371
    -1
372
    -1
1001
ACAD_DSTYLE_DIMBREAK
1070
   391
1040
3.75
1001
ACAD_DSTYLE_DIMJAG
1070
   388
1040
1.5
1001
ACAD_DSTYLE_DIMARC_LENGTH_SYMBOL
1070
   379
1070
     1
1001
ACAD_DSTYLE_DIM_LINETYPE
1070
   380
1005
5B
1001
ACAD_DSTYLE_DIM_EXT1_LINETYPE
1070
   381
1005
5B
1001
ACAD_DSTYLE_DIM_EXT2_LINETYPE
1070
   382
1005
5B
  0
DIMSTYLE
105
686
330
A
100
AcDbSymbolTableRecord
100
AcDbDimStyleTableRecord
  2
AM_JIS$6
 70
     0
  4
"
 40
0.5
 41
2.5
 42
1.0
 43
10.0
 44
1.0
 47
0.1
 48
0.1
 73
     0
 74
     0
 78
     8
 79
     2
140
3.5
141
0.0
143
0.0393701
146
0.71
147
1.5
172
     1
176
   256
177
   256
178
     2
271
     2
272
     3
274
     4
283
     0
284
     8
340
55
341
67E
342
67E
343
67E
344
67E
371
    -1
372
    -1
1001
ACAD_DSTYLE_DIMBREAK
1070
   391
1040
3.75
1001
ACAD_DSTYLE_DIMJAG
1070
   388
1040
1.5
1001
ACAD_DSTYLE_DIMARC_LENGTH_SYMBOL
1070
   379
1070
     1
1001
ACAD_DSTYLE_DIM_LINETYPE
1070
   380
1005
5B
1001
ACAD_DSTYLE_DIM_EXT1_LINETYPE
1070
   381
1005
5B
1001
ACAD_DSTYLE_DIM_EXT2_LINETYPE
1070
   382
1005
5B
  0
DIMSTYLE
105
687
330
A
100
AcDbSymbolTableRecord
100
AcDbDimStyleTableRecord
  2
AM_JIS$7
 70
     0
  4
"
 40
0.5
 41
2.5
 42
1.0
 43
10.0
 44
1.0
 47
0.1
 48
0.1
 73
     0
 74
     0
 77
     3
 78
     8
 79
     2
140
3.5
141
0.0
143
0.0393701
146
0.71
147
1.5
172
     1
176
   256
177
   256
178
     2
271
     2
272
     3
274
     4
283
     0
284
     8
340
55
341
67E
342
67E
343
67E
344
67E
371
    -1
372
    -1
1001
ACAD_DSTYLE_DIMBREAK
1070
   391
1040
3.75
1001
ACAD_DSTYLE_DIMJAG
1070
   388
1040
1.5
1001
ACAD_DSTYLE_DIMARC_LENGTH_SYMBOL
1070
   379
1070
     1
1001
ACAD_DSTYLE_DIM_LINETYPE
1070
   380
1005
5B
1001
ACAD_DSTYLE_DIM_EXT1_LINETYPE
1070
   381
1005
5B
1001
ACAD_DSTYLE_DIM_EXT2_LINETYPE
1070
   382
1005
5B
  0
DIMSTYLE
105
688
330
A
100
AcDbSymbolTableRecord
100
AcDbDimStyleTableRecord
  2
AM_JIS$SF
 70
     0
  4
"
 40
0.5
 41
2.5
 42
1.0
 43
10.0
 44
1.0
 47
0.1
 48
0.1
 73
     0
 74
     0
 75
     1
 76
     1
 77
     3
 78
     8
 79
     2
140
3.5
141
0.0
143
0.0393701
146
0.71
147
1.5
172
     1
176
   256
177
   256
178
     2
271
     2
272
     3
274
     4
283
     0
284
     8
340
55
341
67E
342
67E
343
67E
344
67E
371
    -1
372
    -1
1001
ACAD_DSTYLE_DIMBREAK
1070
   391
1040
3.75
1001
ACAD_DSTYLE_DIMJAG
1070
   388
1040
1.5
1001
ACAD_DSTYLE_DIMARC_LENGTH_SYMBOL
1070
   379
1070
     1
1001
ACAD_DSTYLE_DIM_LINETYPE
1070
   380
1005
5B
1001
ACAD_DSTYLE_DIM_EXT1_LINETYPE
1070
   381
1005
5B
1001
ACAD_DSTYLE_DIM_EXT2_LINETYPE
1070
   382
1005
5B
  0
DIMSTYLE
105
689
330
A
100
AcDbSymbolTableRecord
100
AcDbDimStyleTableRecord
  2
AM_JIS$SH
 70
     0
  4
"
 40
0.5
 41
2.5
 42
1.0
 43
10.0
 44
1.0
 47
0.1
 48
0.1
 73
     0
 74
     0
 75
     1
 76
     1
 77
     3
 78
     8
 79
     2
140
3.5
141
0.0
143
0.0393701
144
2.0
146
0.71
147
1.5
172
     1
173
     1
176
   256
177
   256
178
     2
271
     2
272
     3
274
     4
283
     0
284
     8
340
55
341
67E
342
67E
343
65A
344
67E
371
    -1
372
    -1
1001
ACAD_DSTYLE_DIMBREAK
1070
   391
1040
3.75
1001
ACAD_DSTYLE_DIMJAG
1070
   388
1040
1.5
1001
ACAD_DSTYLE_DIMARC_LENGTH_SYMBOL
1070
   379
1070
     1
1001
ACAD_DSTYLE_DIM_LINETYPE
1070
   380
1005
5B
1001
ACAD_DSTYLE_DIM_EXT1_LINETYPE
1070
   381
1005
5B
1001
ACAD_DSTYLE_DIM_EXT2_LINETYPE
1070
   382
1005
5B
  0
ENDTAB
  0
TABLE
  2
BLOCK_RECORD
  5
1
330
0
100
AcDbSymbolTable
 70
     4
  0
BLOCK_RECORD
  5
6C
330
1
100
AcDbSymbolTableRecord
100
AcDbBlockTableRecord
  2
*Model_Space
340
6F
  0
BLOCK_RECORD
  5
68
330
1
100
AcDbSymbolTableRecord
100
AcDbBlockTableRecord
  2
*Paper_Space
340
6B
  0
BLOCK_RECORD
  5
70
330
1
100
AcDbSymbolTableRecord
100
AcDbBlockTableRecord
  2
*Paper_Space0
340
73
  0
BLOCK_RECORD
  5
65A
330
1
100
AcDbSymbolTableRecord
100
AcDbBlockTableRecord
  2
GENAXEH
340
0
  0
BLOCK_RECORD
  5
67E
330
1
100
AcDbSymbolTableRecord
100
AcDbBlockTableRecord
  2
_Open30
340
0
  0
ENDTAB
  0
ENDSEC
  0
SECTION
  2
BLOCKS
  0
BLOCK
  5
6D
330
6C
100
AcDbEntity
  8
0
100
AcDbBlockBegin
  2
*Model_Space
 70
     0
 10
0.0
 20
0.0
 30
0.0
  3
*Model_Space
  1

  0
ENDBLK
  5
6E
330
6C
100
AcDbEntity
  8
0
100
AcDbBlockEnd
  0
BLOCK
  5
69
330
68
100
AcDbEntity
 67
     1
  8
0
100
AcDbBlockBegin
  2
*Paper_Space
 70
     0
 10
0.0
 20
0.0
 30
0.0
  3
*Paper_Space
  1

  0
ENDBLK
  5
6A
330
68
100
AcDbEntity
 67
     1
  8
0
100
AcDbBlockEnd
  0
BLOCK
  5
71
330
70
100
AcDbEntity
 67
     1
  8
0
100
AcDbBlockBegin
  2
*Paper_Space0
 70
     0
 10
0.0
 20
0.0
 30
0.0
  3
*Paper_Space0
  1

  0
ENDBLK
  5
72
330
70
100
AcDbEntity
 67
     1
  8
0
100
AcDbBlockEnd
  0
BLOCK
  5
65B
330
65A
100
AcDbEntity
  8
0
100
AcDbBlockBegin
  2
GENAXEH
 70
     0
 10
0.0
 20
0.0
 30
0.0
  3
GENAXEH
  1

  0
LINE
  5
65C
330
65A
100
AcDbEntity
  8
0
100
AcDbLine
 10
-1.0
 20
0.0
 30
0.0
 11
1.0
 21
0.0
 31
0.0
  0
ENDBLK
  5
65D
330
65A
100
AcDbEntity
  8
0
100
AcDbBlockEnd
  0
BLOCK
  5
67F
330
67E
100
AcDbEntity
  8
0
100
AcDbBlockBegin
  2
_Open30
 70
     0
 10
0.0
 20
0.0
 30
0.0
  3
_Open30
  1

  0
LINE
  5
680
330
67E
100
AcDbEntity
  8
0
  6
ByBlock
 62
     0
370
    -2
100
AcDbLine
 10
-1.0
 20
0.26794919
 30
0.0
 11
0.0
 21
0.0
 31
0.0
  0
LINE
  5
681
330
67E
100
AcDbEntity
  8
0
  6
ByBlock
 62
     0
370
    -2
100
AcDbLine
 10
0.0
 20
0.0
 30
0.0
 11
-1.0
 21
-0.26794919
 31
0.0
  0
LINE
  5
682
330
67E
100
AcDbEntity
  8
0
  6
ByBlock
 62
     0
370
    -2
100
AcDbLine
 10
0.0
 20
0.0
 30
0.0
 11
-1.0
 21
0.0
 31
0.0
  0
ENDBLK
  5
683
330
67E
100
AcDbEntity
  8
0
100
AcDbBlockEnd
  0
ENDSEC
  0
SECTION
  2
ENTITIES
  0
LINE
  5
CE
330
6C
100
AcDbEntity
  8
Visible (ISO)
100
AcDbLine
 10
145.3446505263333
 20
40.53844843151147
 30
0.0
 11
145.3446505263333
 21
53.5384484315115
 31
0.0
  0
LINE
  5
CF
330
6C
100
AcDbEntity
  8
Visible (ISO)
100
AcDbLine
 10
145.8446505263333
 20
53.03844843151147
 30
0.0
 11
145.8446505263333
 21
41.0384484315115
 31
0.0
  0
LINE
  5
D0
330
6C
100
AcDbEntity
  8
Visible (ISO)
100
AcDbLine
 10
145.8446505263333
 20
41.0384484315115
 30
0.0
 11
145.3446505263333
 21
40.53844843151147
 31
0.0
  0
LINE
  5
D1
330
6C
100
AcDbEntity
  8
Visible (ISO)
100
AcDbLine
 10
145.8446505263333
 20
53.03844843151147
 30
0.0
 11
145.3446505263333
 21
53.5384484315115
 31
0.0
  0
SPLINE
  5
D2
330
6C
100
AcDbEntity
  8
Visible (ISO)
100
AcDbSpline
210
0.0
220
0.0
230
1.0
 70
    12
 71
     2
 72
     6
 73
     3
 74
     0
 42
0.0000000001
 43
0.0000000001
 40
0.4256073096284686
 40
0.4256073096284686
 40
0.4256073096284686
 40
0.8365524254088846
 40
0.8365524254088846
 40
0.8365524254088846
 10
132.4116378244411
 20
43.38981855167986
 30
0.0
 41
1.045691116018826
 10
132.8446505263332
 20
45.29121722145127
 30
0.0
 41
1.044904085362813
 10
132.8446505263332
 20
47.03844843151149
 30
0.0
 41
1.0
  0
LINE
  5
D3
330
6C
100
AcDbEntity
  8
Visible (ISO)
100
AcDbLine
 10
132.4116378244411
 20
43.38981855167986
 30
0.0
 11
132.4116378244411
 21
41.50154743925956
 31
0.0
  0
LINE
  5
D4
330
6C
100
AcDbEntity
  8
Visible (ISO)
100
AcDbLine
 10
132.8446505263332
 20
39.67723249934376
 30
0.0
 11
132.8446505263332
 21
47.03844843151149
 31
0.0
  0
LINE
  5
D5
330
6C
100
AcDbEntity
  8
Visible (ISO)
100
AcDbLine
 10
132.4116378244411
 20
52.5753494237634
 30
0.0
 11
132.4116378244411
 21
50.68707831134311
 31
0.0
  0
SPLINE
  5
D6
330
6C
100
AcDbEntity
  8
Visible (ISO)
100
AcDbSpline
210
0.0
220
0.0
230
1.0
 70
    12
 71
     2
 72
     6
 73
     3
 74
     0
 42
0.0000000001
 43
0.0000000001
 40
0.8365524254088846
 40
0.8365524254088846
 40
0.8365524254088846
 40
1.2474975411893
 40
1.2474975411893
 40
1.2474975411893
 10
132.8446505263332
 20
47.03844843151149
 30
0.0
 41
1.0
 10
132.8446505263332
 20
48.7856796415717
 30
0.0
 41
1.044904085362809
 10
132.4116378244411
 20
50.68707831134311
 30
0.0
 41
1.045691116018822
  0
LINE
  5
D7
330
6C
100
AcDbEntity
  8
Visible (ISO)
100
AcDbLine
 10
132.8446505263332
 20
47.03844843151149
 30
0.0
 11
132.8446505263332
 21
54.39966436367921
 31
0.0
  0
LINE
  5
D8
330
6C
100
AcDbEntity
  8
Visible (ISO)
100
AcDbLine
 10
132.8446505263332
 20
54.39966436367921
 30
0.0
 11
132.8446505263332
 21
55.53844843151147
 31
0.0
  0
LINE
  5
D9
330
6C
100
AcDbEntity
  8
Visible (ISO)
100
AcDbLine
 10
132.8446505263332
 20
38.53844843151151
 30
0.0
 11
132.8446505263332
 21
39.67723249934378
 31
0.0
  0
LINE
  5
DA
330
6C
100
AcDbEntity
  8
Visible (ISO)
100
AcDbLine
 10
132.8446505263332
 20
55.53844843151147
 30
0.0
 11
132.4116378244411
 21
56.28844843151149
 31
0.0
  0
LINE
  5
DB
330
6C
100
AcDbEntity
  8
Visible (ISO)
100
AcDbLine
 10
132.8446505263332
 20
38.53844843151151
 30
0.0
 11
132.4116378244411
 21
37.78844843151149
 31
0.0
  0
SPLINE
  5
DC
330
6C
100
AcDbEntity
  8
Visible (ISO)
100
AcDbSpline
210
0.0
220
0.0
230
1.0
 70
    12
 71
     2
 72
     6
 73
     3
 74
     0
 42
0.0000000001
 43
0.0000000001
 40
0.8365524254088846
 40
0.8365524254088846
 40
0.8365524254088846
 40
1.2474975411893
 40
1.2474975411893
 40
1.2474975411893
 10
132.8446505263332
 20
39.67723249934376
 30
0.0
 41
1.0
 10
132.8446505263332
 20
40.55084810437388
 30
0.0
 41
1.044904085362819
 10
132.4116378244411
 20
41.50154743925957
 30
0.0
 41
1.045691116018833
  0
SPLINE
  5
DD
330
6C
100
AcDbEntity
  8
Visible (ISO)
100
AcDbSpline
210
0.0
220
0.0
230
1.0
 70
    12
 71
     2
 72
     6
 73
     3
 74
     0
 42
0.0000000001
 43
0.0000000001
 40
0.4256073096284686
 40
0.4256073096284686
 40
0.4256073096284686
 40
0.8365524254088844
 40
0.8365524254088844
 40
0.8365524254088844
 10
132.4116378244411
 20
52.57534942376342
 30
0.0
 41
1.045691116018839
 10
132.8446505263332
 20
53.52604875864908
 30
0.0
 41
1.044904085362824
 10
132.8446505263332
 20
54.39966436367921
 30
0.0
 41
1.0
  0
LINE
  5
DE
330
6C
100
AcDbEntity
  8
Visible (ISO)
100
AcDbLine
 10
132.4116378244411
 20
56.28844843151149
 30
0.0
 11
132.4116378244411
 21
56.22397930359503
 31
0.0
  0
SPLINE
  5
DF
330
6C
100
AcDbEntity
  8
Visible (ISO)
100
AcDbSpline
210
0.0
220
0.0
230
1.0
 70
    12
 71
     2
 72
     6
 73
     3
 74
     0
 42
0.0000000001
 43
0.0000000001
 40
0.8365524254088844
 40
0.8365524254088844
 40
0.8365524254088844
 40
1.2474975411893
 40
1.2474975411893
 40
1.2474975411893
 10
132.8446505263332
 20
54.39966436367921
 30
0.0
 41
1.0
 10
132.8446505263332
 20
55.27327996870933
 30
0.0
 41
1.04490408536282
 10
132.4116378244411
 20
56.22397930359503
 30
0.0
 41
1.045691116018834
  0
SPLINE
  5
E0
330
6C
100
AcDbEntity
  8
Visible (ISO)
100
AcDbSpline
210
0.0
220
0.0
230
1.0
 70
    12
 71
     2
 72
     6
 73
     3
 74
     0
 42
0.0000000001
 43
0.0000000001
 40
0.4256073096284692
 40
0.4256073096284692
 40
0.4256073096284692
 40
0.8365524254088846
 40
0.8365524254088846
 40
0.8365524254088846
 10
132.4116378244411
 20
37.85291755942795
 30
0.0
 41
1.045691116018834
 10
132.8446505263332
 20
38.80361689431365
 30
0.0
 41
1.04490408536282
 10
132.8446505263332
 20
39.67723249934376
 30
0.0
 41
1.0
  0
LINE
  5
E1
330
6C
100
AcDbEntity
  8
Visible (ISO)
100
AcDbLine
 10
132.4116378244411
 20
37.85291755942795
 30
0.0
 11
132.4116378244411
 21
37.78844843151149
 31
0.0
  0
LINE
  5
E2
330
6C
100
AcDbEntity
  8
Visible (ISO)
100
AcDbLine
 10
127.7776632282255
 20
37.85291755942795
 30
0.0
 11
132.4116378244411
 21
37.85291755942795
 31
0.0
  0
LINE
  5
E3
330
6C
100
AcDbEntity
  8
Visible (ISO)
100
AcDbLine
 10
127.7776632282255
 20
37.78844843151149
 30
0.0
 11
127.7776632282255
 21
37.85291755942795
 31
0.0
  0
LINE
  5
E4
330
6C
100
AcDbEntity
  8
Visible (ISO)
100
AcDbLine
 10
132.4116378244411
 20
41.50154743925957
 30
0.0
 11
127.7776632282255
 21
41.50154743925957
 31
0.0
  0
SPLINE
  5
E5
330
6C
100
AcDbEntity
  8
Visible (ISO)
100
AcDbSpline
210
0.0
220
0.0
230
1.0
 70
    12
 71
     2
 72
     6
 73
     3
 74
     0
 42
0.0000000001
 43
0.0000000001
 40
0.3847937513989837
 40
0.3847937513989837
 40
0.3847937513989837
 40
0.7911618380462638
 40
0.7911618380462638
 40
0.7911618380462638
 10
127.7776632282255
 20
41.50154743925957
 30
0.0
 41
1.041774167103257
 10
127.3446505263333
 20
40.55084810437386
 30
0.0
 41
1.042945248861377
 10
127.3446505263333
 20
39.67723249934376
 30
0.0
 41
1.0
  0
SPLINE
  5
E6
330
6C
100
AcDbEntity
  8
Visible (ISO)
100
AcDbSpline
210
0.0
220
0.0
230
1.0
 70
    12
 71
     2
 72
     6
 73
     3
 74
     0
 42
0.0000000001
 43
0.0000000001
 40
0.7911618380462638
 40
0.7911618380462638
 40
0.7911618380462638
 40
1.197529924693542
 40
1.197529924693542
 40
1.197529924693542
 10
127.3446505263333
 20
39.67723249934376
 30
0.0
 41
1.0
 10
127.3446505263333
 20
38.80361689431366
 30
0.0
 41
1.04294524886138
 10
127.7776632282255
 20
37.85291755942795
 30
0.0
 41
1.041774167103258
  0
LINE
  5
E7
330
6C
100
AcDbEntity
  8
Visible (ISO)
100
AcDbLine
 10
127.7776632282255
 20
42.2884484315115
 30
0.0
 11
127.3446505263333
 21
43.03844843151147
 31
0.0
  0
LINE
  5
E8
330
6C
100
AcDbEntity
  8
Visible (ISO)
100
AcDbLine
 10
127.7776632282255
 20
41.50154743925956
 30
0.0
 11
127.7776632282255
 21
42.2884484315115
 31
0.0
  0
LINE
  5
E9
330
6C
100
AcDbEntity
  8
Visible (ISO)
100
AcDbLine
 10
127.7776632282255
 20
52.57534942376342
 30
0.0
 11
132.4116378244411
 21
52.57534942376342
 31
0.0
  0
LINE
  5
EA
330
6C
100
AcDbEntity
  8
Visible (ISO)
100
AcDbLine
 10
127.7776632282255
 20
51.78844843151147
 30
0.0
 11
127.7776632282255
 21
52.5753494237634
 31
0.0
  0
LINE
  5
EB
330
6C
100
AcDbEntity
  8
Visible (ISO)
100
AcDbLine
 10
127.3446505263333
 20
51.0384484315115
 30
0.0
 11
127.7776632282255
 21
51.78844843151147
 31
0.0
  0
LINE
  5
EC
330
6C
100
AcDbEntity
  8
Visible (ISO)
100
AcDbLine
 10
132.4116378244411
 20
56.22397930359503
 30
0.0
 11
127.7776632282255
 21
56.22397930359503
 31
0.0
  0
SPLINE
  5
ED
330
6C
100
AcDbEntity
  8
Visible (ISO)
100
AcDbSpline
210
0.0
220
0.0
230
1.0
 70
    12
 71
     2
 72
     6
 73
     3
 74
     0
 42
0.0000000001
 43
0.0000000001
 40
0.3847937513989835
 40
0.3847937513989835
 40
0.3847937513989835
 40
0.7911618380462635
 40
0.7911618380462635
 40
0.7911618380462635
 10
127.7776632282255
 20
56.22397930359503
 30
0.0
 41
1.041774167103256
 10
127.3446505263333
 20
55.27327996870932
 30
0.0
 41
1.042945248861377
 10
127.3446505263333
 20
54.39966436367921
 30
0.0
 41
1.0
  0
SPLINE
  5
EE
330
6C
100
AcDbEntity
  8
Visible (ISO)
100
AcDbSpline
210
0.0
220
0.0
230
1.0
 70
    12
 71
     2
 72
     6
 73
     3
 74
     0
 42
0.0000000001
 43
0.0000000001
 40
0.7911618380462635
 40
0.7911618380462635
 40
0.7911618380462635
 40
1.197529924693543
 40
1.197529924693543
 40
1.197529924693543
 10
127.3446505263333
 20
54.39966436367921
 30
0.0
 41
1.0
 10
127.3446505263333
 20
53.52604875864911
 30
0.0
 41
1.042945248861377
 10
127.7776632282255
 20
52.57534942376342
 30
0.0
 41
1.041774167103257
  0
LINE
  5
EF
330
6C
100
AcDbEntity
  8
Visible (ISO)
100
AcDbLine
 10
127.7776632282255
 20
56.22397930359503
 30
0.0
 11
127.7776632282255
 21
56.28844843151149
 31
0.0
  0
LINE
  5
F0
330
6C
100
AcDbEntity
  8
Visible (ISO)
100
AcDbLine
 10
127.3446505263333
 20
51.0384484315115
 30
0.0
 11
127.3446505263333
 21
54.39966436367921
 31
0.0
  0
LINE
  5
F1
330
6C
100
AcDbEntity
  8
Visible (ISO)
100
AcDbLine
 10
127.3446505263333
 20
54.39966436367921
 30
0.0
 11
127.3446505263333
 21
55.53844843151147
 31
0.0
  0
LINE
  5
F2
330
6C
100
AcDbEntity
  8
Visible (ISO)
100
AcDbLine
 10
127.3446505263333
 20
39.67723249934376
 30
0.0
 11
127.3446505263333
 21
43.03844843151149
 31
0.0
  0
LINE
  5
F3
330
6C
100
AcDbEntity
  8
Visible (ISO)
100
AcDbLine
 10
127.3446505263333
 20
38.53844843151149
 30
0.0
 11
127.3446505263333
 21
39.67723249934376
 31
0.0
  0
LINE
  5
F4
330
6C
100
AcDbEntity
  8
Visible (ISO)
100
AcDbLine
 10
127.7776632282255
 20
37.78844843151149
 30
0.0
 11
132.411637824441
 21
37.78844843151149
 31
0.0
  0
LINE
  5
F5
330
6C
100
AcDbEntity
  8
Visible (ISO)
100
AcDbLine
 10
127.7776632282255
 20
56.28844843151149
 30
0.0
 11
132.411637824441
 21
56.28844843151149
 31
0.0
  0
LINE
  5
F6
330
6C
100
AcDbEntity
  8
Visible (ISO)
100
AcDbLine
 10
127.3446505263333
 20
55.53844843151147
 30
0.0
 11
127.7776632282255
 21
56.28844843151149
 31
0.0
  0
LINE
  5
F7
330
6C
100
AcDbEntity
  8
Visible (ISO)
100
AcDbLine
 10
127.3446505263333
 20
38.53844843151149
 30
0.0
 11
127.7776632282255
 21
37.78844843151149
 31
0.0
  0
LINE
  5
F8
330
6C
100
AcDbEntity
  8
Visible (ISO)
100
AcDbLine
 10
110.2776632282255
 20
43.38981855167986
 30
0.0
 11
132.4116378244411
 21
43.38981855167986
 31
0.0
  0
LINE
  5
F9
330
6C
100
AcDbEntity
  8
Visible (ISO)
100
AcDbLine
 10
110.2776632282255
 20
41.50154743925956
 30
0.0
 11
110.2776632282255
 21
43.38981855167986
 31
0.0
  0
LINE
  5
FA
330
6C
100
AcDbEntity
  8
Visible (ISO)
100
AcDbLine
 10
114.911637824441
 20
41.50154743925957
 30
0.0
 11
110.2776632282255
 21
41.50154743925957
 31
0.0
  0
LINE
  5
FB
330
6C
100
AcDbEntity
  8
Visible (ISO)
100
AcDbLine
 10
132.4116378244411
 20
50.68707831134311
 30
0.0
 11
110.2776632282255
 21
50.68707831134311
 31
0.0
  0
LINE
  5
FC
330
6C
100
AcDbEntity
  8
Visible (ISO)
100
AcDbLine
 10
110.2776632282255
 20
52.57534942376342
 30
0.0
 11
114.911637824441
 21
52.57534942376342
 31
0.0
  0
LINE
  5
FD
330
6C
100
AcDbEntity
  8
Visible (ISO)
100
AcDbLine
 10
110.2776632282255
 20
50.68707831134311
 30
0.0
 11
110.2776632282255
 21
52.57534942376342
 31
0.0
  0
LINE
  5
FE
330
6C
100
AcDbEntity
  8
Visible (ISO)
100
AcDbLine
 10
110.2776632282255
 20
37.78844843151149
 30
0.0
 11
110.2776632282255
 21
37.85291755942795
 31
0.0
  0
LINE
  5
FF
330
6C
100
AcDbEntity
  8
Visible (ISO)
100
AcDbLine
 10
110.2776632282255
 20
56.22397930359503
 30
0.0
 11
110.2776632282255
 21
56.28844843151149
 31
0.0
  0
LINE
  5
100
330
6C
100
AcDbEntity
  8
Visible (ISO)
100
AcDbLine
 10
114.9116378244411
 20
56.22397930359503
 30
0.0
 11
110.2776632282255
 21
56.22397930359503
 31
0.0
  0
LINE
  5
101
330
6C
100
AcDbEntity
  8
Visible (ISO)
100
AcDbLine
 10
110.2776632282255
 20
37.85291755942795
 30
0.0
 11
114.9116378244411
 21
37.85291755942795
 31
0.0
  0
LINE
  5
102
330
6C
100
AcDbEntity
  8
Visible (ISO)
100
AcDbLine
 10
110.2776632282255
 20
56.28844843151149
 30
0.0
 11
114.911637824441
 21
56.28844843151149
 31
0.0
  0
LINE
  5
103
330
6C
100
AcDbEntity
  8
Visible (ISO)
100
AcDbLine
 10
110.2776632282255
 20
37.78844843151149
 30
0.0
 11
114.911637824441
 21
37.78844843151149
 31
0.0
  0
LINE
  5
104
330
6C
100
AcDbEntity
  8
Visible (ISO)
100
AcDbLine
 10
114.9116378244411
 20
42.28844843151147
 30
0.0
 11
114.9116378244411
 21
41.50154743925957
 31
0.0
  0
LINE
  5
105
330
6C
100
AcDbEntity
  8
Visible (ISO)
100
AcDbLine
 10
115.3446505263333
 20
43.03844843151147
 30
0.0
 11
114.9116378244411
 21
42.28844843151147
 31
0.0
  0
LINE
  5
106
330
6C
100
AcDbEntity
  8
Visible (ISO)
100
AcDbLine
 10
114.9116378244411
 20
51.78844843151147
 30
0.0
 11
115.3446505263333
 21
51.0384484315115
 31
0.0
  0
LINE
  5
107
330
6C
100
AcDbEntity
  8
Visible (ISO)
100
AcDbLine
 10
114.9116378244411
 20
52.57534942376342
 30
0.0
 11
114.9116378244411
 21
51.7884484315115
 31
0.0
  0
LINE
  5
108
330
6C
100
AcDbEntity
  8
Visible (ISO)
100
AcDbLine
 10
114.9116378244411
 20
56.28844843151149
 30
0.0
 11
114.9116378244411
 21
56.22397930359503
 31
0.0
  0
SPLINE
  5
109
330
6C
100
AcDbEntity
  8
Visible (ISO)
100
AcDbSpline
210
0.0
220
0.0
230
1.0
 70
    12
 71
     2
 72
     6
 73
     3
 74
     0
 42
0.0000000001
 43
0.0000000001
 40
0.3847937513989829
 40
0.3847937513989829
 40
0.3847937513989829
 40
0.7911618380462635
 40
0.7911618380462635
 40
0.7911618380462635
 10
114.911637824441
 20
52.57534942376342
 30
0.0
 41
1.041774167103257
 10
115.3446505263333
 20
53.52604875864911
 30
0.0
 41
1.042945248861377
 10
115.3446505263333
 20
54.39966436367921
 30
0.0
 41
1.0
  0
SPLINE
  5
10A
330
6C
100
AcDbEntity
  8
Visible (ISO)
100
AcDbSpline
210
0.0
220
0.0
230
1.0
 70
    12
 71
     2
 72
     6
 73
     3
 74
     0
 42
0.0000000001
 43
0.0000000001
 40
0.7911618380462635
 40
0.7911618380462635
 40
0.7911618380462635
 40
1.197529924693542
 40
1.197529924693542
 40
1.197529924693542
 10
115.3446505263333
 20
54.39966436367921
 30
0.0
 41
1.0
 10
115.3446505263333
 20
55.27327996870932
 30
0.0
 41
1.042945248861377
 10
114.9116378244411
 20
56.22397930359503
 30
0.0
 41
1.041774167103255
  0
LINE
  5
10B
330
6C
100
AcDbEntity
  8
Visible (ISO)
100
AcDbLine
 10
115.3446505263333
 20
54.39966436367921
 30
0.0
 11
115.3446505263333
 21
55.53844843151147
 31
0.0
  0
LINE
  5
10C
330
6C
100
AcDbEntity
  8
Visible (ISO)
100
AcDbLine
 10
115.3446505263333
 20
51.0384484315115
 30
0.0
 11
115.3446505263333
 21
54.39966436367921
 31
0.0
  0
SPLINE
  5
10D
330
6C
100
AcDbEntity
  8
Visible (ISO)
100
AcDbSpline
210
0.0
220
0.0
230
1.0
 70
    12
 71
     2
 72
     6
 73
     3
 74
     0
 42
0.0000000001
 43
0.0000000001
 40
0.7911618380462631
 40
0.7911618380462631
 40
0.7911618380462631
 40
1.197529924693542
 40
1.197529924693542
 40
1.197529924693542
 10
115.3446505263333
 20
39.67723249934376
 30
0.0
 41
1.0
 10
115.3446505263333
 20
40.55084810437386
 30
0.0
 41
1.042945248861377
 10
114.911637824441
 20
41.50154743925957
 30
0.0
 41
1.041774167103257
  0
LINE
  5
10E
330
6C
100
AcDbEntity
  8
Visible (ISO)
100
AcDbLine
 10
115.3446505263333
 20
39.67723249934376
 30
0.0
 11
115.3446505263333
 21
43.03844843151149
 31
0.0
  0
SPLINE
  5
10F
330
6C
100
AcDbEntity
  8
Visible (ISO)
100
AcDbSpline
210
0.0
220
0.0
230
1.0
 70
    12
 71
     2
 72
     6
 73
     3
 74
     0
 42
0.0000000001
 43
0.0000000001
 40
0.384793751398983
 40
0.384793751398983
 40
0.384793751398983
 40
0.7911618380462631
 40
0.7911618380462631
 40
0.7911618380462631
 10
114.9116378244411
 20
37.85291755942795
 30
0.0
 41
1.041774167103258
 10
115.3446505263333
 20
38.80361689431366
 30
0.0
 41
1.04294524886138
 10
115.3446505263333
 20
39.67723249934376
 30
0.0
 41
1.0
  0
LINE
  5
110
330
6C
100
AcDbEntity
  8
Visible (ISO)
100
AcDbLine
 10
114.9116378244411
 20
37.85291755942795
 30
0.0
 11
114.9116378244411
 21
37.78844843151149
 31
0.0
  0
LINE
  5
111
330
6C
100
AcDbEntity
  8
Visible (ISO)
100
AcDbLine
 10
115.3446505263333
 20
38.53844843151149
 30
0.0
 11
115.3446505263333
 21
39.67723249934376
 31
0.0
  0
LINE
  5
112
330
6C
100
AcDbEntity
  8
Visible (ISO)
100
AcDbLine
 10
115.3446505263333
 20
55.53844843151147
 30
0.0
 11
114.9116378244411
 21
56.28844843151149
 31
0.0
  0
LINE
  5
113
330
6C
100
AcDbEntity
  8
Visible (ISO)
100
AcDbLine
 10
115.3446505263333
 20
38.53844843151149
 30
0.0
 11
114.9116378244411
 21
37.78844843151149
 31
0.0
  0
LINE
  5
114
330
6C
100
AcDbEntity
  8
Visible (ISO)
100
AcDbLine
 10
127.3446505263333
 20
43.03844843151147
 30
0.0
 11
115.3446505263333
 21
43.03844843151147
 31
0.0
  0
LINE
  5
115
330
6C
100
AcDbEntity
  8
Visible (ISO)
100
AcDbLine
 10
115.3446505263333
 20
51.0384484315115
 30
0.0
 11
127.3446505263333
 21
51.0384484315115
 31
0.0
  0
SPLINE
  5
116
330
6C
100
AcDbEntity
  8
Visible (ISO)
100
AcDbSpline
210
0.0
220
0.0
230
1.0
 70
    12
 71
     2
 72
     6
 73
     3
 74
     0
 42
0.0000000001
 43
0.0000000001
 40
0.4226777092670462
 40
0.4226777092670462
 40
0.4226777092670462
 40
0.8332926396892185
 40
0.8332926396892185
 40
0.8332926396892185
 10
110.2776632282255
 20
50.68707831134311
 30
0.0
 41
1.045413293158438
 10
109.8446505263333
 20
48.78567964157171
 30
0.0
 41
1.044765269262242
 10
109.8446505263333
 20
47.03844843151149
 30
0.0
 41
1.0
  0
SPLINE
  5
117
330
6C
100
AcDbEntity
  8
Visible (ISO)
100
AcDbSpline
210
0.0
220
0.0
230
1.0
 70
    12
 71
     2
 72
     6
 73
     3
 74
     0
 42
0.0000000001
 43
0.0000000001
 40
0.8332926396892185
 40
0.8332926396892185
 40
0.8332926396892185
 40
1.24390757011139
 40
1.24390757011139
 40
1.24390757011139
 10
109.8446505263333
 20
47.03844843151149
 30
0.0
 41
1.0
 10
109.8446505263333
 20
45.29121722145127
 30
0.0
 41
1.044765269262244
 10
110.2776632282255
 20
43.38981855167986
 30
0.0
 41
1.045413293158438
  0
SPLINE
  5
118
330
6C
100
AcDbEntity
  8
Visible (ISO)
100
AcDbSpline
210
0.0
220
0.0
230
1.0
 70
    12
 71
     2
 72
     6
 73
     3
 74
     0
 42
0.0000000001
 43
0.0000000001
 40
0.4226777092670475
 40
0.4226777092670475
 40
0.4226777092670475
 40
0.8332926396892188
 40
0.8332926396892188
 40
0.8332926396892188
 10
110.2776632282255
 20
41.50154743925957
 30
0.0
 41
1.045413293158431
 10
109.8446505263333
 20
40.55084810437386
 30
0.0
 41
1.044765269262237
 10
109.8446505263333
 20
39.67723249934376
 30
0.0
 41
1.0
  0
LINE
  5
119
330
6C
100
AcDbEntity
  8
Visible (ISO)
100
AcDbLine
 10
109.8446505263333
 20
47.03844843151148
 30
0.0
 11
109.8446505263333
 21
39.67723249934376
 31
0.0
  0
SPLINE
  5
11A
330
6C
100
AcDbEntity
  8
Visible (ISO)
100
AcDbSpline
210
0.0
220
0.0
230
1.0
 70
    12
 71
     2
 72
     6
 73
     3
 74
     0
 42
0.0000000001
 43
0.0000000001
 40
0.8332926396892188
 40
0.8332926396892188
 40
0.8332926396892188
 40
1.243907570111389
 40
1.243907570111389
 40
1.243907570111389
 10
109.8446505263333
 20
39.67723249934376
 30
0.0
 41
1.0
 10
109.8446505263333
 20
38.80361689431366
 30
0.0
 41
1.044765269262234
 10
110.2776632282255
 20
37.85291755942795
 30
0.0
 41
1.045413293158427
  0
LINE
  5
11B
330
6C
100
AcDbEntity
  8
Visible (ISO)
100
AcDbLine
 10
109.8446505263333
 20
39.67723249934376
 30
0.0
 11
109.8446505263333
 21
38.53844843151151
 31
0.0
  0
LINE
  5
11C
330
6C
100
AcDbEntity
  8
Visible (ISO)
100
AcDbLine
 10
109.8446505263333
 20
55.53844843151147
 30
0.0
 11
109.8446505263333
 21
54.39966436367922
 31
0.0
  0
SPLINE
  5
11D
330
6C
100
AcDbEntity
  8
Visible (ISO)
100
AcDbSpline
210
0.0
220
0.0
230
1.0
 70
    12
 71
     2
 72
     6
 73
     3
 74
     0
 42
0.0000000001
 43
0.0000000001
 40
0.4226777092670467
 40
0.4226777092670467
 40
0.4226777092670467
 40
0.8332926396892183
 40
0.8332926396892183
 40
0.8332926396892183
 10
110.2776632282255
 20
56.22397930359503
 30
0.0
 41
1.045413293158434
 10
109.8446505263333
 20
55.27327996870932
 30
0.0
 41
1.044765269262239
 10
109.8446505263333
 20
54.39966436367921
 30
0.0
 41
1.0
  0
SPLINE
  5
11E
330
6C
100
AcDbEntity
  8
Visible (ISO)
100
AcDbSpline
210
0.0
220
0.0
230
1.0
 70
    12
 71
     2
 72
     6
 73
     3
 74
     0
 42
0.0000000001
 43
0.0000000001
 40
0.8332926396892183
 40
0.8332926396892183
 40
0.8332926396892183
 40
1.243907570111389
 40
1.243907570111389
 40
1.243907570111389
 10
109.8446505263333
 20
54.39966436367921
 30
0.0
 41
1.0
 10
109.8446505263333
 20
53.52604875864911
 30
0.0
 41
1.044765269262239
 10
110.2776632282255
 20
52.57534942376342
 30
0.0
 41
1.045413293158434
  0
LINE
  5
11F
330
6C
100
AcDbEntity
  8
Visible (ISO)
100
AcDbLine
 10
109.8446505263333
 20
54.39966436367921
 30
0.0
 11
109.8446505263333
 21
47.03844843151149
 31
0.0
  0
LINE
  5
120
330
6C
100
AcDbEntity
  8
Visible (ISO)
100
AcDbLine
 10
109.8446505263333
 20
38.53844843151151
 30
0.0
 11
110.2776632282255
 21
37.78844843151149
 31
0.0
  0
LINE
  5
121
330
6C
100
AcDbEntity
  8
Visible (ISO)
100
AcDbLine
 10
109.8446505263333
 20
55.53844843151147
 30
0.0
 11
110.2776632282255
 21
56.28844843151149
 31
0.0
  0
LINE
  5
122
330
6C
100
AcDbEntity
  8
Visible (ISO)
100
AcDbLine
 10
116.2060324628193
 20
46.28898883362892
 30
0.0
 11
117.2981281746845
 21
49.34244032565914
 31
0.0
  0
ELLIPSE
  5
123
330
6C
100
AcDbEntity
  8
Visible (ISO)
100
AcDbEllipse
 10
117.8106174442436
 20
49.11497605080718
 30
0.0
 11
0.5653269642954283
 21
0.0000000000008308
 31
0.0
210
0.0
220
0.0
230
1.0
 40
0.9531667975378876
 41
0.4357918987539078
 42
2.705800754833092
  0
LINE
  5
124
330
6C
100
AcDbEntity
  8
Visible (ISO)
100
AcDbLine
 10
118.3231067138027
 20
49.34244032565924
 30
0.0
 11
119.4154569832982
 21
46.28827710171049
 31
0.0
  0
ELLIPSE
  5
125
330
6C
100
AcDbEntity
  8
Visible (ISO)
100
AcDbEllipse
 10
119.9722962484509
 20
46.46921824913395
 30
0.0
 11
-0.5883077352017581
 21
-0.0000000000000282
 31
0.0
210
0.0
220
0.0
230
1.0
 40
0.9531667975376029
 41
0.3285531705514044
 42
2.110876526947182
  0
LINE
  5
126
330
6C
100
AcDbEntity
  8
Visible (ISO)
100
AcDbLine
 10
120.2748068970416
 20
45.9882765981076
 30
0.0
 11
120.3109253188511
 21
46.00891684338879
 31
0.0
  0
LINE
  5
127
330
6C
100
AcDbEntity
  8
Visible (ISO)
100
AcDbLine
 10
120.3109253188511
 20
46.00891684338879
 30
0.0
 11
119.6204151905626
 21
44.69257418809267
 31
0.0
  0
ELLIPSE
  5
128
330
6C
100
AcDbEntity
  8
Visible (ISO)
100
AcDbEllipse
 10
119.5546403861826
 20
44.72392136791743
 30
0.0
 11
0.0735384669001882
 21
0.0000000000000271
 31
0.0
210
0.0
220
0.0
230
1.0
 40
0.9531667975395267
 41
3.962594650552751
 42
5.819537698179257
  0
ELLIPSE
  5
129
330
6C
100
AcDbEntity
  8
Visible (ISO)
100
AcDbEllipse
 10
117.8106174442436
 20
42.93878102877832
 30
0.0
 11
2.485600181227439
 21
-0.0000000000002831
 31
0.0
210
0.0
220
0.0
230
1.0
 40
0.9531667975375935
 41
0.8210019969645859
 42
2.320590656625419
  0
ELLIPSE
  5
12A
330
6C
100
AcDbEntity
  8
Visible (ISO)
100
AcDbEllipse
 10
116.0665945023046
 20
44.72392136791743
 30
0.0
 11
0.0735384669002225
 21
0.0000000000000042
 31
0.0
210
0.0
220
0.0
230
1.0
 40
0.9531667975374901
 41
3.605240262590537
 42
5.462183310214954
  0
LINE
  5
12B
330
6C
100
AcDbEntity
  8
Visible (ISO)
100
AcDbLine
 10
116.0008196979247
 20
44.69257418809266
 30
0.0
 11
115.3103095696361
 21
46.00891684338879
 31
0.0
  0
LINE
  5
12C
330
6C
100
AcDbEntity
  8
Visible (ISO)
100
AcDbLine
 10
115.3103095696361
 20
46.00891684338879
 30
0.0
 11
115.3550393300657
 21
45.98430155940468
 31
0.0
  0
ELLIPSE
  5
12D
330
6C
100
AcDbEntity
  8
Visible (ISO)
100
AcDbEllipse
 10
115.6491931976666
 20
46.46992998105236
 30
0.0
 11
-0.5883077352017625
 21
0.0000000000000488
 31
0.0
210
0.0
220
0.0
230
1.0
 40
0.9531667975375855
 41
1.047197551196687
 42
2.813039483038433
  0
LINE
  5
12E
330
6C
100
AcDbEntity
  8
Visible (ISO)
100
AcDbLine
 10
125.8658651251917
 20
46.32666894560808
 30
0.0
 11
125.8658651251917
 21
45.83107423195168
 31
0.0
  0
LINE
  5
12F
330
6C
100
AcDbEntity
  8
Visible (ISO)
100
AcDbLine
 10
125.8658651251917
 20
45.83107423195168
 30
0.0
 11
124.1281570851559
 21
45.83107423195168
 31
0.0
  0
ARC
  5
130
330
6C
100
AcDbEntity
  8
Visible (ISO)
100
AcDbCircle
 10
124.9161024607757
 20
46.07887158877987
 30
0.0
 40
0.8259911894273129
100
AcDbArc
 50
197.457603123722
 51
316.5096153456693
  0
LINE
  5
131
330
6C
100
AcDbEntity
  8
Visible (ISO)
100
AcDbLine
 10
125.515350709738
 20
45.51039733155526
 30
0.0
 11
125.8658651251917
 21
45.15988291610161
 31
0.0
  0
ARC
  5
132
330
6C
100
AcDbEntity
  8
Visible (ISO)
100
AcDbCircle
 10
124.9161024607757
 20
46.07887158877987
 30
0.0
 40
1.321585903083698
100
AcDbArc
 50
44.05655693703279
 51
315.9434430629681
  0
LINE
  5
133
330
6C
100
AcDbEntity
  8
Visible (ISO)
100
AcDbLine
 10
125.8658651251917
 20
46.99786026145813
 30
0.0
 11
125.515350709738
 21
46.64734584600449
 31
0.0
  0
ARC
  5
134
330
6C
100
AcDbEntity
  8
Visible (ISO)
100
AcDbCircle
 10
124.9161024607757
 20
46.07887158877987
 30
0.0
 40
0.8259911894273136
100
AcDbArc
 50
43.49038465433067
 51
162.5423968762779
  0
LINE
  5
135
330
6C
100
AcDbEntity
  8
Visible (ISO)
100
AcDbLine
 10
124.1281570851559
 20
46.32666894560808
 30
0.0
 11
125.8658651251917
 21
46.32666894560808
 31
0.0
  0
ARC
  5
136
330
6C
100
AcDbEntity
  8
Visible (ISO)
100
AcDbCircle
 10
122.1696726228935
 20
46.06934669860531
 30
0.0
 40
1.321585903083699
100
AcDbArc
 50
45.00000000000055
 51
315.0
  0
LINE
  5
137
330
6C
100
AcDbEntity
  8
Visible (ISO)
100
AcDbLine
 10
123.1041749768845
 20
47.00384905259634
 30
0.0
 11
122.7537365941379
 21
46.65341066984971
 31
0.0
  0
ARC
  5
138
330
6C
100
AcDbEntity
  8
Visible (ISO)
100
AcDbCircle
 10
122.1696726228935
 20
46.06934669860531
 30
0.0
 40
0.8259911894273129
100
AcDbArc
 50
45.0
 51
315.0
  0
LINE
  5
139
330
6C
100
AcDbEntity
  8
Visible (ISO)
100
AcDbLine
 10
122.7537365941379
 20
45.48528272736092
 30
0.0
 11
123.1041749768845
 21
45.13484434461427
 31
0.0
  0
LINE
  5
13A
330
6C
100
AcDbEntity
  8
Visible (ISO)
100
AcDbLine
 10
117.7413631896025
 20
47.08578609143557
 30
0.0
 11
117.4780222992441
 21
46.38296427481836
 31
0.0
  0
ELLIPSE
  5
13B
330
6C
100
AcDbEntity
  8
Visible (ISO)
100
AcDbEllipse
 10
117.8106174459969
 20
47.0622107850844
 30
0.0
 11
0.0735384669002193
 21
0.0000000000000001
 31
0.0
210
0.0
220
0.0
230
1.0
 40
0.9531667975375064
 41
0.3430239404206459
 42
2.798568713169143
  0
LINE
  5
13C
330
6C
100
AcDbEntity
  8
Visible (ISO)
100
AcDbLine
 10
118.1432125897476
 20
46.38296427457269
 30
0.0
 11
117.8798717023913
 21
47.08578609143557
 31
0.0
  0
ELLIPSE
  5
13D
330
6C
100
AcDbEntity
  8
Visible (ISO)
100
AcDbEllipse
 10
118.0739583333072
 20
46.35938896834435
 30
0.0
 11
0.0735384669002201
 21
0.0000000000000141
 31
0.0
210
0.0
220
0.0
230
1.0
 40
0.9531667975375228
 41
4.712388980384505
 42
6.626209245739198
  0
LINE
  5
13E
330
6C
100
AcDbEntity
  8
Visible (ISO)
100
AcDbLine
 10
117.5472765555924
 20
46.28929454335326
 30
0.0
 11
118.0739583333072
 21
46.28929454335326
 31
0.0
  0
ELLIPSE
  5
13F
330
6C
100
AcDbEntity
  8
Visible (ISO)
100
AcDbEllipse
 10
117.5472765555924
 20
46.35938896834435
 30
0.0
 11
-0.0735384669002224
 21
0.0000000000000012
 31
0.0
210
0.0
220
0.0
230
1.0
 40
0.9531667975374929
 41
5.940161364897998
 42
7.853981633974497
  0
SPLINE
  5
140
330
6C
100
AcDbEntity
  8
Visible (ISO)
100
AcDbSpline
210
0.0
220
0.0
230
1.0
 70
     8
 71
     3
 72
    22
 73
    18
 74
     0
 42
0.0000000001
 43
0.0000000001
 40
0.930303521037988
 40
0.930303521037988
 40
0.9303035210404583
 40
0.9303035210404583
 40
1.161283013875379
 40
1.161283013875379
 40
1.392262506710302
 40
1.392262506710302
 40
1.62643477439561
 40
1.62643477439561
 40
1.860607042080915
 40
1.860607042080915
 40
2.094779309766223
 40
2.094779309766223
 40
2.328951577451529
 40
2.328951577451529
 40
2.559931070286451
 40
2.559931070286451
 40
2.790910563121121
 40
2.790910563121121
 40
2.790910563121374
 40
2.790910563121374
 10
127.2446505263333
 20
55.53844843151147
 30
0.0
 10
127.2446505263333
 20
55.53844843151147
 30
0.0
 10
127.0850397884818
 20
55.4253288018015
 30
0.0
 10
126.4732672381216
 20
55.01907522821161
 30
0.0
 10
126.0223544844405
 20
54.72911076914314
 30
0.0
 10
125.0038153926592
 20
54.15532972643454
 30
0.0
 10
124.3596770803283
 20
53.82649982657518
 30
0.0
 10
122.9223347343502
 20
53.32147167259607
 30
0.0
 10
122.125224751951
 20
53.15727184782282
 30
0.0
 10
120.5640763007156
 20
53.15727184782282
 30
0.0
 10
119.7669663183164
 20
53.32147167259607
 30
0.0
 10
118.3296239723383
 20
53.82649982657518
 30
0.0
 10
117.6854856600074
 20
54.15532972643454
 30
0.0
 10
116.6669465682261
 20
54.72911076914314
 30
0.0
 10
116.2160338145449
 20
55.01907522821161
 30
0.0
 10
115.6042612641851
 20
55.42532880180129
 30
0.0
 10
115.4446505263337
 20
55.53844843151124
 30
0.0
 10
115.4446505263333
 20
55.53844843151147
 30
0.0
  0
LINE
  5
141
330
6C
100
AcDbEntity
  8
Visible (ISO)
100
AcDbLine
 10
115.4446505263333
 20
55.53844843151147
 30
0.0
 11
115.4446505263333
 21
57.5384484315115
 31
0.0
  0
LINE
  5
142
330
6C
100
AcDbEntity
  8
Visible (ISO)
100
AcDbLine
 10
127.2446505263333
 20
55.53844843151147
 30
0.0
 11
127.2446505263333
 21
57.5384484315115
 31
0.0
  0
LINE
  5
143
330
6C
100
AcDbEntity
  8
Visible (ISO)
100
AcDbLine
 10
145.3446505263333
 20
40.53844843151147
 30
0.0
 11
132.8446505263332
 21
40.53844843151147
 31
0.0
  0
LINE
  5
144
330
6C
100
AcDbEntity
  8
Visible (ISO)
100
AcDbLine
 10
145.3446505263333
 20
53.5384484315115
 30
0.0
 11
132.8446505263332
 21
53.5384484315115
 31
0.0
  0
LINE
  5
145
330
6C
100
AcDbEntity
  8
Visible (ISO)
100
AcDbLine
 10
127.3446505263333
 20
55.53844843151147
 30
0.0
 11
127.2446505263333
 21
55.53844843151147
 31
0.0
  0
LINE
  5
146
330
6C
100
AcDbEntity
  8
Visible (ISO)
100
AcDbLine
 10
115.4446505263333
 20
55.53844843151147
 30
0.0
 11
115.3446505263333
 21
55.53844843151147
 31
0.0
  0
LINE
  5
147
330
6C
100
AcDbEntity
  8
Visible (ISO)
100
AcDbLine
 10
127.3446505263333
 20
38.53844843151149
 30
0.0
 11
115.3446505263333
 21
38.53844843151149
 31
0.0
  0
LINE
  5
148
330
6C
100
AcDbEntity
  8
Visible (ISO)
100
AcDbLine
 10
124.8446505263333
 20
75.53844843151146
 30
0.0
 11
117.8446505263333
 21
75.53844843151146
 31
0.0
  0
LINE
  5
149
330
6C
100
AcDbEntity
  8
Visible (ISO)
100
AcDbLine
 10
124.8446505263333
 20
68.53844843151148
 30
0.0
 11
124.8446505263333
 21
63.53844843151151
 31
0.0
  0
LINE
  5
14A
330
6C
100
AcDbEntity
  8
Visible Narrow (ISO)
100
AcDbLine
 10
124.8446505263333
 20
68.5384484315115
 30
0.0
 11
117.8446505263333
 21
68.5384484315115
 31
0.0
  0
LINE
  5
14B
330
6C
100
AcDbEntity
  8
Visible (ISO)
100
AcDbLine
 10
117.8446505263333
 20
63.53844843151151
 30
0.0
 11
117.8446505263333
 21
68.53844843151148
 31
0.0
  0
LINE
  5
14C
330
6C
100
AcDbEntity
  8
Visible (ISO)
100
AcDbLine
 10
117.8446505263333
 20
63.53844843151151
 30
0.0
 11
124.8446505263333
 21
63.53844843151151
 31
0.0
  0
LINE
  5
14D
330
6C
100
AcDbEntity
  8
Visible (ISO)
100
AcDbLine
 10
124.8446505263333
 20
63.53844843151151
 30
0.0
 11
124.8446505263333
 21
63.29070318628243
 31
0.0
  0
SPLINE
  5
14E
330
6C
100
AcDbEntity
  8
Visible (ISO)
100
AcDbSpline
210
0.0
220
0.0
230
1.0
 70
     8
 71
     3
 72
    14
 73
    10
 74
     0
 42
0.0000000001
 43
0.0000000001
 40
0.0979815127343829
 40
0.0979815127343829
 40
0.0979815127343829
 40
0.0979815127343829
 40
0.1506624850332004
 40
0.1506624850332004
 40
0.3013249700664007
 40
0.3013249700664007
 40
0.4554237426914714
 40
0.4554237426914714
 40
0.5051911393277391
 40
0.5051911393277391
 40
0.5051911393277391
 40
0.5051911393277391
 10
115.9261904504662
 20
57.5384484315115
 30
0.0
 10
115.9376696433157
 20
57.71736049105339
 30
0.0
 10
115.9522630900879
 20
57.89405678815008
 30
0.0
 10
116.0193872568873
 20
58.55590121463415
 30
0.0
 10
116.0930334995847
 20
59.00224906484917
 30
0.0
 10
116.2562442560529
 20
59.71438471709278
 30
0.0
 10
116.3572526907438
 20
60.02503474640429
 30
0.0
 10
116.4944962488188
 20
60.29758781421758
 30
0.0
 10
116.5282808011106
 20
60.35371041228993
 30
0.0
 10
116.5617881962287
 20
60.39880218301867
 30
0.0
  0
ELLIPSE
  5
14F
330
6C
100
AcDbEntity
  8
Visible (ISO)
100
AcDbEllipse
 10
52.84465052633331
 20
63.88632286383593
 30
0.0
 11
-64.99999999999999
 21
-0.0000000000000034
 31
0.0
210
0.0
220
0.0
230
1.0
 40
0.2713992095570839
 41
2.942587086109377
 42
3.032609081529033
  0
SPLINE
  5
150
330
6C
100
AcDbEntity
  8
Visible (ISO)
100
AcDbSpline
210
0.0
220
0.0
230
1.0
 70
     8
 71
     3
 72
    10
 73
     6
 74
     0
 42
0.0000000001
 43
0.0000000001
 40
5.578615183636052
 40
5.578615183636052
 40
5.578615183636052
 40
5.578615183636052
 40
6.021510703961547
 40
6.021510703961547
 40
6.267952460891861
 40
6.267952460891861
 40
6.267952460891861
 40
6.267952460891861
 10
117.4590163312052
 20
61.96755287768532
 30
0.0
 10
117.6173119312381
 20
62.36019073394427
 30
0.0
 10
117.7320473550697
 20
62.68958190864531
 30
0.0
 10
117.8271573035019
 20
63.08235499987006
 30
0.0
 10
117.8446505263333
 20
63.19906617631296
 30
0.0
 10
117.8446505263333
 20
63.29070318628243
 30
0.0
  0
LINE
  5
151
330
6C
100
AcDbEntity
  8
Visible (ISO)
100
AcDbLine
 10
126.7631106022004
 20
57.5384484315115
 30
0.0
 11
123.9427267376866
 21
57.5384484315115
 31
0.0
  0
SPLINE
  5
152
330
6C
100
AcDbEntity
  8
Visible (ISO)
100
AcDbSpline
210
0.0
220
0.0
230
1.0
 70
     8
 71
     3
 72
    14
 73
    10
 74
     0
 42
0.0000000001
 43
0.0000000001
 40
1.926793397172414
 40
1.926793397172414
 40
1.926793397172414
 40
1.926793397172414
 40
1.97656079380868
 40
1.97656079380868
 40
2.130659566433751
 40
2.130659566433751
 40
2.281322051466951
 40
2.281322051466951
 40
2.334003023765769
 40
2.334003023765769
 40
2.334003023765769
 40
2.334003023765769
 10
126.1275128564378
 20
60.39880218301867
 30
0.0
 10
126.1610202515559
 20
60.35371041228993
 30
0.0
 10
126.1948048038477
 20
60.29758781421758
 30
0.0
 10
126.3320483619228
 20
60.02503474640429
 30
0.0
 10
126.4330567966137
 20
59.71438471709278
 30
0.0
 10
126.5962675530819
 20
59.00224906484917
 30
0.0
 10
126.6699137957793
 20
58.55590121463415
 30
0.0
 10
126.7370379625787
 20
57.89405678815008
 30
0.0
 10
126.7516314093509
 20
57.71736049105339
 30
0.0
 10
126.7631106022004
 20
57.5384484315115
 30
0.0
  0
LINE
  5
153
330
6C
100
AcDbEntity
  8
Visible Narrow (ISO)
100
AcDbLine
 10
126.1275128564378
 20
60.39880218301867
 30
0.0
 11
116.5617881962287
 21
60.39880218301867
 31
0.0
  0
LINE
  5
154
330
6C
100
AcDbEntity
  8
Visible (ISO)
100
AcDbLine
 10
118.7465743149799
 20
57.5384484315115
 30
0.0
 11
115.9261904504662
 21
57.5384484315115
 31
0.0
  0
ELLIPSE
  5
155
330
6C
100
AcDbEntity
  8
Visible (ISO)
100
AcDbEllipse
 10
189.8446505263333
 20
63.88632286383593
 30
0.0
 11
64.99999999999999
 21
-0.0000000000000022
 31
0.0
210
0.0
220
0.0
230
1.0
 40
0.2713992095570839
 41
3.250576225650544
 42
3.340598221070202
  0
LINE
  5
156
330
6C
100
AcDbEntity
  8
Visible Narrow (ISO)
100
AcDbLine
 10
125.2302847214613
 20
61.96755287768532
 30
0.0
 11
117.4590163312052
 21
61.96755287768532
 31
0.0
  0
SPLINE
  5
157
330
6C
100
AcDbEntity
  8
Visible (ISO)
100
AcDbSpline
210
0.0
220
0.0
230
1.0
 70
     8
 71
     3
 72
    10
 73
     6
 74
     0
 42
0.0000000001
 43
0.0000000001
 40
4.585290746366443
 40
4.585290746366443
 40
4.585290746366443
 40
4.585290746366443
 40
4.831732503296846
 40
4.831732503296846
 40
5.274628023622251
 40
5.274628023622251
 40
5.274628023622251
 40
5.274628023622251
 10
124.8446505263333
 20
63.29070318628243
 30
0.0
 10
124.8446505263333
 20
63.19906617631293
 30
0.0
 10
124.8621437491647
 20
63.08235499986999
 30
0.0
 10
124.957253697597
 20
62.6895819086452
 30
0.0
 10
125.0719891214285
 20
62.3601907339442
 30
0.0
 10
125.2302847214613
 20
61.96755287768532
 30
0.0
  0
LINE
  5
158
330
6C
100
AcDbEntity
  8
Visible (ISO)
100
AcDbLine
 10
117.8446505263333
 20
63.29070318628243
 30
0.0
 11
117.8446505263333
 21
63.5384484315115
 31
0.0
  0
LINE
  5
159
330
6C
100
AcDbEntity
  8
Visible (ISO)
100
AcDbLine
 10
124.8446505263333
 20
68.5384484315115
 30
0.0
 11
124.8446505263333
 21
75.53844843151146
 31
0.0
  0
SPLINE
  5
15A
330
6C
100
AcDbEntity
  8
Visible (ISO)
100
AcDbSpline
210
0.0
220
0.0
230
1.0
 70
     8
 71
     3
 72
    10
 73
     6
 74
     0
 42
0.0000000001
 43
0.0000000001
 40
1.75851045369192
 40
1.75851045369192
 40
1.75851045369192
 40
1.75851045369192
 40
1.769985036102441
 40
1.769985036102441
 40
1.77528265148158
 40
1.77528265148158
 40
1.77528265148158
 40
1.77528265148158
 10
128.0043727485555
 20
57.53844843151155
 30
0.0
 10
128.0161530206739
 20
57.53844843151155
 30
0.0
 10
128.0279370486852
 20
57.54473719811411
 30
0.0
 10
128.0447037916986
 20
57.56200444993377
 30
0.0
 10
128.049933910153
 20
57.56862817982872
 30
0.0
 10
128.0550741606861
 20
57.57626535531152
 30
0.0
  0
LINE
  5
15B
330
6C
100
AcDbEntity
  8
Visible (ISO)
100
AcDbLine
 10
128.0528544588326
 20
57.5384484315115
 30
0.0
 11
128.0043727485562
 21
57.5384484315115
 31
0.0
  0
SPLINE
  5
15C
330
6C
100
AcDbEntity
  8
Visible (ISO)
100
AcDbSpline
210
0.0
220
0.0
230
1.0
 70
     8
 71
     3
 72
     8
 73
     4
 74
     0
 42
0.0000000001
 43
0.0000000001
 40
-0.0038487373741095
 40
-0.0038487373741095
 40
-0.0038487373741095
 40
-0.0038487373741095
 40
0.0
 40
0.0
 40
0.0
 40
0.0
 10
128.0550741606861
 20
57.57626535531148
 30
0.0
 10
128.0543342654218
 20
57.56365963511026
 30
0.0
 10
128.0535943647544
 20
57.55105399294293
 30
0.0
 10
128.0528544588326
 20
57.5384484315115
 30
0.0
  0
SPLINE
  5
15D
330
6C
100
AcDbEntity
  8
Visible (ISO)
100
AcDbSpline
210
0.0
220
0.0
230
1.0
 70
     8
 71
     3
 72
    10
 73
     6
 74
     0
 42
0.0000000001
 43
0.0000000001
 40
1.741738255902264
 40
1.741738255902264
 40
1.741738255902264
 40
1.741738255902264
 40
1.747035871281401
 40
1.747035871281401
 40
1.758510453691922
 40
1.758510453691922
 40
1.758510453691922
 40
1.758510453691922
 10
114.6342268919805
 20
57.57626535531151
 30
0.0
 10
114.6393671425136
 20
57.56862817982871
 30
0.0
 10
114.644597260968
 20
57.56200444993365
 30
0.0
 10
114.6613640039813
 20
57.54473719811397
 30
0.0
 10
114.6731480319927
 20
57.5384484315115
 30
0.0
 10
114.6849283041111
 20
57.53844843151149
 30
0.0
  0
SPLINE
  5
15E
330
6C
100
AcDbEntity
  8
Visible (ISO)
100
AcDbSpline
210
0.0
220
0.0
230
1.0
 70
     8
 71
     3
 72
     8
 73
     4
 74
     0
 42
0.0000000001
 43
0.0000000001
 40
-0.0038487374224739
 40
-0.0038487374224739
 40
-0.0038487374224739
 40
-0.0038487374224739
 40
0.0
 40
0.0
 40
0.0
 40
0.0
 10
114.6364465938339
 20
57.5384484315115
 30
0.0
 10
114.6357066879089
 20
57.551053992999
 30
0.0
 10
114.6349667872381
 20
57.56365963522258
 30
0.0
 10
114.6342268919805
 20
57.57626535531149
 30
0.0
  0
LINE
  5
15F
330
6C
100
AcDbEntity
  8
Visible (ISO)
100
AcDbLine
 10
114.6849283041111
 20
57.5384484315115
 30
0.0
 11
114.6364465938342
 21
57.5384484315115
 31
0.0
  0
SPLINE
  5
160
330
6C
100
AcDbEntity
  8
Visible (ISO)
100
AcDbSpline
210
0.0
220
0.0
230
1.0
 70
     8
 71
     3
 72
    22
 73
    18
 74
     0
 42
0.0000000001
 43
0.0000000001
 40
1.758510453691922
 40
1.758510453691922
 40
1.758510453691922
 40
1.758510453691922
 40
1.769985036102444
 40
1.769985036102444
 40
1.781459618512965
 40
1.781459618512965
 40
1.804408783334005
 40
1.804408783334005
 40
1.879967807849264
 40
1.879967807849264
 40
1.955526832364521
 40
1.955526832364521
 40
2.150713591741938
 40
2.150713591741938
 40
2.345900351119353
 40
2.345900351119353
 40
2.573780108621498
 40
2.573780108621498
 40
2.573780108621498
 40
2.573780108621498
 10
114.6849283041111
 20
57.53844843151149
 30
0.0
 10
114.6967085762294
 20
57.53844843151149
 30
0.0
 10
114.708427168675
 20
57.54473719811435
 30
0.0
 10
114.7311229806056
 20
57.56836373847511
 30
0.0
 10
114.7421011775258
 20
57.58569204548493
 30
0.0
 10
114.7732875666338
 20
57.64914474658436
 30
0.0
 10
114.7918040118361
 20
57.70688103372322
 30
0.0
 10
114.8577079906723
 20
57.95231309238369
 30
0.0
 10
114.8946451937398
 20
58.19315992575425
 30
0.0
 10
114.9605280439638
 20
58.69211580369771
 30
0.0
 10
114.9881052582382
 20
58.95217881507257
 30
0.0
 10
115.070966093379
 20
59.80890074679486
 30
0.0
 10
115.1175870394878
 20
60.45078952300173
 30
0.0
 10
115.2026951954817
 20
61.76347784963915
 30
0.0
 10
115.2403509700554
 20
62.43488880654357
 30
0.0
 10
115.3162176293976
 20
63.91241474907161
 30
0.0
 10
115.3533416242304
 20
64.72202454152219
 30
0.0
 10
115.3880634009597
 20
65.5384484315115
 30
0.0
  0
LINE
  5
161
330
6C
100
AcDbEntity
  8
Visible (ISO)
100
AcDbLine
 10
115.9261904504662
 20
57.5384484315115
 30
0.0
 11
114.6849283041111
 21
57.5384484315115
 31
0.0
  0
LINE
  5
162
330
6C
100
AcDbEntity
  8
Visible (ISO)
100
AcDbLine
 10
115.1679026856774
 20
66.53319200950214
 30
0.0
 11
117.8446505263333
 21
66.53319200950214
 31
0.0
  0
SPLINE
  5
163
330
6C
100
AcDbEntity
  8
Visible (ISO)
100
AcDbSpline
210
0.0
220
0.0
230
1.0
 70
     8
 71
     3
 72
    10
 73
     6
 74
     0
 42
0.0000000001
 43
0.0000000001
 40
1.026679612955202
 40
1.026679612955202
 40
1.026679612955202
 40
1.026679612955202
 40
1.0549869503969
 40
1.0549869503969
 40
1.150372975748468
 40
1.150372975748468
 40
1.150372975748468
 40
1.150372975748468
 10
115.3880634009597
 20
65.5384484315115
 30
0.0
 10
115.3735770187561
 20
65.61705369105649
 30
0.0
 10
115.358784377037
 20
65.69470201689772
 30
0.0
 10
115.2926098451658
 20
66.02933523981542
 30
0.0
 10
115.2339526523975
 20
66.29398514501229
 30
0.0
 10
115.1679026856774
 20
66.53319200950214
 30
0.0
  0
SPLINE
  5
164
330
6C
100
AcDbEntity
  8
Visible (ISO)
100
AcDbSpline
210
0.0
220
0.0
230
1.0
 70
     8
 71
     3
 72
    22
 73
    18
 74
     0
 42
0.0000000001
 43
0.0000000001
 40
0.9432407987623507
 40
0.9432407987623507
 40
0.9432407987623507
 40
0.9432407987623507
 40
1.171120556264495
 40
1.171120556264495
 40
1.366307315641912
 40
1.366307315641912
 40
1.561494075019328
 40
1.561494075019328
 40
1.637053099534583
 40
1.637053099534583
 40
1.712612124049838
 40
1.712612124049838
 40
1.735561288870879
 40
1.735561288870879
 40
1.7470358712814
 40
1.7470358712814
 40
1.75851045369192
 40
1.75851045369192
 40
1.75851045369192
 40
1.75851045369192
 10
127.3012376517068
 20
65.5384484315115
 30
0.0
 10
127.3359594284362
 20
64.72202454152219
 30
0.0
 10
127.3730834232689
 20
63.91241474907161
 30
0.0
 10
127.4489500826112
 20
62.43488880654357
 30
0.0
 10
127.4866058571849
 20
61.76347784963915
 30
0.0
 10
127.5717140131788
 20
60.45078952300172
 30
0.0
 10
127.6183349592875
 20
59.80890074679486
 30
0.0
 10
127.7011957944283
 20
58.95217881507257
 30
0.0
 10
127.7287730087028
 20
58.69211580369771
 30
0.0
 10
127.7946558589268
 20
58.19315992575429
 30
0.0
 10
127.8315930619943
 20
57.95231309238372
 30
0.0
 10
127.8974970408305
 20
57.70688103372328
 30
0.0
 10
127.9160134860328
 20
57.64914474658436
 30
0.0
 10
127.9471998751407
 20
57.58569204548493
 30
0.0
 10
127.958178072061
 20
57.56836373847509
 30
0.0
 10
127.9808738839915
 20
57.54473719811432
 30
0.0
 10
127.9925924764371
 20
57.53844843151155
 30
0.0
 10
128.0043727485555
 20
57.53844843151155
 30
0.0
  0
SPLINE
  5
165
330
6C
100
AcDbEntity
  8
Visible (ISO)
100
AcDbSpline
210
0.0
220
0.0
230
1.0
 70
     8
 71
     3
 72
    10
 73
     6
 74
     0
 42
0.0000000001
 43
0.0000000001
 40
1.527849395011701
 40
1.527849395011701
 40
1.527849395011701
 40
1.527849395011701
 40
1.623235420363269
 40
1.623235420363269
 40
1.651542757804969
 40
1.651542757804969
 40
1.651542757804969
 40
1.651542757804969
 10
127.5213983669891
 20
66.53319200950214
 30
0.0
 10
127.4553484002691
 20
66.29398514501229
 30
0.0
 10
127.3966912075008
 20
66.02933523981544
 30
0.0
 10
127.3305166756296
 20
65.69470201689775
 30
0.0
 10
127.3157240339105
 20
65.61705369105651
 30
0.0
 10
127.3012376517068
 20
65.5384484315115
 30
0.0
  0
LINE
  5
166
330
6C
100
AcDbEntity
  8
Visible (ISO)
100
AcDbLine
 10
124.8446505263333
 20
66.53319200950214
 30
0.0
 11
127.5213983669892
 21
66.53319200950214
 31
0.0
  0
LINE
  5
167
330
6C
100
AcDbEntity
  8
Visible (ISO)
100
AcDbLine
 10
128.0043727485555
 20
57.5384484315115
 30
0.0
 11
126.7631106022004
 21
57.5384484315115
 31
0.0
  0
LINE
  5
168
330
6C
100
AcDbEntity
  8
Visible (ISO)
100
AcDbLine
 10
117.8446505263333
 20
68.5384484315115
 30
0.0
 11
117.8446505263333
 21
75.53844843151146
 31
0.0
  0
SPLINE
  5
169
330
6C
100
AcDbEntity
  8
Visible (ISO)
100
AcDbSpline
210
0.0
220
0.0
230
1.0
 70
     8
 71
     3
 72
    22
 73
    18
 74
     0
 42
0.0000000001
 43
0.0000000001
 40
0.080169667649563
 40
0.080169667649563
 40
0.080169667649563
 40
0.080169667649563
 40
0.1449225509834109
 40
0.1449225509834109
 40
0.2230755465214004
 40
0.2230755465214004
 40
0.2985369780978444
 40
0.2985369780978444
 40
0.3739984096742883
 40
0.3739984096742883
 40
0.4494598412507325
 40
0.4494598412507325
 40
0.5249212728271763
 40
0.5249212728271763
 40
0.6030742683651658
 40
0.6030742683651658
 40
0.6678271516990138
 40
0.6678271516990138
 40
0.6678271516990138
 40
0.6678271516990138
 10
118.7465743149799
 20
57.5384484315115
 30
0.0
 10
118.8449524519099
 20
57.73742498611643
 30
0.0
 10
118.9828467090656
 20
57.91453975615237
 30
0.0
 10
119.3163435988839
 20
58.22920657337306
 30
0.0
 10
119.5714436085866
 20
58.39008678477643
 30
0.0
 10
120.0274725277782
 20
58.59325265753965
 30
0.0
 10
120.2859590604936
 20
58.67229427442378
 30
0.0
 10
120.8188097605224
 20
58.77329069308448
 30
0.0
 10
121.0931124210785
 20
58.79566977902644
 30
0.0
 10
121.5961886315881
 20
58.79566977902644
 30
0.0
 10
121.8704912921442
 20
58.77329069308448
 30
0.0
 10
122.403341992173
 20
58.67229427442378
 30
0.0
 10
122.6618285248883
 20
58.59325265753965
 30
0.0
 10
123.11785744408
 20
58.39008678477643
 30
0.0
 10
123.3729574537826
 20
58.22920657337306
 30
0.0
 10
123.7064543436009
 20
57.91453975615237
 30
0.0
 10
123.8443486007567
 20
57.73742498611643
 30
0.0
 10
123.9427267376866
 20
57.5384484315115
 30
0.0
  0
LINE
  5
16A
330
6C
100
AcDbEntity
  8
Visible (ISO)
100
AcDbLine
 10
118.7465743149799
 20
57.5384484315115
 30
0.0
 11
123.9427267376866
 21
57.5384484315115
 31
0.0
  0
LINE
  5
16B
330
6C
100
AcDbEntity
  8
Visible (ISO)
100
AcDbLine
 10
114.3446505263333
 20
57.5384484315115
 30
0.0
 11
114.6364465938339
 21
57.5384484315115
 31
0.0
  0
LINE
  5
16C
330
6C
100
AcDbEntity
  8
Visible (ISO)
100
AcDbLine
 10
128.0528544588326
 20
57.5384484315115
 30
0.0
 11
128.3446505263333
 21
57.5384484315115
 31
0.0
  0
LINE
  5
16D
330
6C
100
AcDbEntity
  8
Visible (ISO)
100
AcDbLine
 10
115.8446505263333
 20
73.53844843151148
 30
0.0
 11
117.8446505263333
 21
73.53844843151148
 31
0.0
  0
LINE
  5
16E
330
6C
100
AcDbEntity
  8
Visible (ISO)
100
AcDbLine
 10
124.8446505263333
 20
73.53844843151148
 30
0.0
 11
126.8446505263333
 21
73.53844843151148
 31
0.0
  0
LINE
  5
16F
330
6C
100
AcDbEntity
  8
Visible (ISO)
100
AcDbLine
 10
113.8946505263333
 20
65.5384484315115
 30
0.0
 11
115.3880634009597
 21
65.5384484315115
 31
0.0
  0
LINE
  5
170
330
6C
100
AcDbEntity
  8
Visible (ISO)
100
AcDbLine
 10
127.3012376517068
 20
65.5384484315115
 30
0.0
 11
128.7946505263333
 21
65.5384484315115
 31
0.0
  0
LINE
  5
171
330
6C
100
AcDbEntity
  8
Visible (ISO)
100
AcDbLine
 10
126.8446505263333
 20
73.53844843151148
 30
0.0
 11
128.7946505263333
 21
65.5384484315115
 31
0.0
  0
LINE
  5
172
330
6C
100
AcDbEntity
  8
Visible (ISO)
100
AcDbLine
 10
115.8446505263333
 20
73.53844843151148
 30
0.0
 11
113.8946505263333
 21
65.5384484315115
 31
0.0
  0
LINE
  5
173
330
6C
100
AcDbEntity
  8
Visible (ISO)
100
AcDbLine
 10
114.3446505263333
 20
57.5384484315115
 30
0.0
 11
113.8946505263333
 21
65.5384484315115
 31
0.0
  0
LINE
  5
174
330
6C
100
AcDbEntity
  8
Visible (ISO)
100
AcDbLine
 10
128.3446505263333
 20
57.5384484315115
 30
0.0
 11
128.7946505263333
 21
65.5384484315115
 31
0.0
  0
LINE
  5
175
330
6C
100
AcDbEntity
  8
Visible (ISO)
100
AcDbLine
 10
124.8446505263333
 20
74.33844843151149
 30
0.0
 11
126.3446505263333
 21
74.33844843151149
 31
0.0
  0
LINE
  5
176
330
6C
100
AcDbEntity
  8
Visible Narrow (ISO)
100
AcDbLine
 10
126.8446505263333
 20
73.83844843151149
 30
0.0
 11
124.8446505263333
 21
73.83844843151149
 31
0.0
  0
LINE
  5
177
330
6C
100
AcDbEntity
  8
Visible (ISO)
100
AcDbLine
 10
116.3446505263333
 20
74.33844843151149
 30
0.0
 11
117.8446505263333
 21
74.33844843151149
 31
0.0
  0
LINE
  5
178
330
6C
100
AcDbEntity
  8
Visible Narrow (ISO)
100
AcDbLine
 10
117.8446505263333
 20
73.83844843151149
 30
0.0
 11
115.8446505263333
 21
73.83844843151149
 31
0.0
  0
ARC
  5
179
330
6C
100
AcDbEntity
  8
Visible (ISO)
100
AcDbCircle
 10
126.3446505263333
 20
73.83844843151149
 30
0.0
 40
0.5
100
AcDbArc
 50
0.0
 51
90.0
  0
ARC
  5
17A
330
6C
100
AcDbEntity
  8
Visible (ISO)
100
AcDbCircle
 10
116.3446505263333
 20
73.83844843151149
 30
0.0
 40
0.5
100
AcDbArc
 50
90.0
 51
180.0
  0
LINE
  5
17B
330
6C
100
AcDbEntity
  8
Visible (ISO)
100
AcDbLine
 10
126.8446505263333
 20
73.5384484315115
 30
0.0
 11
124.8446505263333
 21
73.53844843151148
 31
0.0
  0
LINE
  5
17C
330
6C
100
AcDbEntity
  8
Visible (ISO)
100
AcDbLine
 10
117.8446505263333
 20
73.53844843151148
 30
0.0
 11
115.8446505263333
 21
73.5384484315115
 31
0.0
  0
LINE
  5
17D
330
6C
100
AcDbEntity
  8
Visible (ISO)
100
AcDbLine
 10
126.8446505263333
 20
73.83844843151149
 30
0.0
 11
126.8446505263333
 21
73.5384484315115
 31
0.0
  0
LINE
  5
17E
330
6C
100
AcDbEntity
  8
Visible (ISO)
100
AcDbLine
 10
115.8446505263333
 20
73.83844843151149
 30
0.0
 11
115.8446505263333
 21
73.5384484315115
 31
0.0
  0
SPLINE
  5
17F
330
6C
100
AcDbEntity
  8
Visible (ISO)
100
AcDbSpline
210
0.0
220
0.0
230
1.0
 70
    12
 71
     2
 72
     6
 73
     3
 74
     0
 42
0.0000000001
 43
0.0000000001
 40
0.0906100100638158
 40
0.0906100100638158
 40
0.0906100100638158
 40
1.118728652180966
 40
1.118728652180966
 40
1.118728652180966
 10
108.941123580481
 20
51.94592571962328
 30
0.0
 41
1.030578586555895
 10
110.3577902471476
 20
54.39966436367917
 30
0.0
 41
1.190009648738221
 10
108.941123580481
 20
56.85340300773511
 30
0.0
 41
1.030578586555895
  0
SPLINE
  5
180
330
6C
100
AcDbEntity
  8
Visible (ISO)
100
AcDbSpline
210
0.0
220
0.0
230
1.0
 70
    12
 71
     2
 72
     6
 73
     3
 74
     0
 42
0.0000000001
 43
0.0000000001
 40
0.0906100100638164
 40
0.0906100100638164
 40
0.0906100100638164
 40
1.118728652180966
 40
1.118728652180966
 40
1.118728652180966
 10
108.941123580481
 20
42.13097114339961
 30
0.0
 41
1.030578586555895
 10
110.3577902471477
 20
47.03844843151144
 30
0.0
 41
1.19000964873822
 10
108.941123580481
 20
51.94592571962328
 30
0.0
 41
1.030578586555895
  0
SPLINE
  5
181
330
6C
100
AcDbEntity
  8
Visible (ISO)
100
AcDbSpline
210
0.0
220
0.0
230
1.0
 70
    12
 71
     2
 72
     6
 73
     3
 74
     0
 42
0.0000000001
 43
0.0000000001
 40
0.0906100100638158
 40
0.0906100100638158
 40
0.0906100100638158
 40
1.118728652180965
 40
1.118728652180965
 40
1.118728652180965
 10
108.941123580481
 20
37.22349385528782
 30
0.0
 41
1.030578586555895
 10
110.3577902471477
 20
39.67723249934373
 30
0.0
 41
1.190009648738221
 10
108.941123580481
 20
42.13097114339961
 30
0.0
 41
1.030578586555895
  0
LINE
  5
182
330
6C
100
AcDbEntity
  8
Visible (ISO)
100
AcDbLine
 10
109.8446505263333
 20
38.78844843151146
 30
0.0
 11
108.941123580481
 21
37.22349385528782
 31
0.0
  0
LINE
  5
183
330
6C
100
AcDbEntity
  8
Visible (ISO)
100
AcDbLine
 10
109.8446505263332
 20
55.28844843151148
 30
0.0
 11
108.941123580481
 21
56.85340300773511
 31
0.0
  0
LINE
  5
184
330
6C
100
AcDbEntity
  8
Visible (ISO)
100
AcDbLine
 10
108.941123580481
 20
51.94592571962328
 30
0.0
 11
97.74817747218556
 21
51.94592571962324
 31
0.0
  0
LINE
  5
185
330
6C
100
AcDbEntity
  8
Visible (ISO)
100
AcDbLine
 10
108.941123580481
 20
42.13097114339961
 30
0.0
 11
97.74817747218556
 21
42.13097114339959
 31
0.0
  0
LINE
  5
186
330
6C
100
AcDbEntity
  8
Visible (ISO)
100
AcDbLine
 10
108.941123580481
 20
56.85340300773511
 30
0.0
 11
97.74817747218552
 21
56.8534030077351
 31
0.0
  0
LINE
  5
187
330
6C
100
AcDbEntity
  8
Visible (ISO)
100
AcDbLine
 10
108.941123580481
 20
37.22349385528782
 30
0.0
 11
97.74817747218559
 21
37.22349385528779
 31
0.0
  0
SPLINE
  5
188
330
6C
100
AcDbEntity
  8
Visible (ISO)
100
AcDbSpline
210
0.0
220
0.0
230
1.0
 70
    12
 71
     2
 72
     6
 73
     3
 74
     0
 42
0.0000000001
 43
0.0000000001
 40
0.0906100100638165
 40
0.0906100100638165
 40
0.0906100100638165
 40
1.118728652180968
 40
1.118728652180968
 40
1.118728652180968
 10
97.74817747218556
 20
51.94592571962324
 30
0.0
 41
1.030578586555895
 10
96.33151080551892
 20
47.03844843151141
 30
0.0
 41
1.19000964873822
 10
97.74817747218556
 20
42.13097114339959
 30
0.0
 41
1.030578586555895
  0
SPLINE
  5
189
330
6C
100
AcDbEntity
  8
Visible (ISO)
100
AcDbSpline
210
0.0
220
0.0
230
1.0
 70
    12
 71
     2
 72
     6
 73
     3
 74
     0
 42
0.0000000001
 43
0.0000000001
 40
0.0906100100638162
 40
0.0906100100638162
 40
0.0906100100638162
 40
1.118728652180968
 40
1.118728652180968
 40
1.118728652180968
 10
97.74817747218556
 20
56.8534030077351
 30
0.0
 41
1.030578586555895
 10
96.33151080551886
 20
54.39966436367914
 30
0.0
 41
1.19000964873822
 10
97.74817747218556
 20
51.94592571962324
 30
0.0
 41
1.030578586555895
  0
SPLINE
  5
18A
330
6C
100
AcDbEntity
  8
Visible (ISO)
100
AcDbSpline
210
0.0
220
0.0
230
1.0
 70
    12
 71
     2
 72
     6
 73
     3
 74
     0
 42
0.0000000001
 43
0.0000000001
 40
0.090610010063817
 40
0.090610010063817
 40
0.090610010063817
 40
1.118728652180966
 40
1.118728652180966
 40
1.118728652180966
 10
97.74817747218556
 20
42.13097114339959
 30
0.0
 41
1.030578586555894
 10
96.33151080551892
 20
39.67723249934369
 30
0.0
 41
1.190009648738215
 10
97.74817747218556
 20
37.22349385528779
 30
0.0
 41
1.030578586555894
  0
LINE
  5
18B
330
6C
100
AcDbEntity
  8
Visible (ISO)
100
AcDbLine
 10
96.84465052633328
 20
55.28844843151144
 30
0.0
 11
96.84465052633331
 21
38.78844843151142
 31
0.0
  0
LINE
  5
18C
330
6C
100
AcDbEntity
  8
Visible (ISO)
100
AcDbLine
 10
96.84465052633328
 20
55.28844843151144
 30
0.0
 11
97.74817747218556
 21
56.85340300773508
 31
0.0
  0
LINE
  5
18D
330
6C
100
AcDbEntity
  8
Visible (ISO)
100
AcDbLine
 10
96.84465052633335
 20
38.78844843151142
 30
0.0
 11
97.74817747218559
 21
37.22349385528779
 31
0.0
  0
SPLINE
  5
18E
330
6C
100
AcDbEntity
  8
Visible (ISO)
100
AcDbSpline
210
0.0
220
0.0
230
1.0
 70
    28
 71
     2
 72
     6
 73
     3
 74
     0
 42
0.0000000001
 43
0.0000000001
 40
0.0906100100638158
 40
0.0906100100638158
 40
0.0906100100638158
 40
0.3520946063717688
 40
0.3520946063717688
 40
0.3520946063717688
 10
121.3446505263333
 20
37.22349385528787
 30
0.0
 41
1.030578586555895
 10
120.1437660009941
 20
37.91682485925812
 30
0.0
 41
1.071127182044687
 10
119.0670823906687
 20
38.53844843151151
 30
0.0
 41
1.09105007795389
  0
SPLINE
  5
18F
330
6C
100
AcDbEntity
  8
Visible (ISO)
100
AcDbSpline
210
0.0
220
0.0
230
1.0
 70
    28
 71
     2
 72
     6
 73
     3
 74
     0
 42
0.0000000001
 43
0.0000000001
 40
0.8572440558730145
 40
0.8572440558730145
 40
0.8572440558730145
 40
1.118728652180965
 40
1.118728652180965
 40
1.118728652180965
 10
123.6222186619978
 20
38.53844843151151
 30
0.0
 41
1.091050077953889
 10
122.5455350516725
 20
37.91682485925814
 30
0.0
 41
1.071127182044685
 10
121.3446505263333
 20
37.22349385528787
 30
0.0
 41
1.030578586555895
  0
LINE
  5
190
330
6C
100
AcDbEntity
  8
Visible (ISO)
100
AcDbLine
 10
145.3446505263757
 20
119.504573681282
 30
0.0
 11
145.3446505263757
 21
132.504573681282
 31
0.0
  0
LINE
  5
191
330
6C
100
AcDbEntity
  8
Visible (ISO)
100
AcDbLine
 10
145.8446505263757
 20
132.004573681282
 30
0.0
 11
145.8446505263757
 21
120.004573681282
 31
0.0
  0
LINE
  5
192
330
6C
100
AcDbEntity
  8
Visible (ISO)
100
AcDbLine
 10
145.8446505263757
 20
120.004573681282
 30
0.0
 11
145.3446505263757
 21
119.504573681282
 31
0.0
  0
LINE
  5
193
330
6C
100
AcDbEntity
  8
Visible (ISO)
100
AcDbLine
 10
145.8446505263757
 20
132.004573681282
 30
0.0
 11
145.3446505263757
 21
132.504573681282
 31
0.0
  0
SPLINE
  5
194
330
6C
100
AcDbEntity
  8
Visible (ISO)
100
AcDbSpline
210
0.0
220
0.0
230
1.0
 70
    12
 71
     2
 72
     6
 73
     3
 74
     0
 42
0.0000000001
 43
0.0000000001
 40
0.4256073096284686
 40
0.4256073096284686
 40
0.4256073096284686
 40
0.8365524254088844
 40
0.8365524254088844
 40
0.8365524254088844
 10
132.4116378244835
 20
118.5947675163425
 30
0.0
 41
1.045691116018839
 10
132.8446505263757
 20
120.2414270670866
 30
0.0
 41
1.044904085362824
 10
132.8446505263757
 20
121.7545736812841
 30
0.0
 41
1.0
  0
SPLINE
  5
195
330
6C
100
AcDbEntity
  8
Visible (ISO)
100
AcDbSpline
210
0.0
220
0.0
230
1.0
 70
    12
 71
     2
 72
     6
 73
     3
 74
     0
 42
0.0000000001
 43
0.0000000001
 40
0.4256073096284702
 40
0.4256073096284702
 40
0.4256073096284702
 40
0.8365524254088839
 40
0.8365524254088839
 40
0.8365524254088839
 10
132.4116378244835
 20
127.0947675163435
 30
0.0
 41
1.04569111601883
 10
132.8446505263757
 20
128.7414270670872
 30
0.0
 41
1.044904085362817
 10
132.8446505263757
 20
130.2545736812841
 30
0.0
 41
1.0
  0
LINE
  5
196
330
6C
100
AcDbEntity
  8
Visible (ISO)
100
AcDbLine
 10
132.4116378244835
 20
127.0947675163435
 30
0.0
 11
132.4116378244835
 21
124.9143798462258
 31
0.0
  0
SPLINE
  5
197
330
6C
100
AcDbEntity
  8
Visible (ISO)
100
AcDbSpline
210
0.0
220
0.0
230
1.0
 70
    12
 71
     2
 72
     6
 73
     3
 74
     0
 42
0.0000000001
 43
0.0000000001
 40
0.8365524254088844
 40
0.8365524254088844
 40
0.8365524254088844
 40
1.2474975411893
 40
1.2474975411893
 40
1.2474975411893
 10
132.8446505263757
 20
121.7545736812841
 30
0.0
 41
1.0
 10
132.8446505263757
 20
123.2677202954816
 30
0.0
 41
1.04490408536282
 10
132.4116378244835
 20
124.9143798462258
 30
0.0
 41
1.045691116018834
  0
SPLINE
  5
198
330
6C
100
AcDbEntity
  8
Visible (ISO)
100
AcDbSpline
210
0.0
220
0.0
230
1.0
 70
    12
 71
     2
 72
     6
 73
     3
 74
     0
 42
0.0000000001
 43
0.0000000001
 40
0.8365524254088839
 40
0.8365524254088839
 40
0.8365524254088839
 40
1.247497541189297
 40
1.247497541189297
 40
1.247497541189297
 10
132.8446505263757
 20
130.2545736812841
 30
0.0
 41
1.0
 10
132.8446505263757
 20
131.7677202954812
 30
0.0
 41
1.044904085362815
 10
132.4116378244835
 20
133.4143798462247
 30
0.0
 41
1.04569111601883
  0
LINE
  5
199
330
6C
100
AcDbEntity
  8
Visible (ISO)
100
AcDbLine
 10
127.7776632282679
 20
118.5947675163425
 30
0.0
 11
132.4116378244835
 21
118.5947675163425
 31
0.0
  0
LINE
  5
19A
330
6C
100
AcDbEntity
  8
Visible (ISO)
100
AcDbLine
 10
127.7776632282679
 20
118.0673197480896
 30
0.0
 11
127.7776632282679
 21
118.5947675163425
 31
0.0
  0
ELLIPSE
  5
19B
330
6C
100
AcDbEntity
  8
Visible (ISO)
100
AcDbEllipse
 10
125.0352494496171
 20
126.004573681282
 30
0.0
 11
0.0
 21
-9.25
 31
0.0
210
0.0
220
0.0
230
1.0
 40
0.577350269189626
 41
0.4471887452263418
 42
0.5392744123179991
  0
LINE
  5
19C
330
6C
100
AcDbEntity
  8
Visible (ISO)
100
AcDbLine
 10
132.4116378244835
 20
124.9143798462258
 30
0.0
 11
128.7144522470462
 21
124.9143798462258
 31
0.0
  0
SPLINE
  5
19D
330
6C
100
AcDbEntity
  8
Visible (ISO)
100
AcDbSpline
210
0.0
220
0.0
230
1.0
 70
    12
 71
     2
 72
     6
 73
     3
 74
     0
 42
0.0000000001
 43
0.0000000001
 40
0.8123858579521067
 40
0.8123858579521067
 40
0.8123858579521067
 40
1.197529924693543
 40
1.197529924693543
 40
1.197529924693543
 10
127.3458757024097
 20
121.5900752515034
 30
0.0
 41
1.004365595477415
 10
127.3672420868604
 20
120.1555159409789
 30
0.0
 41
1.042884084947768
 10
127.7776632282679
 20
118.5947675163425
 30
0.0
 41
1.041774167103257
  0
LINE
  5
19E
330
6C
100
AcDbEntity
  8
Visible (ISO)
100
AcDbLine
 10
128.7144522470462
 20
127.0947675163435
 30
0.0
 11
132.4116378244835
 21
127.0947675163435
 31
0.0
  0
LINE
  5
19F
330
6C
100
AcDbEntity
  8
Visible (ISO)
100
AcDbLine
 10
132.4116378244835
 20
133.4143798462247
 30
0.0
 11
127.7938929161451
 21
133.4143798462247
 31
0.0
  0
SPLINE
  5
1A0
330
6C
100
AcDbEntity
  8
Visible (ISO)
100
AcDbSpline
210
0.0
220
0.0
230
1.0
 70
    12
 71
     2
 72
     6
 73
     3
 74
     0
 42
0.0000000001
 43
0.0000000001
 40
0.3932061578396785
 40
0.3932061578396785
 40
0.3932061578396785
 40
0.7699378181404222
 40
0.7699378181404222
 40
0.7699378181404222
 10
127.7599090279986
 20
133.3462417822411
 30
0.0
 41
1.041803747226504
 10
127.366792271416
 20
131.8234303861516
 30
0.0
 41
1.042042755126312
 10
127.3458757024097
 20
130.4190721110648
 30
0.0
 41
1.004365595477415
  0
LINE
  5
1A1
330
6C
100
AcDbEntity
  8
Visible (ISO)
100
AcDbLine
 10
127.3446505263756
 20
118.5045736812831
 30
0.0
 11
127.3446505263756
 21
121.5884101879339
 31
0.0
  0
LINE
  5
1A2
330
6C
100
AcDbEntity
  8
Visible (ISO)
100
AcDbLine
 10
127.3446505263756
 20
130.4207371746345
 30
0.0
 11
127.3446505263756
 21
132.0045736812838
 31
0.0
  0
SPLINE
  5
1A3
330
6C
100
AcDbEntity
  8
Visible (ISO)
100
AcDbSpline
210
0.0
220
0.0
230
1.0
 70
    12
 71
     2
 72
     6
 73
     3
 74
     0
 42
0.0000000001
 43
0.0000000001
 40
-1.486263498190694
 40
-1.486263498190694
 40
-1.486263498190694
 40
-1.36702465746637
 40
-1.36702465746637
 40
-1.36702465746637
 10
127.3446505264144
 20
118.5045736812429
 30
0.0
 41
1.0
 10
127.5550244230908
 20
118.2859467146663
 30
0.0
 41
1.0
 10
127.7776632282679
 20
118.0673197480896
 30
0.0
 41
1.0
  0
LINE
  5
1A4
330
6C
100
AcDbEntity
  8
Visible (ISO)
100
AcDbLine
 10
132.4116378244835
 20
118.5947675163425
 30
0.0
 11
132.4116378244835
 21
117.504573681283
 31
0.0
  0
SPLINE
  5
1A5
330
6C
100
AcDbEntity
  8
Visible (ISO)
100
AcDbSpline
210
0.0
220
0.0
230
1.0
 70
    28
 71
     2
 72
     6
 73
     3
 74
     0
 42
0.0000000001
 43
0.0000000001
 40
0.8365524254088846
 40
0.8365524254088846
 40
0.8365524254088846
 40
1.2474975411893
 40
1.2474975411893
 40
1.2474975411893
 10
132.8446505263757
 20
117.5045736812819
 30
0.0
 41
1.0
 10
132.8446505263757
 20
117.5045736812825
 30
0.0
 41
1.044904085362809
 10
132.4116378244835
 20
117.504573681283
 30
0.0
 41
1.045691116018822
  0
LINE
  5
1A6
330
6C
100
AcDbEntity
  8
Visible (ISO)
100
AcDbLine
 10
132.8446505263757
 20
117.5045736812819
 30
0.0
 11
132.8446505263757
 21
121.7545736812841
 31
0.0
  0
LINE
  5
1A7
330
6C
100
AcDbEntity
  8
Visible (ISO)
100
AcDbLine
 10
132.8446505263757
 20
121.7545736812841
 30
0.0
 11
132.8446505263757
 21
130.2545736812841
 31
0.0
  0
SPLINE
  5
1A8
330
6C
100
AcDbEntity
  8
Visible (ISO)
100
AcDbSpline
210
0.0
220
0.0
230
1.0
 70
    28
 71
     2
 72
     6
 73
     3
 74
     0
 42
0.0000000001
 43
0.0000000001
 40
0.4256073096284699
 40
0.4256073096284699
 40
0.4256073096284699
 40
0.8365524254088839
 40
0.8365524254088839
 40
0.8365524254088839
 10
132.4116378244835
 20
134.504573681283
 30
0.0
 41
1.045691116018829
 10
132.8446505263757
 20
134.5045736812825
 30
0.0
 41
1.044904085362814
 10
132.8446505263757
 20
134.504573681282
 30
0.0
 41
1.0
  0
LINE
  5
1A9
330
6C
100
AcDbEntity
  8
Visible (ISO)
100
AcDbLine
 10
132.4116378244835
 20
134.504573681283
 30
0.0
 11
132.4116378244835
 21
133.4143798462247
 31
0.0
  0
LINE
  5
1AA
330
6C
100
AcDbEntity
  8
Visible (ISO)
100
AcDbLine
 10
132.8446505263757
 20
130.2545736812841
 30
0.0
 11
132.8446505263757
 21
134.504573681282
 31
0.0
  0
LINE
  5
1AB
330
6C
100
AcDbEntity
  8
Visible (ISO)
100
AcDbLine
 10
132.4116378244835
 20
117.504573681283
 30
0.0
 11
126.2995293395675
 21
117.504573681283
 31
0.0
  0
LINE
  5
1AC
330
6C
100
AcDbEntity
  8
Visible (ISO)
100
AcDbLine
 10
116.3897717131837
 20
117.504573681283
 30
0.0
 11
110.2776632282679
 21
117.504573681283
 31
0.0
  0
LINE
  5
1AD
330
6C
100
AcDbEntity
  8
Visible (ISO)
100
AcDbLine
 10
110.2776632282679
 20
118.5947675163425
 30
0.0
 11
114.9116378244834
 21
118.5947675163425
 31
0.0
  0
LINE
  5
1AE
330
6C
100
AcDbEntity
  8
Visible (ISO)
100
AcDbLine
 10
110.2776632282679
 20
117.504573681283
 30
0.0
 11
110.2776632282679
 21
118.5947675163425
 31
0.0
  0
LINE
  5
1AF
330
6C
100
AcDbEntity
  8
Visible (ISO)
100
AcDbLine
 10
110.2776632282679
 20
133.4143798462247
 30
0.0
 11
110.2776632282679
 21
134.5045736812831
 31
0.0
  0
LINE
  5
1B0
330
6C
100
AcDbEntity
  8
Visible (ISO)
100
AcDbLine
 10
110.2776632282679
 20
124.9143798462258
 30
0.0
 11
110.2776632282679
 21
127.0947675163435
 31
0.0
  0
LINE
  5
1B1
330
6C
100
AcDbEntity
  8
Visible (ISO)
100
AcDbLine
 10
114.8954081366062
 20
133.4143798462247
 30
0.0
 11
110.2776632282679
 21
133.4143798462247
 31
0.0
  0
LINE
  5
1B2
330
6C
100
AcDbEntity
  8
Visible (ISO)
100
AcDbLine
 10
110.2776632282679
 20
134.504573681283
 30
0.0
 11
113.6675742599836
 21
134.504573681283
 31
0.0
  0
LINE
  5
1B3
330
6C
100
AcDbEntity
  8
Visible (ISO)
100
AcDbLine
 10
113.974848805705
 20
124.9143798462258
 30
0.0
 11
110.2776632282679
 21
124.9143798462258
 31
0.0
  0
LINE
  5
1B4
330
6C
100
AcDbEntity
  8
Visible (ISO)
100
AcDbLine
 10
110.2776632282679
 20
127.0947675163435
 30
0.0
 11
113.974848805705
 21
127.0947675163435
 31
0.0
  0
LINE
  5
1B5
330
6C
100
AcDbEntity
  8
Visible (ISO)
100
AcDbLine
 10
129.0217267927677
 20
134.504573681283
 30
0.0
 11
132.4116378244835
 21
134.504573681283
 31
0.0
  0
SPLINE
  5
1B6
330
6C
100
AcDbEntity
  8
Visible (ISO)
100
AcDbSpline
210
0.0
220
0.0
230
1.0
 70
    28
 71
     2
 72
     6
 73
     3
 74
     0
 42
0.0000000001
 43
0.0000000001
 40
0.4226777092670462
 40
0.4226777092670462
 40
0.4226777092670462
 40
0.8332926396892185
 40
0.8332926396892185
 40
0.8332926396892185
 10
110.2776632282679
 20
117.504573681283
 30
0.0
 41
1.045413293158438
 10
109.8446505263757
 20
117.5045736812825
 30
0.0
 41
1.044765269262242
 10
109.8446505263757
 20
117.5045736812819
 30
0.0
 41
1.0
  0
SPLINE
  5
1B7
330
6C
100
AcDbEntity
  8
Visible (ISO)
100
AcDbSpline
210
0.0
220
0.0
230
1.0
 70
    28
 71
     2
 72
     6
 73
     3
 74
     0
 42
0.0000000001
 43
0.0000000001
 40
0.8332926396892174
 40
0.8332926396892174
 40
0.8332926396892174
 40
1.243907570111386
 40
1.243907570111386
 40
1.243907570111386
 10
109.8446505263757
 20
134.504573681282
 30
0.0
 41
1.0
 10
109.8446505263757
 20
134.5045736812825
 30
0.0
 41
1.044765269262236
 10
110.2776632282679
 20
134.504573681283
 30
0.0
 41
1.045413293158431
  0
LINE
  5
1B8
330
6C
100
AcDbEntity
  8
Visible (ISO)
100
AcDbLine
 10
109.8446505263757
 20
134.504573681282
 30
0.0
 11
109.8446505263757
 21
130.2545736812841
 31
0.0
  0
SPLINE
  5
1B9
330
6C
100
AcDbEntity
  8
Visible (ISO)
100
AcDbSpline
210
0.0
220
0.0
230
1.0
 70
    12
 71
     2
 72
     6
 73
     3
 74
     0
 42
0.0000000001
 43
0.0000000001
 40
0.4226777092670477
 40
0.4226777092670477
 40
0.4226777092670477
 40
0.8332926396892176
 40
0.8332926396892176
 40
0.8332926396892176
 10
110.2776632282679
 20
133.4143798462247
 30
0.0
 41
1.045413293158433
 10
109.8446505263757
 20
131.7677202954811
 30
0.0
 41
1.044765269262237
 10
109.8446505263757
 20
130.2545736812841
 30
0.0
 41
1.0
  0
SPLINE
  5
1BA
330
6C
100
AcDbEntity
  8
Visible (ISO)
100
AcDbSpline
210
0.0
220
0.0
230
1.0
 70
    12
 71
     2
 72
     6
 73
     3
 74
     0
 42
0.0000000001
 43
0.0000000001
 40
0.8332926396892176
 40
0.8332926396892176
 40
0.8332926396892176
 40
1.243907570111386
 40
1.243907570111386
 40
1.243907570111386
 10
109.8446505263757
 20
130.2545736812841
 30
0.0
 41
1.0
 10
109.8446505263757
 20
128.7414270670872
 30
0.0
 41
1.044765269262236
 10
110.2776632282679
 20
127.0947675163435
 30
0.0
 41
1.045413293158431
  0
LINE
  5
1BB
330
6C
100
AcDbEntity
  8
Visible (ISO)
100
AcDbLine
 10
109.8446505263757
 20
130.2545736812841
 30
0.0
 11
109.8446505263757
 21
121.7545736812841
 31
0.0
  0
SPLINE
  5
1BC
330
6C
100
AcDbEntity
  8
Visible (ISO)
100
AcDbSpline
210
0.0
220
0.0
230
1.0
 70
    12
 71
     2
 72
     6
 73
     3
 74
     0
 42
0.0000000001
 43
0.0000000001
 40
0.4226777092670467
 40
0.4226777092670467
 40
0.4226777092670467
 40
0.8332926396892183
 40
0.8332926396892183
 40
0.8332926396892183
 10
110.2776632282679
 20
124.9143798462258
 30
0.0
 41
1.045413293158434
 10
109.8446505263757
 20
123.2677202954816
 30
0.0
 41
1.044765269262239
 10
109.8446505263757
 20
121.7545736812841
 30
0.0
 41
1.0
  0
SPLINE
  5
1BD
330
6C
100
AcDbEntity
  8
Visible (ISO)
100
AcDbSpline
210
0.0
220
0.0
230
1.0
 70
    12
 71
     2
 72
     6
 73
     3
 74
     0
 42
0.0000000001
 43
0.0000000001
 40
0.8332926396892183
 40
0.8332926396892183
 40
0.8332926396892183
 40
1.243907570111389
 40
1.243907570111389
 40
1.243907570111389
 10
109.8446505263757
 20
121.7545736812841
 30
0.0
 41
1.0
 10
109.8446505263757
 20
120.2414270670868
 30
0.0
 41
1.044765269262239
 10
110.2776632282679
 20
118.5947675163425
 30
0.0
 41
1.045413293158434
  0
LINE
  5
1BE
330
6C
100
AcDbEntity
  8
Visible (ISO)
100
AcDbLine
 10
109.8446505263757
 20
121.7545736812841
 30
0.0
 11
109.8446505263757
 21
117.5045736812819
 31
0.0
  0
LINE
  5
1BF
330
6C
100
AcDbEntity
  8
Visible (ISO)
100
AcDbLine
 10
115.3446505263757
 20
117.664160022477
 30
0.0
 11
116.3552176233549
 21
117.664160022477
 31
0.0
  0
LINE
  5
1C0
330
6C
100
AcDbEntity
  8
Visible (ISO)
100
AcDbLine
 10
126.3340834293964
 20
117.664160022477
 30
0.0
 11
127.3446505263756
 21
117.664160022477
 31
0.0
  0
LINE
  5
1C1
330
6C
100
AcDbEntity
  8
Visible (ISO)
100
AcDbLine
 10
115.3446505263757
 20
118.5045736812831
 30
0.0
 11
116.1663020598207
 21
118.5045736812831
 31
0.0
  0
LINE
  5
1C2
330
6C
100
AcDbEntity
  8
Visible (ISO)
100
AcDbLine
 10
126.5229989929306
 20
118.5045736812831
 30
0.0
 11
127.3446505263756
 21
118.5045736812831
 31
0.0
  0
LINE
  5
1C3
330
6C
100
AcDbEntity
  8
Visible (ISO)
100
AcDbLine
 10
127.3446505263756
 20
117.664160022477
 30
0.0
 11
127.3446505263756
 21
118.5045736812831
 31
0.0
  0
LINE
  5
1C4
330
6C
100
AcDbEntity
  8
Visible (ISO)
100
AcDbLine
 10
115.3446505263757
 20
117.664160022477
 30
0.0
 11
115.3446505263757
 21
118.5045736812831
 31
0.0
  0
ELLIPSE
  5
1C5
330
6C
100
AcDbEntity
  8
Visible (ISO)
100
AcDbEllipse
 10
117.6540516031342
 20
126.004573681282
 30
0.0
 11
0.0
 21
9.25
 31
0.0
210
0.0
220
0.0
230
1.0
 40
0.577350269189626
 41
2.602318241271794
 42
2.694403908363451
  0
LINE
  5
1C6
330
6C
100
AcDbEntity
  8
Visible (ISO)
100
AcDbLine
 10
114.9116378244834
 20
118.5947675163425
 30
0.0
 11
114.9116378244834
 21
118.0673197480896
 31
0.0
  0
SPLINE
  5
1C7
330
6C
100
AcDbEntity
  8
Visible (ISO)
100
AcDbSpline
210
0.0
220
0.0
230
1.0
 70
    12
 71
     2
 72
     6
 73
     3
 74
     0
 42
0.0000000001
 43
0.0000000001
 40
0.8123858579521044
 40
0.8123858579521044
 40
0.8123858579521044
 40
1.189117518252847
 40
1.189117518252847
 40
1.189117518252847
 10
115.3434253503416
 20
130.4190721110648
 30
0.0
 41
1.004365595477415
 10
115.3225087813353
 20
131.8234303861516
 30
0.0
 41
1.042042755126312
 10
114.9293920247527
 20
133.3462417822411
 30
0.0
 41
1.041803747226504
  0
SPLINE
  5
1C8
330
6C
100
AcDbEntity
  8
Visible (ISO)
100
AcDbSpline
210
0.0
220
0.0
230
1.0
 70
    12
 71
     2
 72
     6
 73
     3
 74
     0
 42
0.0000000001
 43
0.0000000001
 40
0.3847937513989829
 40
0.3847937513989829
 40
0.3847937513989829
 40
0.7699378181404203
 40
0.7699378181404203
 40
0.7699378181404203
 10
114.9116378244834
 20
118.5947675163425
 30
0.0
 41
1.041774167103257
 10
115.3220589658908
 20
120.1555159409789
 30
0.0
 41
1.042884084947768
 10
115.3434253503416
 20
121.5900752515034
 30
0.0
 41
1.004365595477415
  0
LINE
  5
1C9
330
6C
100
AcDbEntity
  8
Visible (ISO)
100
AcDbLine
 10
115.3446505263757
 20
130.4207371746345
 30
0.0
 11
115.3446505263757
 21
132.0045736812838
 31
0.0
  0
LINE
  5
1CA
330
6C
100
AcDbEntity
  8
Visible (ISO)
100
AcDbLine
 10
115.3446505263757
 20
118.5045736812831
 30
0.0
 11
115.3446505263757
 21
121.5884101879339
 31
0.0
  0
SPLINE
  5
1CB
330
6C
100
AcDbEntity
  8
Visible (ISO)
100
AcDbSpline
210
0.0
220
0.0
230
1.0
 70
    12
 71
     2
 72
     6
 73
     3
 74
     0
 42
0.0000000001
 43
0.0000000001
 40
-1.486263498190694
 40
-1.486263498190694
 40
-1.486263498190694
 40
-1.36702465746637
 40
-1.36702465746637
 40
-1.36702465746637
 10
115.344650526337
 20
118.5045736812429
 30
0.0
 41
1.0
 10
115.1342766296604
 20
118.2859467146663
 30
0.0
 41
1.0
 10
114.9116378244834
 20
118.0673197480896
 30
0.0
 41
1.0
  0
ELLIPSE
  5
1CC
330
6C
100
AcDbEntity
  8
Visible (ISO)
100
AcDbEllipse
 10
121.3446505263757
 20
143.004573681282
 30
0.0
 11
0.0
 21
14.72243186433292
 31
0.0
210
0.0
220
0.0
230
1.0
 40
0.5773502691897253
 41
3.996844707048501
 42
4.002960670239064
  0
LINE
  5
1CD
330
6C
100
AcDbEntity
  8
Visible (ISO)
100
AcDbLine
 10
129.8446505263757
 20
140.5045736812819
 30
0.0
 11
112.8446505263756
 21
140.5045736812819
 31
0.0
  0
SPLINE
  5
1CE
330
6C
100
AcDbEntity
  8
Visible (ISO)
100
AcDbSpline
210
0.0
220
0.0
230
1.0
 70
     8
 71
     3
 72
     8
 73
     4
 74
     0
 42
0.0000000001
 43
0.0000000001
 40
0.8292463199719302
 40
0.8292463199719302
 40
0.8292463199719302
 40
0.8292463199719302
 40
1.069319888959278
 40
1.069319888959278
 40
1.069319888959278
 40
1.069319888959278
 10
114.8954081366062
 20
133.4143798462247
 30
0.0
 10
114.4293879165257
 20
133.8199879405433
 30
0.0
 10
114.0034786336463
 20
134.2011898254107
 30
0.0
 10
113.6675742599836
 20
134.504573681283
 30
0.0
  0
ELLIPSE
  5
1CF
330
6C
100
AcDbEntity
  8
Visible (ISO)
100
AcDbEllipse
 10
121.3446505263757
 20
143.004573681282
 30
0.0
 11
0.0
 21
14.72243186433292
 31
0.0
210
0.0
220
0.0
230
1.0
 40
0.5773502691897253
 41
2.280224636940519
 42
2.286340600131083
  0
SPLINE
  5
1D0
330
6C
100
AcDbEntity
  8
Visible (ISO)
100
AcDbSpline
210
0.0
220
0.0
230
1.0
 70
     8
 71
     3
 72
    10
 73
     6
 74
     0
 42
0.0000000001
 43
0.0000000001
 40
2.358463870327546
 40
2.358463870327546
 40
2.358463870327546
 40
2.358463870327546
 40
2.381073897766034
 40
2.381073897766034
 40
2.502243251613869
 40
2.502243251613869
 40
2.502243251613869
 40
2.502243251613869
 10
114.9293920247527
 20
133.3462417822411
 30
0.0
 10
114.9518929566323
 20
133.2776403644347
 30
0.0
 10
114.9740972295528
 20
133.209395147377
 30
0.0
 10
115.1132331537032
 20
132.7782224939329
 30
0.0
 10
115.2308072941671
 20
132.3977584517264
 30
0.0
 10
115.3446505263757
 20
132.0045736812838
 30
0.0
  0
LINE
  5
1D1
330
6C
100
AcDbEntity
  8
Visible (ISO)
100
AcDbLine
 10
115.3446505263757
 20
132.0045736812838
 30
0.0
 11
116.0767050065359
 21
131.2725192011237
 31
0.0
  0
LINE
  5
1D2
330
6C
100
AcDbEntity
  8
Visible (ISO)
100
AcDbLine
 10
126.6125960462154
 20
131.2725192011237
 30
0.0
 11
127.3446505263756
 21
132.0045736812838
 31
0.0
  0
SPLINE
  5
1D3
330
6C
100
AcDbEntity
  8
Visible (ISO)
100
AcDbSpline
210
0.0
220
0.0
230
1.0
 70
     8
 71
     3
 72
    10
 73
     6
 74
     0
 42
0.0000000001
 43
0.0000000001
 40
3.664699947043588
 40
3.664699947043588
 40
3.664699947043588
 40
3.664699947043588
 40
3.785869300891423
 40
3.785869300891423
 40
3.808479328329911
 40
3.808479328329911
 40
3.808479328329911
 40
3.808479328329911
 10
127.3446505263756
 20
132.0045736812838
 30
0.0
 10
127.4584937585842
 20
132.3977584517264
 30
0.0
 10
127.576067899048
 20
132.7782224939329
 30
0.0
 10
127.7152038231984
 20
133.209395147377
 30
0.0
 10
127.7374080961189
 20
133.2776403644347
 30
0.0
 10
127.7599090279986
 20
133.3462417822411
 30
0.0
  0
SPLINE
  5
1D4
330
6C
100
AcDbEntity
  8
Visible (ISO)
100
AcDbSpline
210
0.0
220
0.0
230
1.0
 70
     8
 71
     3
 72
     8
 73
     4
 74
     0
 42
0.0000000001
 43
0.0000000001
 40
4.714232720745108
 40
4.714232720745108
 40
4.714232720745108
 40
4.714232720745108
 40
4.954306289732459
 40
4.954306289732459
 40
4.954306289732459
 40
4.954306289732459
 10
129.0217267927677
 20
134.504573681283
 30
0.0
 10
128.6858806185251
 20
134.2012423055849
 30
0.0
 10
128.2599793800805
 20
133.8200461606
 30
0.0
 10
127.7938929161451
 20
133.4143798462247
 30
0.0
  0
LINE
  5
1D5
330
6C
100
AcDbEntity
  8
Visible (ISO)
100
AcDbLine
 10
112.8446505263756
 20
134.504573681282
 30
0.0
 11
112.8446505263756
 21
140.5045736812819
 31
0.0
  0
LINE
  5
1D6
330
6C
100
AcDbEntity
  8
Visible (ISO)
100
AcDbLine
 10
129.8446505263757
 20
134.504573681282
 30
0.0
 11
129.8446505263757
 21
140.5045736812819
 31
0.0
  0
LINE
  5
1D7
330
6C
100
AcDbEntity
  8
Visible (ISO)
100
AcDbLine
 10
145.3446505263757
 20
119.504573681282
 30
0.0
 11
132.8446505263757
 21
119.504573681282
 31
0.0
  0
LINE
  5
1D8
330
6C
100
AcDbEntity
  8
Visible (ISO)
100
AcDbLine
 10
145.3446505263757
 20
132.504573681282
 30
0.0
 11
132.8446505263757
 21
132.504573681282
 31
0.0
  0
LINE
  5
1D9
330
6C
100
AcDbEntity
  8
Visible (ISO)
100
AcDbLine
 10
129.3446505263757
 20
141.004573681282
 30
0.0
 11
129.8446505263757
 21
140.5045736812819
 31
0.0
  0
LINE
  5
1DA
330
6C
100
AcDbEntity
  8
Visible (ISO)
100
AcDbLine
 10
113.3446505263757
 20
141.004573681282
 30
0.0
 11
112.8446505263756
 21
140.5045736812819
 31
0.0
  0
LINE
  5
1DB
330
6C
100
AcDbEntity
  8
Visible (ISO)
100
AcDbLine
 10
124.6163497904309
 20
106.0045736812899
 30
0.0
 11
123.925453161943
 21
112.5880040276867
 31
0.0
  0
LINE
  5
1DC
330
6C
100
AcDbEntity
  8
Visible Narrow (ISO)
100
AcDbLine
 10
123.925453161943
 20
112.5880040276867
 30
0.0
 11
118.7638478908082
 21
112.5880040276867
 31
0.0
  0
LINE
  5
1DD
330
6C
100
AcDbEntity
  8
Visible (ISO)
100
AcDbLine
 10
118.7638478908082
 20
112.5880040276867
 30
0.0
 11
118.0729512623204
 21
106.0045736812899
 31
0.0
  0
LINE
  5
1DE
330
6C
100
AcDbEntity
  8
Visible (ISO)
100
AcDbLine
 10
118.0729512623204
 20
106.0045736812905
 30
0.0
 11
124.6163497904309
 21
106.0045736812905
 31
0.0
  0
LINE
  5
1DF
330
6C
100
AcDbEntity
  8
Visible (ISO)
100
AcDbLine
 10
124.8446505263757
 20
86.00457368129047
 30
0.0
 11
117.8446505263756
 21
86.00457368129047
 31
0.0
  0
LINE
  5
1E0
330
6C
100
AcDbEntity
  8
Visible (ISO)
100
AcDbLine
 10
124.8446505263757
 20
103.8291368197539
 30
0.0
 11
124.8446505263757
 21
86.00457368129047
 31
0.0
  0
LINE
  5
1E1
330
6C
100
AcDbEntity
  8
Visible (ISO)
100
AcDbLine
 10
124.6163497904309
 20
106.0045736812905
 30
0.0
 11
124.8446505263757
 21
103.8291368197539
 31
0.0
  0
LINE
  5
1E2
330
6C
100
AcDbEntity
  8
Visible (ISO)
100
AcDbLine
 10
117.8446505263756
 20
103.8291368197539
 30
0.0
 11
118.0729512623204
 21
106.0045736812905
 31
0.0
  0
LINE
  5
1E3
330
6C
100
AcDbEntity
  8
Visible (ISO)
100
AcDbLine
 10
117.8446505263756
 20
86.00457368129047
 30
0.0
 11
117.8446505263756
 21
103.8291368197539
 31
0.0
  0
ARC
  5
1E4
330
6C
100
AcDbEntity
  8
Visible (ISO)
100
AcDbCircle
 10
52.84465052637536
 20
103.8291368197511
 30
0.0
 40
65.00000000000027
100
AcDbArc
 50
0.0
 51
16.50009499227154
  0
ARC
  5
1E5
330
6C
100
AcDbEntity
  8
Visible (ISO)
100
AcDbCircle
 10
189.8446505263759
 20
103.829136819751
 30
0.0
 40
65.00000000000031
100
AcDbArc
 50
163.4999050077284
 51
180.0
  0
SPLINE
  5
1E6
330
6C
100
AcDbEntity
  8
Visible (ISO)
100
AcDbSpline
210
0.0
220
0.0
230
1.0
 70
     8
 71
     3
 72
    10
 73
     6
 74
     0
 42
0.0000000001
 43
0.0000000001
 40
0.8843322889545374
 40
0.8843322889545374
 40
0.8843322889545374
 40
0.8843322889545374
 40
0.9081515042319823
 40
0.9081515042319823
 40
0.9259725475370498
 40
0.9259725475370498
 40
0.9259725475370498
 40
0.9259725475370498
 10
123.0656650072019
 20
120.7807715069357
 30
0.0
 10
123.0292920126884
 20
120.7516836079327
 30
0.0
 10
122.990014976261
 20
120.7228423520556
 30
0.0
 10
122.91664703626
 20
120.6734507077449
 30
0.0
 10
122.8816087600838
 20
120.6516047062981
 30
0.0
 10
122.843738883256
 20
120.629607415378
 30
0.0
  0
SPLINE
  5
1E7
330
6C
100
AcDbEntity
  8
Visible (ISO)
100
AcDbSpline
210
0.0
220
0.0
230
1.0
 70
     8
 71
     3
 72
    10
 73
     6
 74
     0
 42
0.0000000001
 43
0.0000000001
 40
1.26072965346429
 40
1.26072965346429
 40
1.26072965346429
 40
1.26072965346429
 40
1.278550696769362
 40
1.278550696769362
 40
1.302369912046807
 40
1.302369912046807
 40
1.302369912046807
 40
1.302369912046807
 10
119.8455621694953
 20
120.629607415378
 30
0.0
 10
119.8076922926675
 20
120.6516047062981
 30
0.0
 10
119.7726540164913
 20
120.6734507077449
 30
0.0
 10
119.6992860764902
 20
120.7228423520556
 30
0.0
 10
119.6600090400629
 20
120.7516836079327
 30
0.0
 10
119.6236360455494
 20
120.7807715069357
 30
0.0
  0
LINE
  5
1E8
330
6C
100
AcDbEntity
  8
Visible (ISO)
100
AcDbLine
 10
123.0656650072019
 20
120.7807715069357
 30
0.0
 11
123.925453161943
 21
112.5880040276867
 31
0.0
  0
LINE
  5
1E9
330
6C
100
AcDbEntity
  8
Visible (ISO)
100
AcDbLine
 10
118.7638478908082
 20
112.5880040276867
 30
0.0
 11
119.6236360455494
 21
120.7807715069357
 31
0.0
  0
ARC
  5
1EA
330
6C
100
AcDbEntity
  8
Visible (ISO)
100
AcDbCircle
 10
121.3446505263757
 20
126.0045736812877
 30
0.0
 40
7.207531252864772
100
AcDbArc
 50
285.3041237151069
 51
328.9797515566896
  0
ARC
  5
1EB
330
6C
100
AcDbEntity
  8
Visible (ISO)
100
AcDbCircle
 10
121.3446505263757
 20
126.0045736812877
 30
0.0
 40
7.207531252864776
100
AcDbArc
 50
211.0202484433095
 51
254.6958762848929
  0
ARC
  5
1EC
330
6C
100
AcDbEntity
  8
Visible (ISO)
100
AcDbCircle
 10
121.3446505263757
 20
126.0045736812875
 30
0.0
 40
7.449999999999991
100
AcDbArc
 50
323.0863788866292
 51
216.9136211133707
  0
ARC
  5
1ED
330
6C
100
AcDbEntity
  8
Visible (ISO)
100
AcDbCircle
 10
120.3446505263757
 20
125.00457368129
 30
0.0
 40
2.0
100
AcDbArc
 50
180.0
 51
270.0
  0
LINE
  5
1EE
330
6C
100
AcDbEntity
  8
Visible (ISO)
100
AcDbLine
 10
120.3446505263757
 20
123.00457368129
 30
0.0
 11
123.8446505263756
 21
123.00457368129
 31
0.0
  0
LINE
  5
1EF
330
6C
100
AcDbEntity
  8
Visible (ISO)
100
AcDbLine
 10
123.8446505263756
 20
123.00457368129
 30
0.0
 11
123.8446505263756
 21
122.50457368129
 31
0.0
  0
LINE
  5
1F0
330
6C
100
AcDbEntity
  8
Visible (ISO)
100
AcDbLine
 10
123.8446505263756
 20
122.50457368129
 30
0.0
 11
124.8446505263757
 21
123.50457368129
 31
0.0
  0
LINE
  5
1F1
330
6C
100
AcDbEntity
  8
Visible (ISO)
100
AcDbLine
 10
124.8446505263757
 20
123.50457368129
 30
0.0
 11
123.8446505263756
 21
124.50457368129
 31
0.0
  0
LINE
  5
1F2
330
6C
100
AcDbEntity
  8
Visible (ISO)
100
AcDbLine
 10
123.8446505263756
 20
124.50457368129
 30
0.0
 11
123.8446505263756
 21
124.00457368129
 31
0.0
  0
LINE
  5
1F3
330
6C
100
AcDbEntity
  8
Visible (ISO)
100
AcDbLine
 10
123.8446505263756
 20
124.00457368129
 30
0.0
 11
120.8446505263756
 21
124.00457368129
 31
0.0
  0
ARC
  5
1F4
330
6C
100
AcDbEntity
  8
Visible (ISO)
100
AcDbCircle
 10
120.8446505263756
 20
125.50457368129
 30
0.0
 40
1.499999999999999
100
AcDbArc
 50
180.0
 51
270.0
  0
LINE
  5
1F5
330
6C
100
AcDbEntity
  8
Visible (ISO)
100
AcDbLine
 10
119.3446505263757
 20
125.50457368129
 30
0.0
 11
119.3446505263757
 21
128.50457368129
 31
0.0
  0
LINE
  5
1F6
330
6C
100
AcDbEntity
  8
Visible (ISO)
100
AcDbLine
 10
119.3446505263757
 20
128.50457368129
 30
0.0
 11
119.8446505263756
 21
128.50457368129
 31
0.0
  0
LINE
  5
1F7
330
6C
100
AcDbEntity
  8
Visible (ISO)
100
AcDbLine
 10
119.8446505263756
 20
128.50457368129
 30
0.0
 11
118.8446505263756
 21
129.5045736812901
 31
0.0
  0
LINE
  5
1F8
330
6C
100
AcDbEntity
  8
Visible (ISO)
100
AcDbLine
 10
118.8446505263756
 20
129.5045736812901
 30
0.0
 11
117.8446505263756
 21
128.50457368129
 31
0.0
  0
LINE
  5
1F9
330
6C
100
AcDbEntity
  8
Visible (ISO)
100
AcDbLine
 10
117.8446505263756
 20
128.50457368129
 30
0.0
 11
118.3446505263757
 21
128.50457368129
 31
0.0
  0
LINE
  5
1FA
330
6C
100
AcDbEntity
  8
Visible (ISO)
100
AcDbLine
 10
118.3446505263757
 20
128.50457368129
 30
0.0
 11
118.3446505263757
 21
125.00457368129
 31
0.0
  0
ARC
  5
1FB
330
6C
100
AcDbEntity
  8
Visible Narrow (ISO)
100
AcDbCircle
 10
121.3446505263757
 20
126.00457368129
 30
0.0
 40
4.999999999999999
100
AcDbArc
 50
281.5369590328153
 51
78.46304096718461
  0
SPLINE
  5
1FC
330
6C
100
AcDbEntity
  8
Visible (ISO)
100
AcDbSpline
210
0.0
220
0.0
230
1.0
 70
     8
 71
     3
 72
    18
 73
    14
 74
     0
 42
0.0000000001
 43
0.0000000001
 40
-0.0894071042414384
 40
-0.0894071042414384
 40
-0.0894071042414384
 40
-0.0894071042414384
 40
-0.0890024393096829
 40
-0.0890024393096829
 40
-0.071331341192769
 40
-0.071331341192769
 40
-0.054286520760514
 40
-0.054286520760514
 40
-0.033079826196916
 40
-0.033079826196916
 40
-0.0157603010710298
 40
-0.0157603010710298
 40
0.0
 40
0.0
 40
0.0
 40
0.0
 10
122.3446505263757
 20
121.1055941957237
 30
0.0
 10
122.345702874103
 20
121.1047349574022
 30
0.0
 10
122.3467553340654
 20
121.1038758534979
 30
0.0
 10
122.3937714206515
 20
121.0655075646856
 30
0.0
 10
122.4400395005545
 20
121.0281882581351
 30
0.0
 10
122.5288042646871
 20
120.9573527158829
 30
0.0
 10
122.5715412255239
 20
120.9236171493569
 30
0.0
 10
122.661958708692
 20
120.8528745780934
 30
0.0
 10
122.708311869248
 20
120.8170737708383
 30
0.0
 10
122.7779806376435
 20
120.763656055149
 30
0.0
 10
122.8035163248454
 20
120.7442413088463
 30
0.0
 10
122.8363741873184
 20
120.719317747209
 30
0.0
 10
122.8446505263756
 20
120.7130710591607
 30
0.0
 10
122.8446505263756
 20
120.7130710591607
 30
0.0
  0
ARC
  5
1FD
330
6C
100
AcDbEntity
  8
Visible (ISO)
100
AcDbCircle
 10
121.3446505263757
 20
126.0045736812898
 30
0.0
 40
5.499999999999999
100
AcDbArc
 50
285.8266201318722
 51
74.17337986812781
  0
SPLINE
  5
1FE
330
6C
100
AcDbEntity
  8
Visible (ISO)
100
AcDbSpline
210
0.0
220
0.0
230
1.0
 70
     8
 71
     3
 72
    18
 73
    14
 74
     0
 42
0.0000000001
 43
0.0000000001
 40
-0.0896419378859127
 40
-0.0896419378859127
 40
-0.0896419378859127
 40
-0.0896419378859127
 40
-0.0737683962096255
 40
-0.0737683962096255
 40
-0.0563244271724696
 40
-0.0563244271724696
 40
-0.0349653586842182
 40
-0.0349653586842182
 40
-0.0177980681434567
 40
-0.0177980681434567
 40
0.0
 40
0.0
 40
0.0004075725222773
 40
0.0004075725222773
 40
0.0004075725222773
 40
0.0004075725222773
 10
122.8446505263756
 20
131.296076303419
 30
0.0
 10
122.8446505263756
 20
131.296076303419
 30
0.0
 10
122.8363741873184
 20
131.2898296153708
 30
0.0
 10
122.8035163248454
 20
131.2649060537335
 30
0.0
 10
122.7779806376435
 20
131.2454913074307
 30
0.0
 10
122.708311869248
 20
131.1920735917416
 30
0.0
 10
122.661958708692
 20
131.1562727844865
 30
0.0
 10
122.5715412255239
 20
131.0855302132231
 30
0.0
 10
122.5288042646871
 20
131.051794646697
 30
0.0
 10
122.4400395005547
 20
130.980959104445
 30
0.0
 10
122.3937714206526
 20
130.9436397978952
 30
0.0
 10
122.3467553340654
 20
130.9052715090819
 30
0.0
 10
122.345702874103
 20
130.9044124051777
 30
0.0
 10
122.3446505263757
 20
130.9035531668564
 30
0.0
  0
LINE
  5
1FF
330
6C
100
AcDbEntity
  8
Visible Narrow (ISO)
100
AcDbLine
 10
122.8446505263756
 20
120.5962467680939
 30
0.0
 11
122.3446505263757
 21
120.5962467680939
 31
0.0
  0
LINE
  5
200
330
6C
100
AcDbEntity
  8
Visible (ISO)
100
AcDbLine
 10
122.8446505263756
 20
120.5962467680939
 30
0.0
 11
122.8446505263756
 21
120.7130710591607
 31
0.0
  0
LINE
  5
201
330
6C
100
AcDbEntity
  8
Visible Narrow (ISO)
100
AcDbLine
 10
122.3446505263757
 20
121.1055941957237
 30
0.0
 11
122.3446505263757
 21
120.5962467680939
 31
0.0
  0
LINE
  5
202
330
6C
100
AcDbEntity
  8
Visible Narrow (ISO)
100
AcDbLine
 10
122.3446505263757
 20
131.412900594486
 30
0.0
 11
122.8446505263756
 21
131.4129005944857
 31
0.0
  0
LINE
  5
203
330
6C
100
AcDbEntity
  8
Visible Narrow (ISO)
100
AcDbLine
 10
122.3446505263757
 20
131.412900594486
 30
0.0
 11
122.3446505263757
 21
130.9035531668564
 31
0.0
  0
LINE
  5
204
330
6C
100
AcDbEntity
  8
Visible (ISO)
100
AcDbLine
 10
122.8446505263756
 20
131.296076303419
 30
0.0
 11
122.8446505263756
 21
131.4129005944857
 31
0.0
  0
LINE
  5
205
330
6C
100
AcDbEntity
  8
Visible Narrow (ISO)
100
AcDbLine
 10
122.4355596172847
 20
131.9045666775036
 30
0.0
 11
122.3446505263757
 21
131.412900594486
 31
0.0
  0
ARC
  5
206
330
6C
100
AcDbEntity
  8
Visible (ISO)
100
AcDbCircle
 10
121.3446505263757
 20
126.0045736812898
 30
0.0
 40
5.999999999999959
100
AcDbArc
 50
79.52431830361006
 51
100.4756816963899
  0
LINE
  5
207
330
6C
100
AcDbEntity
  8
Visible Narrow (ISO)
100
AcDbLine
 10
120.3446505263757
 20
131.412900594486
 30
0.0
 11
120.2537414354666
 21
131.9045666775036
 31
0.0
  0
ARC
  5
208
330
6C
100
AcDbEntity
  8
Visible Narrow (ISO)
100
AcDbCircle
 10
121.3446505263757
 20
126.00457368129
 30
0.0
 40
5.499999999999992
100
AcDbArc
 50
79.52431830361023
 51
100.4756816963897
  0
ARC
  5
209
330
6C
100
AcDbEntity
  8
Visible (ISO)
100
AcDbCircle
 10
122.3446505263757
 20
131.4129005944857
 30
0.0
 40
0.4999999999999988
100
AcDbArc
 50
0.0
 51
79.52431830361145
  0
LINE
  5
20A
330
6C
100
AcDbEntity
  8
Visible Narrow (ISO)
100
AcDbLine
 10
120.3446505263757
 20
120.5962467680939
 30
0.0
 11
119.8446505263756
 21
120.5962467680939
 31
0.0
  0
LINE
  5
20B
330
6C
100
AcDbEntity
  8
Visible Narrow (ISO)
100
AcDbLine
 10
120.3446505263757
 20
120.5962467680939
 30
0.0
 11
120.3446505263757
 21
121.1055941957237
 31
0.0
  0
SPLINE
  5
20C
330
6C
100
AcDbEntity
  8
Visible (ISO)
100
AcDbSpline
210
0.0
220
0.0
230
1.0
 70
     8
 71
     3
 72
    18
 73
    14
 74
     0
 42
0.0000000001
 43
0.0000000001
 40
-0.0004075725222822
 40
-0.0004075725222822
 40
-0.0004075725222822
 40
-0.0004075725222822
 40
0.0
 40
0.0
 40
0.0177980681435137
 40
0.0177980681435137
 40
0.0349653586843403
 40
0.0349653586843403
 40
0.0563244271726714
 40
0.0563244271726714
 40
0.0737683962098895
 40
0.0737683962098895
 40
0.0896419378862371
 40
0.0896419378862371
 40
0.0896419378862371
 40
0.0896419378862371
 10
120.3446505263757
 20
121.1055941957237
 30
0.0
 10
120.3435981786482
 20
121.1047349574021
 30
0.0
 10
120.342545718686
 20
121.103875853498
 30
0.0
 10
120.2955296320985
 20
121.0655075646847
 30
0.0
 10
120.2492615521966
 20
121.0281882581351
 30
0.0
 10
120.1604967880641
 20
120.9573527158829
 30
0.0
 10
120.1177598272274
 20
120.9236171493569
 30
0.0
 10
120.0273423440592
 20
120.8528745780934
 30
0.0
 10
119.9809891835033
 20
120.8170737708383
 30
0.0
 10
119.9113204151077
 20
120.763656055149
 30
0.0
 10
119.8857847279059
 20
120.7442413088463
 30
0.0
 10
119.8529268654328
 20
120.719317747209
 30
0.0
 10
119.8446505263756
 20
120.7130710591607
 30
0.0
 10
119.8446505263756
 20
120.7130710591607
 30
0.0
  0
LINE
  5
20D
330
6C
100
AcDbEntity
  8
Visible (ISO)
100
AcDbLine
 10
119.8446505263756
 20
120.7130710591607
 30
0.0
 11
119.8446505263756
 21
120.5962467680939
 31
0.0
  0
ARC
  5
20E
330
6C
100
AcDbEntity
  8
Visible Narrow (ISO)
100
AcDbCircle
 10
121.3446505263757
 20
126.00457368129
 30
0.0
 40
4.999999999999998
100
AcDbArc
 50
101.5369590328153
 51
258.4630409671845
  0
SPLINE
  5
20F
330
6C
100
AcDbEntity
  8
Visible (ISO)
100
AcDbSpline
210
0.0
220
0.0
230
1.0
 70
     8
 71
     3
 72
    18
 73
    14
 74
     0
 42
0.0000000001
 43
0.0000000001
 40
-0.0894071042413794
 40
-0.0894071042413794
 40
-0.0894071042413794
 40
-0.0894071042413794
 40
-0.0890024393096068
 40
-0.0890024393096068
 40
-0.0713313411927872
 40
-0.0713313411927872
 40
-0.054286520760529
 40
-0.054286520760529
 40
-0.0330798261969246
 40
-0.0330798261969246
 40
-0.0157603010710319
 40
-0.0157603010710319
 40
0.0
 40
0.0
 40
0.0
 40
0.0
 10
120.3446505263757
 20
130.9035531668564
 30
0.0
 10
120.3435981786482
 20
130.9044124051777
 30
0.0
 10
120.342545718686
 20
130.9052715090819
 30
0.0
 10
120.2955296320981
 20
130.9436397978956
 30
0.0
 10
120.2492615521965
 20
130.980959104445
 30
0.0
 10
120.1604967880641
 20
131.051794646697
 30
0.0
 10
120.1177598272274
 20
131.0855302132231
 30
0.0
 10
120.0273423440592
 20
131.1562727844865
 30
0.0
 10
119.9809891835033
 20
131.1920735917416
 30
0.0
 10
119.9113204151077
 20
131.2454913074307
 30
0.0
 10
119.8857847279059
 20
131.2649060537335
 30
0.0
 10
119.8529268654328
 20
131.2898296153708
 30
0.0
 10
119.8446505263756
 20
131.296076303419
 30
0.0
 10
119.8446505263756
 20
131.296076303419
 30
0.0
  0
ARC
  5
210
330
6C
100
AcDbEntity
  8
Visible (ISO)
100
AcDbCircle
 10
121.3446505263757
 20
126.0045736812898
 30
0.0
 40
5.499999999999999
100
AcDbArc
 50
105.8266201318722
 51
254.1733798681276
  0
LINE
  5
211
330
6C
100
AcDbEntity
  8
Visible Narrow (ISO)
100
AcDbLine
 10
119.8446505263756
 20
131.4129005944857
 30
0.0
 11
120.3446505263757
 21
131.412900594486
 31
0.0
  0
LINE
  5
212
330
6C
100
AcDbEntity
  8
Visible (ISO)
100
AcDbLine
 10
119.8446505263756
 20
131.4129005944857
 30
0.0
 11
119.8446505263756
 21
131.296076303419
 31
0.0
  0
LINE
  5
213
330
6C
100
AcDbEntity
  8
Visible Narrow (ISO)
100
AcDbLine
 10
120.3446505263757
 20
130.9035531668564
 30
0.0
 11
120.3446505263757
 21
131.412900594486
 31
0.0
  0
ARC
  5
214
330
6C
100
AcDbEntity
  8
Visible (ISO)
100
AcDbCircle
 10
120.3446505263757
 20
131.4129005944857
 30
0.0
 40
0.5000000000000023
100
AcDbArc
 50
100.4756816963904
 51
180.0
  0
LINE
  5
215
330
6C
100
AcDbEntity
  8
Visible Narrow (ISO)
100
AcDbLine
 10
120.2537414354666
 20
120.1045806850761
 30
0.0
 11
120.3446505263757
 21
120.5962467680939
 31
0.0
  0
ARC
  5
216
330
6C
100
AcDbEntity
  8
Visible (ISO)
100
AcDbCircle
 10
121.3446505263757
 20
126.0045736812897
 30
0.0
 40
5.999999999999969
100
AcDbArc
 50
259.52431830361
 51
280.4756816963899
  0
LINE
  5
217
330
6C
100
AcDbEntity
  8
Visible Narrow (ISO)
100
AcDbLine
 10
122.3446505263757
 20
120.5962467680939
 30
0.0
 11
122.4355596172847
 21
120.1045806850761
 31
0.0
  0
ARC
  5
218
330
6C
100
AcDbEntity
  8
Visible Narrow (ISO)
100
AcDbCircle
 10
121.3446505263757
 20
126.00457368129
 30
0.0
 40
5.499999999999999
100
AcDbArc
 50
259.5243183036103
 51
280.4756816963898
  0
ARC
  5
219
330
6C
100
AcDbEntity
  8
Visible (ISO)
100
AcDbCircle
 10
120.3446505263757
 20
120.5962467680939
 30
0.0
 40
0.5000000000000006
100
AcDbArc
 50
180.0
 51
259.5243183036096
  0
ARC
  5
21A
330
6C
100
AcDbEntity
  8
Visible (ISO)
100
AcDbCircle
 10
122.3446505263757
 20
120.5962467680939
 30
0.0
 40
0.4999999999999984
100
AcDbArc
 50
280.4756816963905
 51
0.0
  0
SPLINE
  5
21B
330
6C
100
AcDbEntity
  8
Visible (ISO)
100
AcDbSpline
210
0.0
220
0.0
230
1.0
 70
    28
 71
     2
 72
     6
 73
     3
 74
     0
 42
0.0000000001
 43
0.0000000001
 40
0.0906100100638158
 40
0.0906100100638158
 40
0.0906100100638158
 40
0.6046693311223974
 40
0.6046693311223974
 40
0.6046693311223974
 10
108.9411235805234
 20
134.5045736812835
 30
0.0
 41
1.030578586555895
 10
109.7003129590782
 20
134.5045736812827
 30
0.0
 41
1.110294117647059
 10
109.7003129590782
 20
134.504573681282
 30
0.0
 41
1.110294117647057
  0
SPLINE
  5
21C
330
6C
100
AcDbEntity
  8
Visible (ISO)
100
AcDbSpline
210
0.0
220
0.0
230
1.0
 70
    12
 71
     2
 72
     6
 73
     3
 74
     0
 42
0.0000000001
 43
0.0000000001
 40
0.0906100100638159
 40
0.0906100100638159
 40
0.0906100100638159
 40
1.118728652180965
 40
1.118728652180965
 40
1.118728652180965
 10
108.9411235805234
 20
126.0045736812849
 30
0.0
 41
1.030578586555895
 10
110.3577902471899
 20
130.2545736812841
 30
0.0
 41
1.190009648738219
 10
108.9411235805234
 20
134.5045736812835
 30
0.0
 41
1.030578586555895
  0
SPLINE
  5
21D
330
6C
100
AcDbEntity
  8
Visible (ISO)
100
AcDbSpline
210
0.0
220
0.0
230
1.0
 70
    12
 71
     2
 72
     6
 73
     3
 74
     0
 42
0.0000000001
 43
0.0000000001
 40
0.0906100100638158
 40
0.0906100100638158
 40
0.0906100100638158
 40
1.118728652180966
 40
1.118728652180966
 40
1.118728652180966
 10
108.9411235805234
 20
117.5045736812834
 30
0.0
 41
1.030578586555895
 10
110.3577902471901
 20
121.7545736812841
 30
0.0
 41
1.190009648738221
 10
108.9411235805234
 20
126.0045736812849
 30
0.0
 41
1.030578586555895
  0
SPLINE
  5
21E
330
6C
100
AcDbEntity
  8
Visible (ISO)
100
AcDbSpline
210
0.0
220
0.0
230
1.0
 70
    28
 71
     2
 72
     6
 73
     3
 74
     0
 42
0.0000000001
 43
0.0000000001
 40
0.6046693311223902
 40
0.6046693311223902
 40
0.6046693311223902
 40
1.118728652180966
 40
1.118728652180966
 40
1.118728652180966
 10
109.7003129590782
 20
117.504573681282
 30
0.0
 41
1.110294117647057
 10
109.7003129590782
 20
117.5045736812827
 30
0.0
 41
1.110294117647057
 10
108.9411235805234
 20
117.5045736812834
 30
0.0
 41
1.030578586555895
  0
LINE
  5
21F
330
6C
100
AcDbEntity
  8
Visible (ISO)
100
AcDbLine
 10
109.8446505263757
 20
117.754573681282
 30
0.0
 11
109.7003129590782
 21
117.5045736812819
 31
0.0
  0
LINE
  5
220
330
6C
100
AcDbEntity
  8
Visible (ISO)
100
AcDbLine
 10
109.8446505263757
 20
134.254573681282
 30
0.0
 11
109.7003129590782
 21
134.504573681282
 31
0.0
  0
LINE
  5
221
330
6C
100
AcDbEntity
  8
Visible (ISO)
100
AcDbLine
 10
108.9411235805234
 20
117.5045736812834
 30
0.0
 11
97.74817747222789
 21
117.5045736812834
 31
0.0
  0
LINE
  5
222
330
6C
100
AcDbEntity
  8
Visible (ISO)
100
AcDbLine
 10
108.9411235805234
 20
126.0045736812849
 30
0.0
 11
97.74817747222789
 21
126.0045736812849
 31
0.0
  0
LINE
  5
223
330
6C
100
AcDbEntity
  8
Visible (ISO)
100
AcDbLine
 10
108.9411235805234
 20
134.5045736812835
 30
0.0
 11
97.7481774722279
 21
134.5045736812835
 31
0.0
  0
SPLINE
  5
224
330
6C
100
AcDbEntity
  8
Visible (ISO)
100
AcDbSpline
210
0.0
220
0.0
230
1.0
 70
    28
 71
     2
 72
     6
 73
     3
 74
     0
 42
0.0000000001
 43
0.0000000001
 40
0.0906100100638165
 40
0.0906100100638165
 40
0.0906100100638165
 40
0.6046693311223861
 40
0.6046693311223861
 40
0.6046693311223861
 10
97.74817747222789
 20
117.5045736812834
 30
0.0
 41
1.030578586555895
 10
96.98898809367307
 20
117.5045736812827
 30
0.0
 41
1.110294117647057
 10
96.98898809367307
 20
117.5045736812819
 30
0.0
 41
1.110294117647057
  0
SPLINE
  5
225
330
6C
100
AcDbEntity
  8
Visible (ISO)
100
AcDbSpline
210
0.0
220
0.0
230
1.0
 70
    12
 71
     2
 72
     6
 73
     3
 74
     0
 42
0.0000000001
 43
0.0000000001
 40
0.0906100100638162
 40
0.0906100100638162
 40
0.0906100100638162
 40
1.118728652180968
 40
1.118728652180968
 40
1.118728652180968
 10
97.74817747222789
 20
126.0045736812849
 30
0.0
 41
1.030578586555895
 10
96.33151080556123
 20
121.7545736812841
 30
0.0
 41
1.19000964873822
 10
97.74817747222789
 20
117.5045736812834
 30
0.0
 41
1.030578586555895
  0
SPLINE
  5
226
330
6C
100
AcDbEntity
  8
Visible (ISO)
100
AcDbSpline
210
0.0
220
0.0
230
1.0
 70
    12
 71
     2
 72
     6
 73
     3
 74
     0
 42
0.0000000001
 43
0.0000000001
 40
0.0906100100638159
 40
0.0906100100638159
 40
0.0906100100638159
 40
1.118728652180965
 40
1.118728652180965
 40
1.118728652180965
 10
97.7481774722279
 20
134.5045736812835
 30
0.0
 41
1.030578586555895
 10
96.33151080556123
 20
130.2545736812841
 30
0.0
 41
1.190009648738221
 10
97.74817747222789
 20
126.0045736812849
 30
0.0
 41
1.030578586555895
  0
SPLINE
  5
227
330
6C
100
AcDbEntity
  8
Visible (ISO)
100
AcDbSpline
210
0.0
220
0.0
230
1.0
 70
    28
 71
     2
 72
     6
 73
     3
 74
     0
 42
0.0000000001
 43
0.0000000001
 40
0.6046693311223939
 40
0.6046693311223939
 40
0.6046693311223939
 40
1.118728652180966
 40
1.118728652180966
 40
1.118728652180966
 10
96.98898809367307
 20
134.504573681282
 30
0.0
 41
1.110294117647057
 10
96.98898809367307
 20
134.5045736812827
 30
0.0
 41
1.110294117647057
 10
97.7481774722279
 20
134.5045736812835
 30
0.0
 41
1.030578586555895
  0
LINE
  5
228
330
6C
100
AcDbEntity
  8
Visible (ISO)
100
AcDbLine
 10
96.84465052637564
 20
134.254573681282
 30
0.0
 11
96.84465052637564
 21
117.754573681282
 31
0.0
  0
LINE
  5
229
330
6C
100
AcDbEntity
  8
Visible (ISO)
100
AcDbLine
 10
96.84465052637568
 20
134.254573681282
 30
0.0
 11
96.98898809367307
 21
134.504573681282
 31
0.0
  0
LINE
  5
22A
330
6C
100
AcDbEntity
  8
Visible (ISO)
100
AcDbLine
 10
96.84465052637564
 20
117.754573681282
 30
0.0
 11
96.98898809367307
 21
117.5045736812819
 31
0.0
  0
SPLINE
  5
22B
330
6C
100
AcDbEntity
  8
Visible (ISO)
100
AcDbSpline
210
0.0
220
0.0
230
1.0
 70
    28
 71
     2
 72
     6
 73
     3
 74
     0
 42
0.0000000001
 43
0.0000000001
 40
0.0906100100638158
 40
0.0906100100638158
 40
0.0906100100638158
 40
0.6046693311223926
 40
0.6046693311223926
 40
0.6046693311223926
 10
129.8446505263757
 20
141.9081006271357
 30
0.0
 41
1.030578586555895
 10
129.8446505263757
 20
141.1489112485801
 30
0.0
 41
1.110294117647057
 10
129.8446505263757
 20
141.1489112485794
 30
0.0
 41
1.110294117647057
  0
SPLINE
  5
22C
330
6C
100
AcDbEntity
  8
Visible (ISO)
100
AcDbSpline
210
0.0
220
0.0
230
1.0
 70
    12
 71
     2
 72
     6
 73
     3
 74
     0
 42
0.0000000001
 43
0.0000000001
 40
0.0906100100638159
 40
0.0906100100638159
 40
0.0906100100638159
 40
1.118728652180965
 40
1.118728652180965
 40
1.118728652180965
 10
121.3446505263757
 20
141.9081006271371
 30
0.0
 41
1.030578586555895
 10
125.5946505263756
 20
140.4914339604697
 30
0.0
 41
1.190009648738219
 10
129.8446505263757
 20
141.9081006271357
 30
0.0
 41
1.030578586555895
  0
SPLINE
  5
22D
330
6C
100
AcDbEntity
  8
Visible (ISO)
100
AcDbSpline
210
0.0
220
0.0
230
1.0
 70
    12
 71
     2
 72
     6
 73
     3
 74
     0
 42
0.0000000001
 43
0.0000000001
 40
0.0906100100638158
 40
0.0906100100638158
 40
0.0906100100638158
 40
1.118728652180966
 40
1.118728652180966
 40
1.118728652180966
 10
112.8446505263756
 20
141.9081006271357
 30
0.0
 41
1.030578586555895
 10
117.0946505263757
 20
140.4914339604697
 30
0.0
 41
1.190009648738221
 10
121.3446505263757
 20
141.9081006271371
 30
0.0
 41
1.030578586555895
  0
SPLINE
  5
22E
330
6C
100
AcDbEntity
  8
Visible (ISO)
100
AcDbSpline
210
0.0
220
0.0
230
1.0
 70
    28
 71
     2
 72
     6
 73
     3
 74
     0
 42
0.0000000001
 43
0.0000000001
 40
0.6046693311223934
 40
0.6046693311223934
 40
0.6046693311223934
 40
1.118728652180966
 40
1.118728652180966
 40
1.118728652180966
 10
112.8446505263756
 20
141.1489112485794
 30
0.0
 41
1.110294117647057
 10
112.8446505263756
 20
141.1489112485801
 30
0.0
 41
1.110294117647057
 10
112.8446505263756
 20
141.9081006271357
 30
0.0
 41
1.030578586555895
  0
LINE
  5
22F
330
6C
100
AcDbEntity
  8
Visible (ISO)
100
AcDbLine
 10
113.0946505263757
 20
141.004573681282
 30
0.0
 11
129.5946505263755
 21
141.004573681282
 31
0.0
  0
LINE
  5
230
330
6C
100
AcDbEntity
  8
Visible (ISO)
100
AcDbLine
 10
113.0946505263757
 20
141.004573681282
 30
0.0
 11
112.8446505263756
 21
141.1489112485794
 31
0.0
  0
LINE
  5
231
330
6C
100
AcDbEntity
  8
Visible (ISO)
100
AcDbLine
 10
129.5946505263755
 20
141.004573681282
 30
0.0
 11
129.8446505263757
 21
141.1489112485794
 31
0.0
  0
LINE
  5
232
330
6C
100
AcDbEntity
  8
Visible (ISO)
100
AcDbLine
 10
112.8446505263756
 20
141.9081006271357
 30
0.0
 11
112.8446505263756
 21
153.1010467354311
 31
0.0
  0
LINE
  5
233
330
6C
100
AcDbEntity
  8
Visible (ISO)
100
AcDbLine
 10
121.3446505263757
 20
141.9081006271371
 30
0.0
 11
121.3446505263757
 21
153.1010467354327
 31
0.0
  0
LINE
  5
234
330
6C
100
AcDbEntity
  8
Visible (ISO)
100
AcDbLine
 10
129.8446505263757
 20
141.9081006271357
 30
0.0
 11
129.8446505263757
 21
153.1010467354311
 31
0.0
  0
SPLINE
  5
235
330
6C
100
AcDbEntity
  8
Visible (ISO)
100
AcDbSpline
210
0.0
220
0.0
230
1.0
 70
    28
 71
     2
 72
     6
 73
     3
 74
     0
 42
0.0000000001
 43
0.0000000001
 40
0.0906100100638165
 40
0.0906100100638165
 40
0.0906100100638165
 40
0.6046693311223908
 40
0.6046693311223908
 40
0.6046693311223908
 10
112.8446505263756
 20
153.1010467354311
 30
0.0
 41
1.030578586555895
 10
112.8446505263756
 20
153.8602361139853
 30
0.0
 41
1.110294117647057
 10
112.8446505263756
 20
153.8602361139846
 30
0.0
 41
1.110294117647057
  0
SPLINE
  5
236
330
6C
100
AcDbEntity
  8
Visible (ISO)
100
AcDbSpline
210
0.0
220
0.0
230
1.0
 70
    12
 71
     2
 72
     6
 73
     3
 74
     0
 42
0.0000000001
 43
0.0000000001
 40
0.0906100100638162
 40
0.0906100100638162
 40
0.0906100100638162
 40
1.118728652180968
 40
1.118728652180968
 40
1.118728652180968
 10
121.3446505263757
 20
153.1010467354327
 30
0.0
 41
1.030578586555895
 10
117.0946505263755
 20
154.5177134020985
 30
0.0
 41
1.19000964873822
 10
112.8446505263756
 20
153.1010467354311
 30
0.0
 41
1.030578586555895
  0
SPLINE
  5
237
330
6C
100
AcDbEntity
  8
Visible (ISO)
100
AcDbSpline
210
0.0
220
0.0
230
1.0
 70
    12
 71
     2
 72
     6
 73
     3
 74
     0
 42
0.0000000001
 43
0.0000000001
 40
0.0906100100638159
 40
0.0906100100638159
 40
0.0906100100638159
 40
1.118728652180965
 40
1.118728652180965
 40
1.118728652180965
 10
129.8446505263757
 20
153.1010467354311
 30
0.0
 41
1.030578586555895
 10
125.5946505263756
 20
154.5177134020986
 30
0.0
 41
1.190009648738221
 10
121.3446505263757
 20
153.1010467354327
 30
0.0
 41
1.030578586555895
  0
SPLINE
  5
238
330
6C
100
AcDbEntity
  8
Visible (ISO)
100
AcDbSpline
210
0.0
220
0.0
230
1.0
 70
    28
 71
     2
 72
     6
 73
     3
 74
     0
 42
0.0000000001
 43
0.0000000001
 40
0.6046693311223905
 40
0.6046693311223905
 40
0.6046693311223905
 40
1.118728652180966
 40
1.118728652180966
 40
1.118728652180966
 10
129.8446505263757
 20
153.8602361139846
 30
0.0
 41
1.110294117647057
 10
129.8446505263757
 20
153.8602361139853
 30
0.0
 41
1.110294117647057
 10
129.8446505263757
 20
153.1010467354311
 30
0.0
 41
1.030578586555895
  0
LINE
  5
239
330
6C
100
AcDbEntity
  8
Visible (ISO)
100
AcDbLine
 10
129.5946505263755
 20
154.0045736812819
 30
0.0
 11
113.0946505263757
 21
154.0045736812819
 31
0.0
  0
LINE
  5
23A
330
6C
100
AcDbEntity
  8
Visible (ISO)
100
AcDbLine
 10
129.5946505263755
 20
154.0045736812819
 30
0.0
 11
129.8446505263757
 21
153.8602361139846
 31
0.0
  0
LINE
  5
23B
330
6C
100
AcDbEntity
  8
Visible (ISO)
100
AcDbLine
 10
113.0946505263756
 20
154.0045736812819
 30
0.0
 11
112.8446505263756
 21
153.8602361139846
 31
0.0
  0
CIRCLE
  5
23C
330
6C
100
AcDbEntity
  8
Visible (ISO)
100
AcDbCircle
 10
202.7753860431
 20
47.03844843151149
 30
0.0
 40
3.0
  0
CIRCLE
  5
23D
330
6C
100
AcDbEntity
  8
Visible (ISO)
100
AcDbCircle
 10
202.7753860431027
 20
47.03844843151149
 30
0.0
 40
4.241970446886518
  0
CIRCLE
  5
23E
330
6C
100
AcDbEntity
  8
Visible (ISO)
100
AcDbCircle
 10
202.7753860431031
 20
47.03844843151149
 30
0.0
 40
5.0
  0
CIRCLE
  5
23F
330
6C
100
AcDbEntity
  8
Visible (ISO)
100
AcDbCircle
 10
202.7753860431003
 20
47.03844843151149
 30
0.0
 40
3.970499999999996
  0
CIRCLE
  5
240
330
6C
100
AcDbEntity
  8
Visible (ISO)
100
AcDbCircle
 10
202.775386043103
 20
47.03844843151149
 30
0.0
 40
6.5
  0
CIRCLE
  5
241
330
6C
100
AcDbEntity
  8
Visible (ISO)
100
AcDbCircle
 10
202.7753860431031
 20
47.03844843151149
 30
0.0
 40
6.0
  0
SPLINE
  5
242
330
6C
100
AcDbEntity
  8
Visible (ISO)
100
AcDbSpline
210
0.0
220
0.0
230
1.0
 70
    28
 71
     2
 72
     6
 73
     3
 74
     0
 42
0.0000000001
 43
0.0000000001
 40
0.4256073096284686
 40
0.4256073096284686
 40
0.4256073096284686
 40
0.8365524254088846
 40
0.8365524254088846
 40
0.8365524254088846
 10
194.2753860430991
 20
43.38981855167987
 30
0.0
 41
1.045691116018826
 10
194.2753860430993
 20
45.29121722145128
 30
0.0
 41
1.044904085362813
 10
194.2753860430993
 20
47.03844843151149
 30
0.0
 41
1.0
  0
ARC
  5
243
330
6C
100
AcDbEntity
  8
Visible (ISO)
100
AcDbCircle
 10
202.7753860430991
 20
47.03844843151144
 30
0.0
 40
9.24999999999992
100
AcDbArc
 50
203.2314565050076
 51
216.7685434949927
  0
ARC
  5
244
330
6C
100
AcDbEntity
  8
Visible (ISO)
100
AcDbCircle
 10
202.7753860430993
 20
47.03844843151149
 30
0.0
 40
8.499999999999987
100
AcDbArc
 50
180.0
 51
240.0
  0
ARC
  5
245
330
6C
100
AcDbEntity
  8
Visible (ISO)
100
AcDbCircle
 10
202.7753860430991
 20
47.03844843151153
 30
0.0
 40
9.249999999999916
100
AcDbArc
 50
143.2314565050073
 51
156.7685434949924
  0
SPLINE
  5
246
330
6C
100
AcDbEntity
  8
Visible (ISO)
100
AcDbSpline
210
0.0
220
0.0
230
1.0
 70
    28
 71
     2
 72
     6
 73
     3
 74
     0
 42
0.0000000001
 43
0.0000000001
 40
0.8365524254088846
 40
0.8365524254088846
 40
0.8365524254088846
 40
1.2474975411893
 40
1.2474975411893
 40
1.2474975411893
 10
194.2753860430993
 20
47.03844843151149
 30
0.0
 41
1.0
 10
194.2753860430993
 20
48.78567964157171
 30
0.0
 41
1.044904085362809
 10
194.2753860430991
 20
50.68707831134311
 30
0.0
 41
1.045691116018822
  0
ARC
  5
247
330
6C
100
AcDbEntity
  8
Visible (ISO)
100
AcDbCircle
 10
202.7753860430993
 20
47.03844843151149
 30
0.0
 40
8.499999999999996
100
AcDbArc
 50
120.0
 51
180.0
  0
ARC
  5
248
330
6C
100
AcDbEntity
  8
Visible (ISO)
100
AcDbCircle
 10
202.7753860430993
 20
47.03844843151149
 30
0.0
 40
8.499999999999996
100
AcDbArc
 50
59.99999999999999
 51
120.0
  0
SPLINE
  5
249
330
6C
100
AcDbEntity
  8
Visible (ISO)
100
AcDbSpline
210
0.0
220
0.0
230
1.0
 70
    28
 71
     2
 72
     6
 73
     3
 74
     0
 42
0.0000000001
 43
0.0000000001
 40
0.4256073096284699
 40
0.4256073096284699
 40
0.4256073096284699
 40
0.8365524254088839
 40
0.8365524254088839
 40
0.8365524254088839
 10
211.2753860430991
 20
50.68707831134308
 30
0.0
 41
1.045691116018829
 10
211.2753860430993
 20
48.78567964157171
 30
0.0
 41
1.044904085362814
 10
211.2753860430993
 20
47.03844843151148
 30
0.0
 41
1.0
  0
ARC
  5
24A
330
6C
100
AcDbEntity
  8
Visible (ISO)
100
AcDbCircle
 10
202.7753860430991
 20
47.03844843151148
 30
0.0
 40
9.250000000000015
100
AcDbArc
 50
23.23145650500757
 51
36.76854349499267
  0
ARC
  5
24B
330
6C
100
AcDbEntity
  8
Visible (ISO)
100
AcDbCircle
 10
202.7753860430993
 20
47.03844843151149
 30
0.0
 40
8.499999999999987
100
AcDbArc
 50
0.0
 51
59.99999999999999
  0
SPLINE
  5
24C
330
6C
100
AcDbEntity
  8
Visible (ISO)
100
AcDbSpline
210
0.0
220
0.0
230
1.0
 70
    28
 71
     2
 72
     6
 73
     3
 74
     0
 42
0.0000000001
 43
0.0000000001
 40
0.8365524254088839
 40
0.8365524254088839
 40
0.8365524254088839
 40
1.247497541189297
 40
1.247497541189297
 40
1.247497541189297
 10
211.2753860430993
 20
47.03844843151148
 30
0.0
 41
1.0
 10
211.2753860430993
 20
45.29121722145126
 30
0.0
 41
1.044904085362817
 10
211.2753860430991
 20
43.38981855167989
 30
0.0
 41
1.04569111601883
  0
ARC
  5
24D
330
6C
100
AcDbEntity
  8
Visible (ISO)
100
AcDbCircle
 10
202.7753860430993
 20
47.03844843151149
 30
0.0
 40
8.499999999999996
100
AcDbArc
 50
300.0
 51
0.0
  0
ARC
  5
24E
330
6C
100
AcDbEntity
  8
Visible (ISO)
100
AcDbCircle
 10
202.7753860430991
 20
47.03844843151158
 30
0.0
 40
9.250000000000159
100
AcDbArc
 50
323.2314565050078
 51
336.7685434949925
  0
ARC
  5
24F
330
6C
100
AcDbEntity
  8
Visible (ISO)
100
AcDbCircle
 10
202.7753860430993
 20
47.03844843151149
 30
0.0
 40
8.499999999999996
100
AcDbArc
 50
240.0
 51
300.0
  0
SPLINE
  5
250
330
6C
100
AcDbEntity
  8
Visible (ISO)
100
AcDbSpline
210
0.0
220
0.0
230
1.0
 70
    28
 71
     2
 72
     6
 73
     3
 74
     0
 42
0.0000000001
 43
0.0000000001
 40
0.8365524254088846
 40
0.8365524254088846
 40
0.8365524254088846
 40
1.2474975411893
 40
1.2474975411893
 40
1.2474975411893
 10
198.5253860430993
 20
39.67723249934376
 30
0.0
 41
1.0
 10
197.0122394289021
 20
40.55084810437389
 30
0.0
 41
1.044904085362819
 10
195.365579878158
 20
41.50154743925958
 30
0.0
 41
1.045691116018833
  0
SPLINE
  5
251
330
6C
100
AcDbEntity
  8
Visible (ISO)
100
AcDbSpline
210
0.0
220
0.0
230
1.0
 70
    28
 71
     2
 72
     6
 73
     3
 74
     0
 42
0.0000000001
 43
0.0000000001
 40
0.4256073096284686
 40
0.4256073096284686
 40
0.4256073096284686
 40
0.8365524254088844
 40
0.8365524254088844
 40
0.8365524254088844
 10
195.365579878158
 20
52.57534942376342
 30
0.0
 41
1.045691116018839
 10
197.0122394289021
 20
53.52604875864909
 30
0.0
 41
1.044904085362824
 10
198.5253860430993
 20
54.39966436367921
 30
0.0
 41
1.0
  0
SPLINE
  5
252
330
6C
100
AcDbEntity
  8
Visible (ISO)
100
AcDbSpline
210
0.0
220
0.0
230
1.0
 70
    28
 71
     2
 72
     6
 73
     3
 74
     0
 42
0.0000000001
 43
0.0000000001
 40
0.4256073096284702
 40
0.4256073096284702
 40
0.4256073096284702
 40
0.8365524254088839
 40
0.8365524254088839
 40
0.8365524254088839
 10
203.865579878158
 20
56.22397930359501
 30
0.0
 41
1.04569111601883
 10
205.5122394289021
 20
55.27327996870933
 30
0.0
 41
1.044904085362817
 10
207.0253860430993
 20
54.39966436367921
 30
0.0
 41
1.0
  0
ARC
  5
253
330
6C
100
AcDbEntity
  8
Visible (ISO)
100
AcDbCircle
 10
202.7753860430991
 20
47.03844843151147
 30
0.0
 40
9.250000000000024
100
AcDbArc
 50
83.23145650500769
 51
96.76854349499231
  0
SPLINE
  5
254
330
6C
100
AcDbEntity
  8
Visible (ISO)
100
AcDbSpline
210
0.0
220
0.0
230
1.0
 70
    28
 71
     2
 72
     6
 73
     3
 74
     0
 42
0.0000000001
 43
0.0000000001
 40
0.8365524254088844
 40
0.8365524254088844
 40
0.8365524254088844
 40
1.2474975411893
 40
1.2474975411893
 40
1.2474975411893
 10
198.5253860430993
 20
54.39966436367921
 30
0.0
 41
1.0
 10
200.0385326572965
 20
55.27327996870933
 30
0.0
 41
1.04490408536282
 10
201.6851922080403
 20
56.22397930359504
 30
0.0
 41
1.045691116018834
  0
SPLINE
  5
255
330
6C
100
AcDbEntity
  8
Visible (ISO)
100
AcDbSpline
210
0.0
220
0.0
230
1.0
 70
    28
 71
     2
 72
     6
 73
     3
 74
     0
 42
0.0000000001
 43
0.0000000001
 40
0.8365524254088839
 40
0.8365524254088839
 40
0.8365524254088839
 40
1.247497541189297
 40
1.247497541189297
 40
1.247497541189297
 10
207.0253860430993
 20
54.39966436367921
 30
0.0
 41
1.0
 10
208.5385326572965
 20
53.52604875864912
 30
0.0
 41
1.044904085362815
 10
210.1851922080403
 20
52.57534942376342
 30
0.0
 41
1.04569111601883
  0
SPLINE
  5
256
330
6C
100
AcDbEntity
  8
Visible (ISO)
100
AcDbSpline
210
0.0
220
0.0
230
1.0
 70
    28
 71
     2
 72
     6
 73
     3
 74
     0
 42
0.0000000001
 43
0.0000000001
 40
0.4256073096284691
 40
0.4256073096284691
 40
0.4256073096284691
 40
0.8365524254088837
 40
0.8365524254088837
 40
0.8365524254088837
 10
210.1851922080403
 20
41.50154743925956
 30
0.0
 41
1.045691116018833
 10
208.5385326572965
 20
40.55084810437387
 30
0.0
 41
1.044904085362819
 10
207.0253860430993
 20
39.67723249934376
 30
0.0
 41
1.0
  0
SPLINE
  5
257
330
6C
100
AcDbEntity
  8
Visible (ISO)
100
AcDbSpline
210
0.0
220
0.0
230
1.0
 70
    28
 71
     2
 72
     6
 73
     3
 74
     0
 42
0.0000000001
 43
0.0000000001
 40
0.8365524254088837
 40
0.8365524254088837
 40
0.8365524254088837
 40
1.247497541189299
 40
1.247497541189299
 40
1.247497541189299
 10
207.0253860430993
 20
39.67723249934376
 30
0.0
 41
1.0
 10
205.5122394289021
 20
38.80361689431366
 30
0.0
 41
1.044904085362823
 10
203.865579878158
 20
37.85291755942796
 30
0.0
 41
1.045691116018837
  0
SPLINE
  5
258
330
6C
100
AcDbEntity
  8
Visible (ISO)
100
AcDbSpline
210
0.0
220
0.0
230
1.0
 70
    28
 71
     2
 72
     6
 73
     3
 74
     0
 42
0.0000000001
 43
0.0000000001
 40
0.4256073096284692
 40
0.4256073096284692
 40
0.4256073096284692
 40
0.8365524254088846
 40
0.8365524254088846
 40
0.8365524254088846
 10
201.6851922080403
 20
37.85291755942796
 30
0.0
 41
1.045691116018834
 10
200.0385326572965
 20
38.80361689431366
 30
0.0
 41
1.04490408536282
 10
198.5253860430993
 20
39.67723249934376
 30
0.0
 41
1.0
  0
ARC
  5
259
330
6C
100
AcDbEntity
  8
Visible (ISO)
100
AcDbCircle
 10
202.7753860430991
 20
47.03844843151149
 30
0.0
 40
9.25
100
AcDbArc
 50
263.2314565050076
 51
276.7685434949923
  0
LINE
  5
25A
330
6C
100
AcDbEntity
  8
Visible (ISO)
100
AcDbLine
 10
217.2753860430958
 20
38.5384484315115
 30
0.0
 11
217.2753860430958
 21
55.53844843151148
 31
0.0
  0
SPLINE
  5
25B
330
6C
100
AcDbEntity
  8
Visible (ISO)
100
AcDbSpline
210
0.0
220
0.0
230
1.0
 70
     8
 71
     3
 72
    10
 73
     6
 74
     0
 42
0.0000000001
 43
0.0000000001
 40
0.4684177548466585
 40
0.4684177548466585
 40
0.4684177548466585
 40
0.4684177548466585
 40
0.6993240282055356
 40
0.6993240282055356
 40
0.9303035210404578
 40
0.9303035210404578
 40
0.9303035210607802
 40
0.9303035210607802
 10
206.9477970198607
 20
54.44446040568479
 30
0.0
 10
207.453375861322
 20
54.72929459531528
 30
0.0
 10
207.9040997194793
 20
55.01913961850323
 30
0.0
 10
208.515775305245
 20
55.42532880180152
 30
0.0
 10
208.6753860430961
 20
55.5384484315115
 30
0.0
 10
208.675386043096
 20
55.5384484315115
 30
0.0
  0
LINE
  5
25C
330
6C
100
AcDbEntity
  8
Visible (ISO)
100
AcDbLine
 10
208.675386043096
 20
55.5384484315115
 30
0.0
 11
217.2753860430958
 21
55.5384484315115
 31
0.0
  0
LINE
  5
25D
330
6C
100
AcDbEntity
  8
Visible (ISO)
100
AcDbLine
 10
205.0529541787605
 20
38.5384484315115
 30
0.0
 11
217.2753860430958
 21
38.5384484315115
 31
0.0
  0
LINE
  5
25E
330
6C
100
AcDbEntity
  8
Visible (ISO)
100
AcDbLine
 10
217.7753860430959
 20
39.0384484315115
 30
0.0
 11
217.2753860430958
 21
38.5384484315115
 31
0.0
  0
LINE
  5
25F
330
6C
100
AcDbEntity
  8
Visible (ISO)
100
AcDbLine
 10
217.7753860430959
 20
55.03844843151149
 30
0.0
 11
217.2753860430958
 21
55.5384484315115
 31
0.0
  0
LINE
  5
260
330
6C
100
AcDbEntity
  8
Visible (ISO)
100
AcDbLine
 10
196.8753860430958
 20
53.44703641951633
 30
0.0
 11
196.8753860430958
 21
57.53844843151151
 31
0.0
  0
LINE
  5
261
330
6C
100
AcDbEntity
  8
Visible (ISO)
100
AcDbLine
 10
208.675386043096
 20
55.53844843151148
 30
0.0
 11
208.675386043096
 21
57.53844843151151
 31
0.0
  0
CIRCLE
  5
262
330
6C
100
AcDbEntity
  8
Visible Narrow (ISO)
100
AcDbCircle
 10
202.7753860431031
 20
47.03844843151149
 30
0.0
 40
4.856517398564164
  0
ARC
  5
263
330
6C
100
AcDbEntity
  8
Visible (ISO)
100
AcDbCircle
 10
188.7753860430967
 20
73.55740395488917
 30
0.0
 40
5.999999999999983
100
AcDbArc
 50
180.0
 51
275.5801667844743
  0
LINE
  5
264
330
6C
100
AcDbEntity
  8
Visible (ISO)
100
AcDbLine
 10
182.7753860430969
 20
73.55740395488917
 30
0.0
 11
182.7753860430969
 21
75.53844843151146
 31
0.0
  0
ARC
  5
265
330
6C
100
AcDbEntity
  8
Visible (ISO)
100
AcDbCircle
 10
188.386432478831
 20
77.53844843151146
 30
0.0
 40
9.999999999999976
100
AcDbArc
 50
275.5801667844743
 51
336.4218215217976
  0
LINE
  5
266
330
6C
100
AcDbEntity
  8
Visible (ISO)
100
AcDbLine
 10
180.5999491815603
 20
75.53844843151146
 30
0.0
 11
162.775386043097
 21
75.53844843151146
 31
0.0
  0
LINE
  5
267
330
6C
100
AcDbEntity
  8
Visible (ISO)
100
AcDbLine
 10
182.7753860430969
 20
75.53844843151146
 30
0.0
 11
180.5999491815603
 21
75.53844843151146
 31
0.0
  0
ARC
  5
268
330
6C
100
AcDbEntity
  8
Visible (ISO)
100
AcDbCircle
 10
167.775386043097
 20
68.53844843151148
 30
0.0
 40
4.999999999999984
100
AcDbArc
 50
180.0
 51
270.0
  0
LINE
  5
269
330
6C
100
AcDbEntity
  8
Visible (ISO)
100
AcDbLine
 10
167.775386043097
 20
63.53844843151151
 30
0.0
 11
175.775386043097
 21
63.53844843151151
 31
0.0
  0
ARC
  5
26A
330
6C
100
AcDbEntity
  8
Visible (ISO)
100
AcDbCircle
 10
175.8832419341972
 20
18.5384484315079
 30
0.0
 40
45.00012925418732
100
AcDbArc
 50
83.98346803219538
 51
90.13732612271907
  0
SPLINE
  5
26B
330
6C
100
AcDbEntity
  8
Visible (ISO)
100
AcDbSpline
210
0.0
220
0.0
230
1.0
 70
     8
 71
     3
 72
    14
 73
    10
 74
     0
 42
0.0000000001
 43
0.0000000001
 40
1.926793397172414
 40
1.926793397172414
 40
1.926793397172414
 40
1.926793397172414
 40
1.97656079380868
 40
1.97656079380868
 40
2.130659566433751
 40
2.130659566433751
 40
2.281322051466951
 40
2.281322051466951
 40
2.334003023765769
 40
2.334003023765769
 40
2.334003023765769
 40
2.334003023765769
 10
193.4500996536597
 20
60.39880218301868
 30
0.0
 10
193.6162452028761
 20
60.35371041228994
 30
0.0
 10
193.7803812218861
 20
60.29758781421758
 30
0.0
 10
194.4348639995256
 20
60.0250347464043
 30
0.0
 10
194.8864452673855
 20
59.71438471709279
 30
0.0
 10
195.5922913296821
 20
59.00224906484918
 30
0.0
 10
195.896881551683
 20
58.55590121463416
 30
0.0
 10
196.1702592347926
 20
57.89405678815009
 30
0.0
 10
196.2291911479614
 20
57.71736049105339
 30
0.0
 10
196.2753860430975
 20
57.53844843151151
 30
0.0
  0
LINE
  5
26C
330
6C
100
AcDbEntity
  8
Visible (ISO)
100
AcDbLine
 10
187.669866552661
 20
61.96755287768533
 30
0.0
 11
193.4500996536597
 21
60.39880218301868
 31
0.0
  0
SPLINE
  5
26D
330
6C
100
AcDbEntity
  8
Visible (ISO)
100
AcDbSpline
210
0.0
220
0.0
230
1.0
 70
     8
 71
     3
 72
    10
 73
     6
 74
     0
 42
0.0000000001
 43
0.0000000001
 40
4.585290746366443
 40
4.585290746366443
 40
4.585290746366443
 40
4.585290746366443
 40
4.831732503296846
 40
4.831732503296846
 40
5.274628023622251
 40
5.274628023622251
 40
5.274628023622251
 40
5.274628023622251
 10
180.5999491815603
 20
63.29070318628243
 30
0.0
 10
181.4694037819944
 20
63.19906617631294
 30
0.0
 10
182.3330906131439
 20
63.08235499987
 30
0.0
 10
184.7210374957506
 20
62.68958190864521
 30
0.0
 10
186.223149530531
 20
62.36019073394421
 30
0.0
 10
187.6698665526611
 20
61.96755287768533
 30
0.0
  0
LINE
  5
26E
330
6C
100
AcDbEntity
  8
Visible Narrow (ISO)
100
AcDbLine
 10
180.5999491815603
 20
66.53319200950216
 30
0.0
 11
180.5999491815603
 21
63.29070318628243
 31
0.0
  0
LINE
  5
26F
330
6C
100
AcDbEntity
  8
Visible (ISO)
100
AcDbLine
 10
162.775386043097
 20
68.53844843151151
 30
0.0
 11
162.775386043097
 21
75.53844843151146
 31
0.0
  0
SPLINE
  5
270
330
6C
100
AcDbEntity
  8
Visible (ISO)
100
AcDbSpline
210
0.0
220
0.0
230
1.0
 70
     8
 71
     3
 72
    10
 73
     6
 74
     0
 42
0.0000000001
 43
0.0000000001
 40
1.75851045369192
 40
1.75851045369192
 40
1.75851045369192
 40
1.75851045369192
 40
1.769985036102441
 40
1.769985036102441
 40
1.77528265148158
 40
1.77528265148158
 40
1.77528265148158
 40
1.77528265148158
 10
200.6194407926707
 20
57.53844843151155
 30
0.0
 10
200.6558300933707
 20
57.53844843151155
 30
0.0
 10
200.692119338999
 20
57.54473719811411
 30
0.0
 10
200.7436052210618
 20
57.56200444993378
 30
0.0
 10
200.7596434396027
 20
57.56862817982873
 30
0.0
 10
200.7753860430979
 20
57.57626535531153
 30
0.0
  0
LINE
  5
271
330
6C
100
AcDbEntity
  8
Visible (ISO)
100
AcDbLine
 10
200.7685866851808
 20
57.53844843151151
 30
0.0
 11
200.6194407926727
 21
57.53844843151151
 31
0.0
  0
SPLINE
  5
272
330
6C
100
AcDbEntity
  8
Visible (ISO)
100
AcDbSpline
210
0.0
220
0.0
230
1.0
 70
     8
 71
     3
 72
     8
 73
     4
 74
     0
 42
0.0000000001
 43
0.0000000001
 40
-0.0038487373741095
 40
-0.0038487373741095
 40
-0.0038487373741095
 40
-0.0038487373741095
 40
0.0
 40
0.0
 40
0.0
 40
0.0
 10
200.7753860430979
 20
57.57626535531148
 30
0.0
 10
200.7731200294673
 20
57.56365963511026
 30
0.0
 10
200.7708535768246
 20
57.55105399294293
 30
0.0
 10
200.7685866851808
 20
57.53844843151151
 30
0.0
  0
SPLINE
  5
273
330
6C
100
AcDbEntity
  8
Visible (ISO)
100
AcDbSpline
210
0.0
220
0.0
230
1.0
 70
     8
 71
     3
 72
    22
 73
    18
 74
     0
 42
0.0000000001
 43
0.0000000001
 40
0.9432407987623507
 40
0.9432407987623507
 40
0.9432407987623507
 40
0.9432407987623507
 40
1.171120556264495
 40
1.171120556264495
 40
1.366307315641912
 40
1.366307315641912
 40
1.561494075019328
 40
1.561494075019328
 40
1.637053099534583
 40
1.637053099534583
 40
1.712612124049838
 40
1.712612124049838
 40
1.735561288870879
 40
1.735561288870879
 40
1.7470358712814
 40
1.7470358712814
 40
1.75851045369192
 40
1.75851045369192
 40
1.75851045369192
 40
1.75851045369192
 10
198.3008391590172
 20
65.53844843151151
 30
0.0
 10
198.4235232963961
 20
64.72202454152219
 30
0.0
 10
198.5533555866402
 20
63.91241474907161
 30
0.0
 10
198.8151192506856
 20
62.43488880654357
 30
0.0
 10
198.943794138487
 20
61.76347784963915
 30
0.0
 10
199.2306702063578
 20
60.45078952300173
 30
0.0
 10
199.3863137458502
 20
59.80890074679487
 30
0.0
 10
199.6576852568658
 20
58.95217881507258
 30
0.0
 10
199.7475370730199
 20
58.69211580369771
 30
0.0
 10
199.9599733237195
 20
58.19315992575429
 30
0.0
 10
200.078365425165
 20
57.95231309238373
 30
0.0
 10
200.2863088651324
 20
57.70688103372329
 30
0.0
 10
200.3445324447674
 20
57.64914474658436
 30
0.0
 10
200.4419946007531
 20
57.58569204548494
 30
0.0
 10
200.4762140455769
 20
57.5683637384751
 30
0.0
 10
200.5467410629518
 20
57.54473719811432
 30
0.0
 10
200.5830514919706
 20
57.53844843151155
 30
0.0
 10
200.6194407926707
 20
57.53844843151155
 30
0.0
  0
SPLINE
  5
274
330
6C
100
AcDbEntity
  8
Visible (ISO)
100
AcDbSpline
210
0.0
220
0.0
230
1.0
 70
     8
 71
     3
 72
    10
 73
     6
 74
     0
 42
0.0000000001
 43
0.0000000001
 40
1.527849395011701
 40
1.527849395011701
 40
1.527849395011701
 40
1.527849395011701
 40
1.623235420363269
 40
1.623235420363269
 40
1.651542757804969
 40
1.651542757804969
 40
1.651542757804969
 40
1.651542757804969
 10
199.0610499148003
 20
66.53319200950216
 30
0.0
 10
198.838070321628
 20
66.2939851450123
 30
0.0
 10
198.6356604344785
 20
66.02933523981545
 30
0.0
 10
198.4040528552097
 20
65.69470201689776
 30
0.0
 10
198.352024595703
 20
65.61705369105652
 30
0.0
 10
198.3008391590172
 20
65.53844843151151
 30
0.0
  0
LINE
  5
275
330
6C
100
AcDbEntity
  8
Visible (ISO)
100
AcDbLine
 10
180.5999491815603
 20
66.53319200950216
 30
0.0
 11
199.0610499148003
 21
66.53319200950216
 31
0.0
  0
LINE
  5
276
330
6C
100
AcDbEntity
  8
Visible (ISO)
100
AcDbLine
 10
200.6194407926707
 20
57.53844843151151
 30
0.0
 11
196.2753860430976
 21
57.53844843151151
 31
0.0
  0
LINE
  5
277
330
6C
100
AcDbEntity
  8
Visible (ISO)
100
AcDbLine
 10
180.5999491815603
 20
66.53319200950216
 30
0.0
 11
180.5999491815603
 21
75.53844843151146
 31
0.0
  0
SPLINE
  5
278
330
6C
100
AcDbEntity
  8
Visible (ISO)
100
AcDbSpline
210
0.0
220
0.0
230
1.0
 70
    12
 71
     2
 72
     6
 73
     3
 74
     0
 42
0.0000000001
 43
0.0000000001
 40
0.0
 40
0.0
 40
0.0
 40
0.735020748025817
 40
0.735020748025817
 40
0.735020748025817
 10
197.5515838687423
 20
73.53844843151148
 30
0.0
 41
1.0
 10
196.8036209117604
 20
70.52321209165234
 30
0.0
 41
1.010647833931205
 10
195.8234452047792
 20
66.53319200950216
 30
0.0
 41
1.002310889209607
  0
LINE
  5
279
330
6C
100
AcDbEntity
  8
Visible (ISO)
100
AcDbLine
 10
195.7753860430959
 20
57.53844843151151
 30
0.0
 11
196.2753860430966
 21
57.53844843151151
 31
0.0
  0
LINE
  5
27A
330
6C
100
AcDbEntity
  8
Visible (ISO)
100
AcDbLine
 10
195.7753860430959
 20
57.53844843151151
 30
0.0
 11
195.7046673422981
 21
58.79566977902644
 31
0.0
  0
LINE
  5
27B
330
6C
100
AcDbEntity
  8
Visible (ISO)
100
AcDbLine
 10
200.7753860430979
 20
57.53844843151151
 30
0.0
 11
200.7685866851808
 21
57.53844843151151
 31
0.0
  0
SPLINE
  5
27C
330
6C
100
AcDbEntity
  8
Visible (ISO)
100
AcDbSpline
210
0.0
220
0.0
230
1.0
 70
    28
 71
     2
 72
     6
 73
     3
 74
     0
 42
0.0000000001
 43
0.0000000001
 40
0.7974519034631253
 40
0.7974519034631253
 40
0.7974519034631253
 40
0.8013696042749975
 40
0.8013696042749975
 40
0.8013696042749975
 10
200.7753860430979
 20
57.57626535531153
 30
0.0
 41
1.000005114022332
 10
200.7753860430979
 20
57.55735376558429
 30
0.0
 41
1.000002569573184
 10
200.7753860430979
 20
57.53844843151151
 30
0.0
 41
1.0
  0
LINE
  5
27D
330
6C
100
AcDbEntity
  8
Visible (ISO)
100
AcDbLine
 10
200.7753860430979
 20
57.53844843151151
 30
0.0
 11
209.7753860430958
 21
57.53844843151151
 31
0.0
  0
LINE
  5
27E
330
6C
100
AcDbEntity
  8
Visible (ISO)
100
AcDbLine
 10
197.5515838687423
 20
73.53844843151148
 30
0.0
 11
208.0668886652254
 21
73.53844843151148
 31
0.0
  0
LINE
  5
27F
330
6C
100
AcDbEntity
  8
Visible (ISO)
100
AcDbLine
 10
198.3008391590172
 20
65.53844843151151
 30
0.0
 11
210.2253860430959
 21
65.53844843151151
 31
0.0
  0
LINE
  5
280
330
6C
100
AcDbEntity
  8
Visible (ISO)
100
AcDbLine
 10
208.2753860430958
 20
73.53844843151148
 30
0.0
 11
210.2253860430959
 21
65.53844843151151
 31
0.0
  0
LINE
  5
281
330
6C
100
AcDbEntity
  8
Visible (ISO)
100
AcDbLine
 10
209.7753860430958
 20
57.53844843151151
 30
0.0
 11
210.2253860430959
 21
65.53844843151151
 31
0.0
  0
LINE
  5
282
330
6C
100
AcDbEntity
  8
Visible (ISO)
100
AcDbLine
 10
197.4838834209671
 20
73.53844843151148
 30
0.0
 11
197.5515838687424
 21
73.53844843151148
 31
0.0
  0
LINE
  5
283
330
6C
100
AcDbEntity
  8
Visible (ISO)
100
AcDbLine
 10
197.2753860430959
 20
73.53844843151148
 30
0.0
 11
197.0207516801024
 21
72.49379463461514
 31
0.0
  0
LINE
  5
284
330
6C
100
AcDbEntity
  8
Visible (ISO)
100
AcDbLine
 10
199.2753860430965
 20
74.34844843151148
 30
0.0
 11
200.2753860430968
 21
74.34844843151148
 31
0.0
  0
LINE
  5
285
330
6C
100
AcDbEntity
  8
Visible (ISO)
100
AcDbLine
 10
200.2753860430968
 20
74.34844843151148
 30
0.0
 11
201.2753860430965
 21
74.34844843151148
 31
0.0
  0
LINE
  5
286
330
6C
100
AcDbEntity
  8
Visible (ISO)
100
AcDbLine
 10
201.2753860430954
 20
74.34844843151148
 30
0.0
 11
202.2753860430952
 21
74.34844843151148
 31
0.0
  0
LINE
  5
287
330
6C
100
AcDbEntity
  8
Visible (ISO)
100
AcDbLine
 10
202.2753860430952
 20
74.34844843151148
 30
0.0
 11
205.2753860430951
 21
74.34844843151151
 31
0.0
  0
LINE
  5
288
330
6C
100
AcDbEntity
  8
Visible (ISO)
100
AcDbLine
 10
205.2753860430954
 20
74.34844843151151
 30
0.0
 11
206.275386043095
 21
74.34844843151151
 31
0.0
  0
LINE
  5
289
330
6C
100
AcDbEntity
  8
Visible (ISO)
100
AcDbLine
 10
201.2753860430965
 20
74.33844843151149
 30
0.0
 11
201.2753860430965
 21
74.34844843151148
 31
0.0
  0
LINE
  5
28A
330
6C
100
AcDbEntity
  8
Visible (ISO)
100
AcDbLine
 10
200.2753860430968
 20
74.33844843151149
 30
0.0
 11
200.2753860430968
 21
74.34844843151148
 31
0.0
  0
LINE
  5
28B
330
6C
100
AcDbEntity
  8
Visible (ISO)
100
AcDbLine
 10
199.2753860430965
 20
74.33844843151149
 30
0.0
 11
199.2753860430965
 21
74.34844843151148
 31
0.0
  0
LINE
  5
28C
330
6C
100
AcDbEntity
  8
Visible (ISO)
100
AcDbLine
 10
206.275386043095
 20
74.33844843151153
 30
0.0
 11
206.275386043095
 21
74.34844843151151
 31
0.0
  0
LINE
  5
28D
330
6C
100
AcDbEntity
  8
Visible (ISO)
100
AcDbLine
 10
205.2753860430954
 20
74.33844843151153
 30
0.0
 11
205.2753860430954
 21
74.34844843151151
 31
0.0
  0
LINE
  5
28E
330
6C
100
AcDbEntity
  8
Visible Narrow (ISO)
100
AcDbLine
 10
202.2753860430952
 20
74.33844843151149
 30
0.0
 11
202.2753860430952
 21
74.34844843151148
 31
0.0
  0
LINE
  5
28F
330
6C
100
AcDbEntity
  8
Visible (ISO)
100
AcDbLine
 10
197.8764065575298
 20
74.33844843151149
 30
0.0
 11
207.6743655286624
 21
74.33844843151153
 31
0.0
  0
SPLINE
  5
290
330
6C
100
AcDbEntity
  8
Visible (ISO)
100
AcDbSpline
210
0.0
220
0.0
230
1.0
 70
     8
 71
     3
 72
    18
 73
    14
 74
     0
 42
0.0000000001
 43
0.0000000001
 40
-0.0894071042414384
 40
-0.0894071042414384
 40
-0.0894071042414384
 40
-0.0894071042414384
 40
-0.0890024393096829
 40
-0.0890024393096829
 40
-0.071331341192769
 40
-0.071331341192769
 40
-0.054286520760514
 40
-0.054286520760514
 40
-0.033079826196916
 40
-0.033079826196916
 40
-0.0157603010710298
 40
-0.0157603010710298
 40
0.0
 40
0.0
 40
0.0
 40
0.0
 10
197.8764065575298
 20
74.33844843151149
 30
0.0
 10
197.8755473192084
 20
74.33844843151149
 30
0.0
 10
197.874688215304
 20
74.33844510920434
 30
0.0
 10
197.8363199264916
 20
74.33814820947066
 30
0.0
 10
197.7990006199413
 20
74.33151806660098
 30
0.0
 10
197.7281650776891
 20
74.30551350374469
 30
0.0
 10
197.6944295111631
 20
74.28654735908438
 30
0.0
 10
197.6236869398995
 20
74.22938647372058
 30
0.0
 10
197.5878861326444
 20
74.18760468380035
 30
0.0
 10
197.5344684169554
 20
74.09339844516035
 30
0.0
 10
197.5150536706526
 20
74.04486969536311
 30
0.0
 10
197.4901301090153
 20
73.94251928068658
 30
0.0
 10
197.483883420967
 20
73.89098276841491
 30
0.0
 10
197.483883420967
 20
73.83844843151149
 30
0.0
  0
LINE
  5
291
330
6C
100
AcDbEntity
  8
Visible Narrow (ISO)
100
AcDbLine
 10
208.0668886652254
 20
73.83844843151152
 30
0.0
 11
197.483883420967
 21
73.83844843151149
 31
0.0
  0
SPLINE
  5
292
330
6C
100
AcDbEntity
  8
Visible (ISO)
100
AcDbSpline
210
0.0
220
0.0
230
1.0
 70
     8
 71
     3
 72
    18
 73
    14
 74
     0
 42
0.0000000001
 43
0.0000000001
 40
-0.0896419378859127
 40
-0.0896419378859127
 40
-0.0896419378859127
 40
-0.0896419378859127
 40
-0.0737683962096255
 40
-0.0737683962096255
 40
-0.0563244271724696
 40
-0.0563244271724696
 40
-0.0349653586842182
 40
-0.0349653586842182
 40
-0.0177980681434567
 40
-0.0177980681434567
 40
0.0
 40
0.0
 40
0.0004075725222773
 40
0.0004075725222773
 40
0.0004075725222773
 40
0.0004075725222773
 10
208.0668886652254
 20
73.83844843151152
 30
0.0
 10
208.0668886652254
 20
73.89098276841497
 30
0.0
 10
208.0606419771771
 20
73.94251928068664
 30
0.0
 10
208.0357184155398
 20
74.04486969536313
 30
0.0
 10
208.016303669237
 20
74.09339844516037
 30
0.0
 10
207.9628859535478
 20
74.18760468380037
 30
0.0
 10
207.9270851462927
 20
74.22938647372061
 30
0.0
 10
207.8563425750291
 20
74.28654735908444
 30
0.0
 10
207.8226070085032
 20
74.30551350374472
 30
0.0
 10
207.7517714662511
 20
74.33151806660098
 30
0.0
 10
207.7144521597014
 20
74.33814820947069
 30
0.0
 10
207.676083870888
 20
74.33844510920437
 30
0.0
 10
207.6752247669838
 20
74.33844843151153
 30
0.0
 10
207.6743655286624
 20
74.33844843151153
 30
0.0
  0
LINE
  5
293
330
6C
100
AcDbEntity
  8
Visible Narrow (ISO)
100
AcDbLine
 10
197.3670591299002
 20
73.83844843151149
 30
0.0
 11
197.3670591299001
 21
74.33844843151149
 31
0.0
  0
LINE
  5
294
330
6C
100
AcDbEntity
  8
Visible Narrow (ISO)
100
AcDbLine
 10
197.3670591299002
 20
73.83844843151149
 30
0.0
 11
197.483883420967
 21
73.83844843151149
 31
0.0
  0
LINE
  5
295
330
6C
100
AcDbEntity
  8
Visible (ISO)
100
AcDbLine
 10
197.8764065575298
 20
74.33844843151149
 30
0.0
 11
197.3670591299001
 21
74.33844843151149
 31
0.0
  0
LINE
  5
296
330
6C
100
AcDbEntity
  8
Visible Narrow (ISO)
100
AcDbLine
 10
208.183712956292
 20
74.33844843151153
 30
0.0
 11
208.1837129562921
 21
73.83844843151152
 31
0.0
  0
LINE
  5
297
330
6C
100
AcDbEntity
  8
Visible (ISO)
100
AcDbLine
 10
208.183712956292
 20
74.33844843151153
 30
0.0
 11
207.6743655286624
 21
74.33844843151153
 31
0.0
  0
LINE
  5
298
330
6C
100
AcDbEntity
  8
Visible Narrow (ISO)
100
AcDbLine
 10
208.0668886652254
 20
73.83844843151152
 30
0.0
 11
208.1837129562921
 21
73.83844843151152
 31
0.0
  0
ELLIPSE
  5
299
330
6C
100
AcDbEntity
  8
Visible Narrow (ISO)
100
AcDbEllipse
 10
208.183712956292
 20
73.83844843151152
 30
0.0
 11
-0.0000000000000016
 21
0.5
 31
0.0
210
0.0
220
0.0
230
1.0
 40
0.9833321660356869
 41
4.712388980384687
 42
6.283185307179581
  0
LINE
  5
29A
330
6C
100
AcDbEntity
  8
Visible Narrow (ISO)
100
AcDbLine
 10
208.7753860430957
 20
73.83844843151152
 30
0.0
 11
208.6753790393099
 21
73.83844843151152
 31
0.0
  0
LINE
  5
29B
330
6C
100
AcDbEntity
  8
Visible (ISO)
100
AcDbLine
 10
208.183712956292
 20
74.33844843151153
 30
0.0
 11
208.2753860430957
 21
74.33844843151153
 31
0.0
  0
LINE
  5
29C
330
6C
100
AcDbEntity
  8
Visible Narrow (ISO)
100
AcDbLine
 10
208.6753790393099
 20
73.83844843151152
 30
0.0
 11
208.1837129562921
 21
73.83844843151152
 31
0.0
  0
LINE
  5
29D
330
6C
100
AcDbEntity
  8
Visible Narrow (ISO)
100
AcDbLine
 10
196.8753930468823
 20
73.83844843151149
 30
0.0
 11
196.7753860430958
 21
73.83844843151149
 31
0.0
  0
ELLIPSE
  5
29E
330
6C
100
AcDbEntity
  8
Visible Narrow (ISO)
100
AcDbEllipse
 10
197.3670591299001
 20
73.83844843151149
 30
0.0
 11
-0.0000000000000016
 21
0.5
 31
0.0
210
0.0
220
0.0
230
1.0
 40
0.9833321660355791
 41
0.0
 42
1.570796326794893
  0
LINE
  5
29F
330
6C
100
AcDbEntity
  8
Visible (ISO)
100
AcDbLine
 10
197.2753860430958
 20
74.33844843151149
 30
0.0
 11
197.3670591299001
 21
74.33844843151149
 31
0.0
  0
LINE
  5
2A0
330
6C
100
AcDbEntity
  8
Visible Narrow (ISO)
100
AcDbLine
 10
197.3670591299002
 20
73.83844843151149
 30
0.0
 11
196.8753930468823
 21
73.83844843151149
 31
0.0
  0
ARC
  5
2A1
330
6C
100
AcDbEntity
  8
Visible (ISO)
100
AcDbCircle
 10
208.2753860430957
 20
73.83844843151152
 30
0.0
 40
0.5
100
AcDbArc
 50
0.0
 51
90.0
  0
ARC
  5
2A2
330
6C
100
AcDbEntity
  8
Visible (ISO)
100
AcDbCircle
 10
197.2753860430958
 20
73.83844843151149
 30
0.0
 40
0.5
100
AcDbArc
 50
90.0
 51
180.0
  0
LINE
  5
2A3
330
6C
100
AcDbEntity
  8
Visible Narrow (ISO)
100
AcDbLine
 10
208.1837129562921
 20
73.83844843151152
 30
0.0
 11
208.1837129562921
 21
73.53844843151151
 31
0.0
  0
LINE
  5
2A4
330
6C
100
AcDbEntity
  8
Visible (ISO)
100
AcDbLine
 10
208.6753790393099
 20
73.53844843151151
 30
0.0
 11
208.1837129562921
 21
73.53844843151151
 31
0.0
  0
LINE
  5
2A5
330
6C
100
AcDbEntity
  8
Visible Narrow (ISO)
100
AcDbLine
 10
208.6753790393099
 20
73.83844843151152
 30
0.0
 11
208.6753790393099
 21
73.53844843151151
 31
0.0
  0
LINE
  5
2A6
330
6C
100
AcDbEntity
  8
Visible (ISO)
100
AcDbLine
 10
208.0668886652254
 20
73.83844843151152
 30
0.0
 11
208.0668886652254
 21
73.53844843151151
 31
0.0
  0
LINE
  5
2A7
330
6C
100
AcDbEntity
  8
Visible (ISO)
100
AcDbLine
 10
208.0668886652254
 20
73.53844843151151
 30
0.0
 11
208.1837129562921
 21
73.53844843151151
 31
0.0
  0
LINE
  5
2A8
330
6C
100
AcDbEntity
  8
Visible (ISO)
100
AcDbLine
 10
197.483883420967
 20
73.83844843151149
 30
0.0
 11
197.483883420967
 21
73.53844843151148
 31
0.0
  0
LINE
  5
2A9
330
6C
100
AcDbEntity
  8
Visible (ISO)
100
AcDbLine
 10
208.0668886652254
 20
73.53844843151151
 30
0.0
 11
197.483883420967
 21
73.53844843151148
 31
0.0
  0
LINE
  5
2AA
330
6C
100
AcDbEntity
  8
Visible Narrow (ISO)
100
AcDbLine
 10
197.3670591299002
 20
73.83844843151149
 30
0.0
 11
197.3670591299002
 21
73.53844843151148
 31
0.0
  0
LINE
  5
2AB
330
6C
100
AcDbEntity
  8
Visible (ISO)
100
AcDbLine
 10
197.3670591299002
 20
73.53844843151148
 30
0.0
 11
197.483883420967
 21
73.53844843151148
 31
0.0
  0
LINE
  5
2AC
330
6C
100
AcDbEntity
  8
Visible Narrow (ISO)
100
AcDbLine
 10
196.8753930468823
 20
73.83844843151146
 30
0.0
 11
196.8753930468823
 21
73.53844843151148
 31
0.0
  0
LINE
  5
2AD
330
6C
100
AcDbEntity
  8
Visible (ISO)
100
AcDbLine
 10
197.3670591299002
 20
73.53844843151148
 30
0.0
 11
196.8753930468823
 21
73.53844843151148
 31
0.0
  0
LINE
  5
2AE
330
6C
100
AcDbEntity
  8
Visible (ISO)
100
AcDbLine
 10
196.8753930468823
 20
73.53844843151148
 30
0.0
 11
196.7753860430958
 21
73.53844843151148
 31
0.0
  0
LINE
  5
2AF
330
6C
100
AcDbEntity
  8
Visible (ISO)
100
AcDbLine
 10
208.7753860430957
 20
73.53844843151151
 30
0.0
 11
208.6753790393099
 21
73.53844843151151
 31
0.0
  0
LINE
  5
2B0
330
6C
100
AcDbEntity
  8
Visible (ISO)
100
AcDbLine
 10
196.7753860430958
 20
73.83844843151149
 30
0.0
 11
196.7753860430958
 21
73.53844843151148
 31
0.0
  0
LINE
  5
2B1
330
6C
100
AcDbEntity
  8
Visible (ISO)
100
AcDbLine
 10
208.7753860430957
 20
73.83844843151152
 30
0.0
 11
208.7753860430957
 21
73.53844843151151
 31
0.0
  0
SPLINE
  5
2B2
330
6C
100
AcDbEntity
  8
Visible (ISO)
100
AcDbSpline
210
0.0
220
0.0
230
1.0
 70
    28
 71
     2
 72
     6
 73
     3
 74
     0
 42
0.0000000001
 43
0.0000000001
 40
0.0906100100638158
 40
0.0906100100638158
 40
0.0906100100638158
 40
0.2103098933030557
 40
0.2103098933030557
 40
0.2103098933030557
 10
194.2753860430921
 20
51.94592571962329
 30
0.0
 41
1.030578586555895
 10
194.8366358969852
 20
52.26996347385104
 30
0.0
 41
1.049140529454464
 10
195.3655798781511
 20
52.57534942376338
 30
0.0
 41
1.06338028169014
  0
SPLINE
  5
2B3
330
6C
100
AcDbEntity
  8
Visible (ISO)
100
AcDbSpline
210
0.0
220
0.0
230
1.0
 70
    28
 71
     2
 72
     6
 73
     3
 74
     0
 42
0.0000000001
 43
0.0000000001
 40
0.0906100100638164
 40
0.0906100100638164
 40
0.0906100100638164
 40
0.2103098933030582
 40
0.2103098933030582
 40
0.2103098933030582
 10
194.2753860430921
 20
42.13097114339961
 30
0.0
 41
1.030578586555895
 10
194.2753860430923
 20
42.77904665185514
 30
0.0
 41
1.049140529454464
 10
194.2753860430923
 20
43.38981855167986
 30
0.0
 41
1.06338028169014
  0
SPLINE
  5
2B4
330
6C
100
AcDbEntity
  8
Visible (ISO)
100
AcDbSpline
210
0.0
220
0.0
230
1.0
 70
    28
 71
     2
 72
     6
 73
     3
 74
     0
 42
0.0000000001
 43
0.0000000001
 40
0.9990287689417323
 40
0.9990287689417323
 40
0.9990287689417323
 40
1.118728652180966
 40
1.118728652180966
 40
1.118728652180966
 10
194.2753860430923
 20
50.68707831134311
 30
0.0
 41
1.063380281690138
 10
194.2753860430923
 20
51.29785021116782
 30
0.0
 41
1.049140529454462
 10
194.2753860430921
 20
51.94592571962329
 30
0.0
 41
1.030578586555895
  0
SPLINE
  5
2B5
330
6C
100
AcDbEntity
  8
Visible (ISO)
100
AcDbSpline
210
0.0
220
0.0
230
1.0
 70
    28
 71
     2
 72
     6
 73
     3
 74
     0
 42
0.0000000001
 43
0.0000000001
 40
0.0906100100638158
 40
0.0906100100638158
 40
0.0906100100638158
 40
0.2103098933030587
 40
0.2103098933030587
 40
0.2103098933030587
 10
202.7753860430922
 20
37.22349385528783
 30
0.0
 41
1.030578586555895
 10
202.2141361891992
 20
37.54753160951558
 30
0.0
 41
1.049140529454464
 10
201.6851922080334
 20
37.85291755942794
 30
0.0
 41
1.063380281690142
  0
SPLINE
  5
2B6
330
6C
100
AcDbEntity
  8
Visible (ISO)
100
AcDbSpline
210
0.0
220
0.0
230
1.0
 70
    28
 71
     2
 72
     6
 73
     3
 74
     0
 42
0.0000000001
 43
0.0000000001
 40
0.9990287689417336
 40
0.9990287689417336
 40
0.9990287689417336
 40
1.118728652180965
 40
1.118728652180965
 40
1.118728652180965
 10
195.3655798781511
 20
41.50154743925955
 30
0.0
 41
1.063380281690138
 10
194.8366358969851
 20
41.8069333891719
 30
0.0
 41
1.049140529454464
 10
194.2753860430921
 20
42.13097114339961
 30
0.0
 41
1.030578586555895
  0
SPLINE
  5
2B7
330
6C
100
AcDbEntity
  8
Visible (ISO)
100
AcDbSpline
210
0.0
220
0.0
230
1.0
 70
    28
 71
     2
 72
     6
 73
     3
 74
     0
 42
0.0000000001
 43
0.0000000001
 40
0.9990287689417304
 40
0.9990287689417304
 40
0.9990287689417304
 40
1.118728652180965
 40
1.118728652180965
 40
1.118728652180965
 10
203.8655798781511
 20
37.85291755942792
 30
0.0
 41
1.063380281690138
 10
203.3366358969852
 20
37.54753160951557
 30
0.0
 41
1.049140529454464
 10
202.7753860430922
 20
37.22349385528783
 30
0.0
 41
1.030578586555895
  0
SPLINE
  5
2B8
330
6C
100
AcDbEntity
  8
Visible (ISO)
100
AcDbSpline
210
0.0
220
0.0
230
1.0
 70
    12
 71
     2
 72
     6
 73
     3
 74
     0
 42
0.0000000001
 43
0.0000000001
 40
0.0906100100638158
 40
0.0906100100638158
 40
0.0906100100638158
 40
1.118728652180965
 40
1.118728652180965
 40
1.118728652180965
 10
218.6789129889506
 20
51.94592571962331
 30
0.0
 41
1.030578586555895
 10
217.262246322284
 20
47.03844843151149
 30
0.0
 41
1.190009648738221
 10
218.6789129889506
 20
42.13097114339968
 30
0.0
 41
1.030578586555895
  0
SPLINE
  5
2B9
330
6C
100
AcDbEntity
  8
Visible (ISO)
100
AcDbSpline
210
0.0
220
0.0
230
1.0
 70
    12
 71
     2
 72
     6
 73
     3
 74
     0
 42
0.0000000001
 43
0.0000000001
 40
0.0906100100638159
 40
0.0906100100638159
 40
0.0906100100638159
 40
1.118728652180965
 40
1.118728652180965
 40
1.118728652180965
 10
218.6789129889481
 20
56.85340300773511
 30
0.0
 41
1.030578586555895
 10
217.2622463222828
 20
54.39966436367921
 30
0.0
 41
1.190009648738219
 10
218.6789129889506
 20
51.94592571962331
 30
0.0
 41
1.030578586555895
  0
SPLINE
  5
2BA
330
6C
100
AcDbEntity
  8
Visible (ISO)
100
AcDbSpline
210
0.0
220
0.0
230
1.0
 70
    12
 71
     2
 72
     6
 73
     3
 74
     0
 42
0.0000000001
 43
0.0000000001
 40
0.0906100100638158
 40
0.0906100100638158
 40
0.0906100100638158
 40
1.118728652180965
 40
1.118728652180965
 40
1.118728652180965
 10
218.6789129889506
 20
42.13097114339968
 30
0.0
 41
1.030578586555895
 10
217.2622463222828
 20
39.67723249934379
 30
0.0
 41
1.19000964873822
 10
218.6789129889481
 20
37.22349385528787
 30
0.0
 41
1.030578586555895
  0
LINE
  5
2BB
330
6C
100
AcDbEntity
  8
Visible (ISO)
100
AcDbLine
 10
217.7753860430959
 20
55.28844843151148
 30
0.0
 11
217.7753860430959
 21
38.78844843151151
 31
0.0
  0
LINE
  5
2BC
330
6C
100
AcDbEntity
  8
Visible (ISO)
100
AcDbLine
 10
217.7753860430959
 20
55.28844843151148
 30
0.0
 11
218.6789129889481
 21
56.85340300773511
 31
0.0
  0
LINE
  5
2BD
330
6C
100
AcDbEntity
  8
Visible (ISO)
100
AcDbLine
 10
217.7753860430959
 20
38.78844843151151
 30
0.0
 11
218.6789129889481
 21
37.22349385528787
 31
0.0
  0
LINE
  5
2BE
330
6C
100
AcDbEntity
  8
Visible (ISO)
100
AcDbLine
 10
218.6789129889481
 20
56.85340300773511
 30
0.0
 11
229.8718590972435
 21
56.85340300773511
 31
0.0
  0
LINE
  5
2BF
330
6C
100
AcDbEntity
  8
Visible (ISO)
100
AcDbLine
 10
218.6789129889506
 20
51.94592571962331
 30
0.0
 11
229.8718590972461
 21
51.94592571962331
 31
0.0
  0
LINE
  5
2C0
330
6C
100
AcDbEntity
  8
Visible (ISO)
100
AcDbLine
 10
218.6789129889506
 20
42.13097114339968
 30
0.0
 11
229.8718590972461
 21
42.13097114339968
 31
0.0
  0
LINE
  5
2C1
330
6C
100
AcDbEntity
  8
Visible (ISO)
100
AcDbLine
 10
218.6789129889481
 20
37.22349385528787
 30
0.0
 11
229.8718590972435
 21
37.22349385528787
 31
0.0
  0
SPLINE
  5
2C2
330
6C
100
AcDbEntity
  8
Visible (ISO)
100
AcDbSpline
210
0.0
220
0.0
230
1.0
 70
    12
 71
     2
 72
     6
 73
     3
 74
     0
 42
0.0000000001
 43
0.0000000001
 40
0.0906100100638159
 40
0.0906100100638159
 40
0.0906100100638159
 40
1.118728652180965
 40
1.118728652180965
 40
1.118728652180965
 10
229.8718590972461
 20
51.94592571962331
 30
0.0
 41
1.030578586555895
 10
231.2885257639116
 20
54.39966436367922
 30
0.0
 41
1.190009648738221
 10
229.8718590972435
 20
56.85340300773511
 30
0.0
 41
1.030578586555895
  0
SPLINE
  5
2C3
330
6C
100
AcDbEntity
  8
Visible (ISO)
100
AcDbSpline
210
0.0
220
0.0
230
1.0
 70
    12
 71
     2
 72
     6
 73
     3
 74
     0
 42
0.0000000001
 43
0.0000000001
 40
0.0906100100638164
 40
0.0906100100638164
 40
0.0906100100638164
 40
1.118728652180966
 40
1.118728652180966
 40
1.118728652180966
 10
229.8718590972461
 20
42.13097114339968
 30
0.0
 41
1.030578586555895
 10
231.2885257639127
 20
47.03844843151149
 30
0.0
 41
1.19000964873822
 10
229.8718590972461
 20
51.94592571962331
 30
0.0
 41
1.030578586555895
  0
SPLINE
  5
2C4
330
6C
100
AcDbEntity
  8
Visible (ISO)
100
AcDbSpline
210
0.0
220
0.0
230
1.0
 70
    12
 71
     2
 72
     6
 73
     3
 74
     0
 42
0.0000000001
 43
0.0000000001
 40
0.0906100100638167
 40
0.0906100100638167
 40
0.0906100100638167
 40
1.118728652180966
 40
1.118728652180966
 40
1.118728652180966
 10
229.8718590972435
 20
37.22349385528787
 30
0.0
 41
1.030578586555895
 10
231.2885257639116
 20
39.67723249934379
 30
0.0
 41
1.190009648738217
 10
229.8718590972461
 20
42.13097114339968
 30
0.0
 41
1.030578586555894
  0
LINE
  5
2C5
330
6C
100
AcDbEntity
  8
Visible (ISO)
100
AcDbLine
 10
230.7753860430958
 20
38.78844843151151
 30
0.0
 11
230.7753860430958
 21
55.28844843151148
 31
0.0
  0
LINE
  5
2C6
330
6C
100
AcDbEntity
  8
Visible (ISO)
100
AcDbLine
 10
230.7753860430959
 20
38.78844843151151
 30
0.0
 11
229.8718590972435
 21
37.22349385528787
 31
0.0
  0
LINE
  5
2C7
330
6C
100
AcDbEntity
  8
Visible (ISO)
100
AcDbLine
 10
230.7753860430959
 20
55.28844843151148
 30
0.0
 11
229.8718590972435
 21
56.85340300773511
 31
0.0
  0
LINE
  5
2C8
330
6C
100
AcDbEntity
  8
Overlay (ISO)
 48
4.204243183135986
100
AcDbLine
 10
145.3446505263757
 20
129.5045736812837
 30
0.0
 11
145.3446505263757
 21
132.504573681282
 31
0.0
  0
LINE
  5
2C9
330
6C
100
AcDbEntity
  8
Overlay (ISO)
 48
4.204243183135986
100
AcDbLine
 10
145.3446505263757
 20
119.504573681282
 30
0.0
 11
145.3446505263757
 21
122.5045736812836
 31
0.0
  0
LINE
  5
2CA
330
6C
100
AcDbEntity
  8
Overlay (ISO)
 48
3.670881271362303
100
AcDbLine
 10
145.8446505263757
 20
122.5045736812835
 30
0.0
 11
145.8446505263757
 21
120.004573681282
 31
0.0
  0
LINE
  5
2CB
330
6C
100
AcDbEntity
  8
Overlay (ISO)
 48
3.670881271362303
100
AcDbLine
 10
145.8446505263757
 20
132.004573681282
 30
0.0
 11
145.8446505263757
 21
129.5045736812835
 31
0.0
  0
LINE
  5
2CC
330
6C
100
AcDbEntity
  8
Overlay (ISO)
 48
0.4562745988368988
100
AcDbLine
 10
145.8446505263757
 20
120.004573681282
 30
0.0
 11
145.3446505263757
 21
119.504573681282
 31
0.0
  0
LINE
  5
2CD
330
6C
100
AcDbEntity
  8
Overlay (ISO)
 48
0.4562745988368988
100
AcDbLine
 10
145.8446505263757
 20
132.004573681282
 30
0.0
 11
145.3446505263757
 21
132.504573681282
 31
0.0
  0
SPLINE
  5
2CE
330
6C
100
AcDbEntity
  8
Overlay (ISO)
 48
2.277396440505981
100
AcDbSpline
210
0.0
220
0.0
230
1.0
 70
    12
 71
     2
 72
     6
 73
     3
 74
     0
 42
0.0000000001
 43
0.0000000001
 40
0.4256073096284686
 40
0.4256073096284686
 40
0.4256073096284686
 40
0.8192657815317236
 40
0.8192657815317236
 40
0.8192657815317236
 10
132.4116378244835
 20
118.5947675163425
 30
0.0
 41
1.045691116018839
 10
132.8264224546314
 20
120.1721094043531
 30
0.0
 41
1.04493719226238
 10
132.8438522487529
 20
121.6217944823559
 30
0.0
 41
1.003699766927024
  0
SPLINE
  5
2CF
330
6C
100
AcDbEntity
  8
Overlay (ISO)
 48
2.277396440505981
100
AcDbSpline
210
0.0
220
0.0
230
1.0
 70
    12
 71
     2
 72
     6
 73
     3
 74
     0
 42
0.0000000001
 43
0.0000000001
 40
0.8538390692860449
 40
0.8538390692860449
 40
0.8538390692860449
 40
1.247497541189297
 40
1.247497541189297
 40
1.247497541189297
 10
132.8438522487529
 20
130.3873528802125
 30
0.0
 41
1.003699766927024
 10
132.8264224546314
 20
131.8370379582147
 30
0.0
 41
1.044937192262372
 10
132.4116378244835
 20
133.4143798462247
 30
0.0
 41
1.04569111601883
  0
LINE
  5
2D0
330
6C
100
AcDbEntity
  8
Overlay (ISO)
 48
2.990718841552734
100
AcDbLine
 10
127.7776632282679
 20
118.5947675163425
 30
0.0
 11
132.4116378244835
 21
118.5947675163425
 31
0.0
  0
LINE
  5
2D1
330
6C
100
AcDbEntity
  8
Overlay (ISO)
 48
0.611578106880188
100
AcDbLine
 10
127.7776632282679
 20
118.0673197480896
 30
0.0
 11
127.7776632282679
 21
118.5947675163425
 31
0.0
  0
ELLIPSE
  5
2D2
330
6C
100
AcDbEntity
  8
Overlay (ISO)
 48
0.6166242957115175
100
AcDbEllipse
 10
125.0352494496171
 20
126.004573681282
 30
0.0
 11
0.0
 21
-9.25
 31
0.0
210
0.0
220
0.0
230
1.0
 40
0.577350269189626
 41
0.4471887452263418
 42
0.5392744123179991
  0
SPLINE
  5
2D3
330
6C
100
AcDbEntity
  8
Overlay (ISO)
 48
1.42379868030548
100
AcDbSpline
210
0.0
220
0.0
230
1.0
 70
    12
 71
     2
 72
     6
 73
     3
 74
     0
 42
0.0000000001
 43
0.0000000001
 40
0.9570977237668156
 40
0.9570977237668156
 40
0.9570977237668156
 40
1.197529924693543
 40
1.197529924693543
 40
1.197529924693543
 10
127.4178389447412
 20
120.4785174602342
 30
0.0
 41
1.02771644395253
 10
127.5213489221763
 20
119.5694788776345
 30
0.0
 41
1.042467050658394
 10
127.7776632282679
 20
118.5947675163425
 30
0.0
 41
1.041774167103257
  0
LINE
  5
2D4
330
6C
100
AcDbEntity
  8
Overlay (ISO)
 48
2.980243921279906
100
AcDbLine
 10
132.4116378244835
 20
133.4143798462247
 30
0.0
 11
127.7938929161451
 21
133.4143798462247
 31
0.0
  0
SPLINE
  5
2D5
330
6C
100
AcDbEntity
  8
Overlay (ISO)
 48
1.371741294860839
100
AcDbSpline
210
0.0
220
0.0
230
1.0
 70
    12
 71
     2
 72
     6
 73
     3
 74
     0
 42
0.0000000001
 43
0.0000000001
 40
0.3932061578396785
 40
0.3932061578396785
 40
0.3932061578396785
 40
0.6252259523257125
 40
0.6252259523257125
 40
0.6252259523257125
 10
127.7599090279986
 20
133.3462417822411
 30
0.0
 41
1.041803747226504
 10
127.5177767213944
 20
132.4082969358713
 30
0.0
 41
1.041950946333024
 10
127.4178389447412
 20
131.5306299023336
 30
0.0
 41
1.02771644395253
  0
LINE
  5
2D6
330
6C
100
AcDbEntity
  8
Overlay (ISO)
 48
2.030720949172973
100
AcDbLine
 10
127.3446505263756
 20
118.5045736812831
 30
0.0
 11
127.3446505263756
 21
120.4597580773163
 31
0.0
  0
LINE
  5
2D7
330
6C
100
AcDbEntity
  8
Overlay (ISO)
 48
0.4004427790641786
100
AcDbLine
 10
127.3446505263756
 20
131.5493892852515
 30
0.0
 11
127.3446505263756
 21
132.0045736812838
 31
0.0
  0
SPLINE
  5
2D8
330
6C
100
AcDbEntity
  8
Overlay (ISO)
 48
0.6260591745376587
100
AcDbSpline
210
0.0
220
0.0
230
1.0
 70
    12
 71
     2
 72
     6
 73
     3
 74
     0
 42
0.0000000001
 43
0.0000000001
 40
-1.486263498190694
 40
-1.486263498190694
 40
-1.486263498190694
 40
-1.36702465746637
 40
-1.36702465746637
 40
-1.36702465746637
 10
127.3446505264144
 20
118.5045736812429
 30
0.0
 41
1.0
 10
127.5550244230908
 20
118.2859467146663
 30
0.0
 41
1.0
 10
127.7776632282679
 20
118.0673197480896
 30
0.0
 41
1.0
  0
LINE
  5
2D9
330
6C
100
AcDbEntity
  8
Overlay (ISO)
 48
1.410424947738646
100
AcDbLine
 10
132.4116378244835
 20
118.5947675163425
 30
0.0
 11
132.4116378244835
 21
117.504573681283
 31
0.0
  0
SPLINE
  5
2DA
330
6C
100
AcDbEntity
  8
Overlay (ISO)
 48
2.376354217529295
100
AcDbSpline
210
0.0
220
0.0
230
1.0
 70
    28
 71
     2
 72
     6
 73
     3
 74
     0
 42
0.0000000001
 43
0.0000000001
 40
0.8365524254088846
 40
0.8365524254088846
 40
0.8365524254088846
 40
1.2474975411893
 40
1.2474975411893
 40
1.2474975411893
 10
132.8446505263757
 20
117.5045736812819
 30
0.0
 41
1.0
 10
132.8446505263757
 20
117.5045736812825
 30
0.0
 41
1.044904085362809
 10
132.4116378244835
 20
117.504573681283
 30
0.0
 41
1.045691116018822
  0
LINE
  5
2DB
330
6C
100
AcDbEntity
  8
Overlay (ISO)
 48
7.169835090637207
100
AcDbLine
 10
132.8446505263757
 20
117.5045736812819
 30
0.0
 11
132.8446505263757
 21
121.6219273994106
 31
0.0
  0
SPLINE
  5
2DC
330
6C
100
AcDbEntity
  8
Overlay (ISO)
 48
2.376354217529295
100
AcDbSpline
210
0.0
220
0.0
230
1.0
 70
    28
 71
     2
 72
     6
 73
     3
 74
     0
 42
0.0000000001
 43
0.0000000001
 40
0.4256073096284699
 40
0.4256073096284699
 40
0.4256073096284699
 40
0.8365524254088839
 40
0.8365524254088839
 40
0.8365524254088839
 10
132.4116378244835
 20
134.504573681283
 30
0.0
 41
1.045691116018829
 10
132.8446505263757
 20
134.5045736812825
 30
0.0
 41
1.044904085362814
 10
132.8446505263757
 20
134.504573681282
 30
0.0
 41
1.0
  0
LINE
  5
2DD
330
6C
100
AcDbEntity
  8
Overlay (ISO)
 48
1.410424947738646
100
AcDbLine
 10
132.4116378244835
 20
134.504573681283
 30
0.0
 11
132.4116378244835
 21
133.4143798462247
 31
0.0
  0
LINE
  5
2DE
330
6C
100
AcDbEntity
  8
Overlay (ISO)
 48
7.169835090637207
100
AcDbLine
 10
132.8446505263757
 20
130.3872199631577
 30
0.0
 11
132.8446505263757
 21
134.504573681282
 31
0.0
  0
LINE
  5
2DF
330
6C
100
AcDbEntity
  8
Overlay (ISO)
 48
9.071301460266113
100
AcDbLine
 10
132.4116378244835
 20
117.504573681283
 30
0.0
 11
110.2776632282679
 21
117.504573681283
 31
0.0
  0
LINE
  5
2E0
330
6C
100
AcDbEntity
  8
Overlay (ISO)
 48
2.990718841552734
100
AcDbLine
 10
110.2776632282679
 20
118.5947675163425
 30
0.0
 11
114.9116378244834
 21
118.5947675163425
 31
0.0
  0
LINE
  5
2E1
330
6C
100
AcDbEntity
  8
Overlay (ISO)
 48
1.410424947738646
100
AcDbLine
 10
110.2776632282679
 20
117.504573681283
 30
0.0
 11
110.2776632282679
 21
118.5947675163425
 31
0.0
  0
LINE
  5
2E2
330
6C
100
AcDbEntity
  8
Overlay (ISO)
 48
1.410424947738646
100
AcDbLine
 10
110.2776632282679
 20
133.4143798462247
 30
0.0
 11
110.2776632282679
 21
134.5045736812831
 31
0.0
  0
LINE
  5
2E3
330
6C
100
AcDbEntity
  8
Overlay (ISO)
 48
1.410424947738646
100
AcDbLine
 10
110.2776632282679
 20
124.9143798462258
 30
0.0
 11
110.2776632282679
 21
127.0947675163435
 31
0.0
  0
LINE
  5
2E4
330
6C
100
AcDbEntity
  8
Overlay (ISO)
 48
2.980243921279906
100
AcDbLine
 10
114.8954081366062
 20
133.4143798462247
 30
0.0
 11
110.2776632282679
 21
133.4143798462247
 31
0.0
  0
LINE
  5
2E5
330
6C
100
AcDbEntity
  8
Overlay (ISO)
 48
2.1877863407135
100
AcDbLine
 10
110.2776632282679
 20
134.504573681283
 30
0.0
 11
113.6675742599836
 21
134.504573681283
 31
0.0
  0
LINE
  5
2E6
330
6C
100
AcDbEntity
  8
Overlay (ISO)
 48
2.386104822158813
100
AcDbLine
 10
113.974848805705
 20
124.9143798462258
 30
0.0
 11
110.2776632282679
 21
124.9143798462258
 31
0.0
  0
LINE
  5
2E7
330
6C
100
AcDbEntity
  8
Overlay (ISO)
 48
2.386104822158813
100
AcDbLine
 10
110.2776632282679
 20
127.0947675163435
 30
0.0
 11
113.974848805705
 21
127.0947675163435
 31
0.0
  0
LINE
  5
2E8
330
6C
100
AcDbEntity
  8
Overlay (ISO)
 48
2.1877863407135
100
AcDbLine
 10
129.0217267927677
 20
134.504573681283
 30
0.0
 11
132.4116378244835
 21
134.504573681283
 31
0.0
  0
SPLINE
  5
2E9
330
6C
100
AcDbEntity
  8
Overlay (ISO)
 48
2.376354217529295
100
AcDbSpline
210
0.0
220
0.0
230
1.0
 70
    28
 71
     2
 72
     6
 73
     3
 74
     0
 42
0.0000000001
 43
0.0000000001
 40
0.4226777092670462
 40
0.4226777092670462
 40
0.4226777092670462
 40
0.8332926396892185
 40
0.8332926396892185
 40
0.8332926396892185
 10
110.2776632282679
 20
117.504573681283
 30
0.0
 41
1.045413293158438
 10
109.8446505263757
 20
117.5045736812825
 30
0.0
 41
1.044765269262242
 10
109.8446505263757
 20
117.5045736812819
 30
0.0
 41
1.0
  0
SPLINE
  5
2EA
330
6C
100
AcDbEntity
  8
Overlay (ISO)
 48
2.376354217529295
100
AcDbSpline
210
0.0
220
0.0
230
1.0
 70
    28
 71
     2
 72
     6
 73
     3
 74
     0
 42
0.0000000001
 43
0.0000000001
 40
0.8332926396892174
 40
0.8332926396892174
 40
0.8332926396892174
 40
1.243907570111386
 40
1.243907570111386
 40
1.243907570111386
 10
109.8446505263757
 20
134.504573681282
 30
0.0
 41
1.0
 10
109.8446505263757
 20
134.5045736812825
 30
0.0
 41
1.044765269262236
 10
110.2776632282679
 20
134.504573681283
 30
0.0
 41
1.045413293158431
  0
LINE
  5
2EB
330
6C
100
AcDbEntity
  8
Overlay (ISO)
 48
7.296048641204831
100
AcDbLine
 10
109.8446505263757
 20
134.504573681282
 30
0.0
 11
109.8446505263757
 21
130.2545736812841
 31
0.0
  0
SPLINE
  5
2EC
330
6C
100
AcDbEntity
  8
Overlay (ISO)
 48
2.376354217529295
100
AcDbSpline
210
0.0
220
0.0
230
1.0
 70
    12
 71
     2
 72
     6
 73
     3
 74
     0
 42
0.0000000001
 43
0.0000000001
 40
0.4226777092670477
 40
0.4226777092670477
 40
0.4226777092670477
 40
0.8332926396892176
 40
0.8332926396892176
 40
0.8332926396892176
 10
110.2776632282679
 20
133.4143798462247
 30
0.0
 41
1.045413293158433
 10
109.8446505263757
 20
131.7677202954811
 30
0.0
 41
1.044765269262237
 10
109.8446505263757
 20
130.2545736812841
 30
0.0
 41
1.0
  0
SPLINE
  5
2ED
330
6C
100
AcDbEntity
  8
Overlay (ISO)
 48
2.376354217529295
100
AcDbSpline
210
0.0
220
0.0
230
1.0
 70
    12
 71
     2
 72
     6
 73
     3
 74
     0
 42
0.0000000001
 43
0.0000000001
 40
0.8332926396892176
 40
0.8332926396892176
 40
0.8332926396892176
 40
1.243907570111386
 40
1.243907570111386
 40
1.243907570111386
 10
109.8446505263757
 20
130.2545736812841
 30
0.0
 41
1.0
 10
109.8446505263757
 20
128.7414270670872
 30
0.0
 41
1.044765269262236
 10
110.2776632282679
 20
127.0947675163435
 30
0.0
 41
1.045413293158431
  0
LINE
  5
2EE
330
6C
100
AcDbEntity
  8
Overlay (ISO)
 48
7.296048641204831
100
AcDbLine
 10
109.8446505263757
 20
130.2545736812841
 30
0.0
 11
109.8446505263757
 21
121.7545736812841
 31
0.0
  0
SPLINE
  5
2EF
330
6C
100
AcDbEntity
  8
Overlay (ISO)
 48
2.376354217529295
100
AcDbSpline
210
0.0
220
0.0
230
1.0
 70
    12
 71
     2
 72
     6
 73
     3
 74
     0
 42
0.0000000001
 43
0.0000000001
 40
0.4226777092670467
 40
0.4226777092670467
 40
0.4226777092670467
 40
0.8332926396892183
 40
0.8332926396892183
 40
0.8332926396892183
 10
110.2776632282679
 20
124.9143798462258
 30
0.0
 41
1.045413293158434
 10
109.8446505263757
 20
123.2677202954816
 30
0.0
 41
1.044765269262239
 10
109.8446505263757
 20
121.7545736812841
 30
0.0
 41
1.0
  0
SPLINE
  5
2F0
330
6C
100
AcDbEntity
  8
Overlay (ISO)
 48
2.376354217529295
100
AcDbSpline
210
0.0
220
0.0
230
1.0
 70
    12
 71
     2
 72
     6
 73
     3
 74
     0
 42
0.0000000001
 43
0.0000000001
 40
0.8332926396892183
 40
0.8332926396892183
 40
0.8332926396892183
 40
1.243907570111389
 40
1.243907570111389
 40
1.243907570111389
 10
109.8446505263757
 20
121.7545736812841
 30
0.0
 41
1.0
 10
109.8446505263757
 20
120.2414270670868
 30
0.0
 41
1.044765269262239
 10
110.2776632282679
 20
118.5947675163425
 30
0.0
 41
1.045413293158434
  0
LINE
  5
2F1
330
6C
100
AcDbEntity
  8
Overlay (ISO)
 48
7.296048641204831
100
AcDbLine
 10
109.8446505263757
 20
121.7545736812841
 30
0.0
 11
109.8446505263757
 21
117.5045736812819
 31
0.0
  0
LINE
  5
2F2
330
6C
100
AcDbEntity
  8
Overlay (ISO)
 48
9.836065292358398
100
AcDbLine
 10
115.3446505263757
 20
117.664160022477
 30
0.0
 11
127.3446505263756
 21
117.664160022477
 31
0.0
  0
LINE
  5
2F3
330
6C
100
AcDbEntity
  8
Overlay (ISO)
 48
9.836065292358398
100
AcDbLine
 10
115.3446505263757
 20
118.5045736812831
 30
0.0
 11
127.3446505263756
 21
118.5045736812831
 31
0.0
  0
LINE
  5
2F4
330
6C
100
AcDbEntity
  8
Overlay (ISO)
 48
0.5423123240470888
100
AcDbLine
 10
127.3446505263756
 20
117.664160022477
 30
0.0
 11
127.3446505263756
 21
118.5045736812831
 31
0.0
  0
LINE
  5
2F5
330
6C
100
AcDbEntity
  8
Overlay (ISO)
 48
0.5423123240470888
100
AcDbLine
 10
115.3446505263757
 20
117.664160022477
 30
0.0
 11
115.3446505263757
 21
118.5045736812831
 31
0.0
  0
ELLIPSE
  5
2F6
330
6C
100
AcDbEntity
  8
Overlay (ISO)
 48
0.6166242957115175
100
AcDbEllipse
 10
117.6540516031342
 20
126.004573681282
 30
0.0
 11
0.0
 21
9.25
 31
0.0
210
0.0
220
0.0
230
1.0
 40
0.577350269189626
 41
2.602318241271794
 42
2.694403908363451
  0
LINE
  5
2F7
330
6C
100
AcDbEntity
  8
Overlay (ISO)
 48
0.611578106880188
100
AcDbLine
 10
114.9116378244834
 20
118.5947675163425
 30
0.0
 11
114.9116378244834
 21
118.0673197480896
 31
0.0
  0
SPLINE
  5
2F8
330
6C
100
AcDbEntity
  8
Overlay (ISO)
 48
2.201697826385498
100
AcDbSpline
210
0.0
220
0.0
230
1.0
 70
    12
 71
     2
 72
     6
 73
     3
 74
     0
 42
0.0000000001
 43
0.0000000001
 40
0.8123858579521044
 40
0.8123858579521044
 40
0.8123858579521044
 40
1.189117518252847
 40
1.189117518252847
 40
1.189117518252847
 10
115.3434253503416
 20
130.4190721110648
 30
0.0
 41
1.004365595477415
 10
115.3225087813353
 20
131.8234303861516
 30
0.0
 41
1.042042755126312
 10
114.9293920247527
 20
133.3462417822411
 30
0.0
 41
1.041803747226504
  0
SPLINE
  5
2F9
330
6C
100
AcDbEntity
  8
Overlay (ISO)
 48
2.253755569458006
100
AcDbSpline
210
0.0
220
0.0
230
1.0
 70
    12
 71
     2
 72
     6
 73
     3
 74
     0
 42
0.0000000001
 43
0.0000000001
 40
0.3847937513989829
 40
0.3847937513989829
 40
0.3847937513989829
 40
0.7699378181404203
 40
0.7699378181404203
 40
0.7699378181404203
 10
114.9116378244834
 20
118.5947675163425
 30
0.0
 41
1.041774167103257
 10
115.3220589658908
 20
120.1555159409789
 30
0.0
 41
1.042884084947768
 10
115.3434253503416
 20
121.5900752515034
 30
0.0
 41
1.004365595477415
  0
LINE
  5
2FA
330
6C
100
AcDbEntity
  8
Overlay (ISO)
 48
1.301975727081297
100
AcDbLine
 10
115.3446505263757
 20
130.4207371746345
 30
0.0
 11
115.3446505263757
 21
132.0045736812838
 31
0.0
  0
LINE
  5
2FB
330
6C
100
AcDbEntity
  8
Overlay (ISO)
 48
2.932254076004028
100
AcDbLine
 10
115.3446505263757
 20
118.5045736812831
 30
0.0
 11
115.3446505263757
 21
121.5884101879339
 31
0.0
  0
SPLINE
  5
2FC
330
6C
100
AcDbEntity
  8
Overlay (ISO)
 48
0.6260591745376587
100
AcDbSpline
210
0.0
220
0.0
230
1.0
 70
    12
 71
     2
 72
     6
 73
     3
 74
     0
 42
0.0000000001
 43
0.0000000001
 40
-1.486263498190694
 40
-1.486263498190694
 40
-1.486263498190694
 40
-1.36702465746637
 40
-1.36702465746637
 40
-1.36702465746637
 10
115.344650526337
 20
118.5045736812429
 30
0.0
 41
1.0
 10
115.1342766296604
 20
118.2859467146663
 30
0.0
 41
1.0
 10
114.9116378244834
 20
118.0673197480896
 30
0.0
 41
1.0
  0
ELLIPSE
  5
2FD
330
6C
100
AcDbEntity
  8
Overlay (ISO)
 48
0.0552148260176182
100
AcDbEllipse
 10
121.3446505263757
 20
143.004573681282
 30
0.0
 11
0.0
 21
14.72243186433292
 31
0.0
210
0.0
220
0.0
230
1.0
 40
0.5773502691897253
 41
3.996844707048501
 42
4.002960670239064
  0
LINE
  5
2FE
330
6C
100
AcDbEntity
  8
Overlay (ISO)
 48
8.755258560180664
100
AcDbLine
 10
129.8446505263757
 20
140.5045736812819
 30
0.0
 11
112.8446505263756
 21
140.5045736812819
 31
0.0
  0
SPLINE
  5
2FF
330
6C
100
AcDbEntity
  8
Overlay (ISO)
 48
1.620177268981932
100
AcDbSpline
210
0.0
220
0.0
230
1.0
 70
     8
 71
     3
 72
     8
 73
     4
 74
     0
 42
0.0000000001
 43
0.0000000001
 40
0.8292463199719302
 40
0.8292463199719302
 40
0.8292463199719302
 40
0.8292463199719302
 40
1.069319888959278
 40
1.069319888959278
 40
1.069319888959278
 40
1.069319888959278
 10
114.8954081366062
 20
133.4143798462247
 30
0.0
 10
114.4293879165257
 20
133.8199879405433
 30
0.0
 10
114.0034786336463
 20
134.2011898254107
 30
0.0
 10
113.6675742599836
 20
134.504573681283
 30
0.0
  0
ELLIPSE
  5
300
330
6C
100
AcDbEntity
  8
Overlay (ISO)
 48
0.0552148260176182
100
AcDbEllipse
 10
121.3446505263757
 20
143.004573681282
 30
0.0
 11
0.0
 21
14.72243186433292
 31
0.0
210
0.0
220
0.0
230
1.0
 40
0.5773502691897253
 41
2.280224636940519
 42
2.286340600131083
  0
SPLINE
  5
301
330
6C
100
AcDbEntity
  8
Overlay (ISO)
 48
0.9509410858154295
100
AcDbSpline
210
0.0
220
0.0
230
1.0
 70
     8
 71
     3
 72
    10
 73
     6
 74
     0
 42
0.0000000001
 43
0.0000000001
 40
2.358463870327546
 40
2.358463870327546
 40
2.358463870327546
 40
2.358463870327546
 40
2.381073897766034
 40
2.381073897766034
 40
2.502243251613869
 40
2.502243251613869
 40
2.502243251613869
 40
2.502243251613869
 10
114.9293920247527
 20
133.3462417822411
 30
0.0
 10
114.9518929566323
 20
133.2776403644347
 30
0.0
 10
114.9740972295528
 20
133.209395147377
 30
0.0
 10
115.1132331537032
 20
132.7782224939329
 30
0.0
 10
115.2308072941671
 20
132.3977584517264
 30
0.0
 10
115.3446505263757
 20
132.0045736812838
 30
0.0
  0
LINE
  5
302
330
6C
100
AcDbEntity
  8
Overlay (ISO)
 48
0.7892017364501954
100
AcDbLine
 10
115.3446505263757
 20
132.0045736812838
 30
0.0
 11
116.0767050065359
 21
131.2725192011237
 31
0.0
  0
LINE
  5
303
330
6C
100
AcDbEntity
  8
Overlay (ISO)
 48
0.3958848714828491
100
AcDbLine
 10
126.9833927422889
 20
131.643315897197
 30
0.0
 11
127.3446505263756
 21
132.0045736812838
 31
0.0
  0
SPLINE
  5
304
330
6C
100
AcDbEntity
  8
Overlay (ISO)
 48
0.9509410858154295
100
AcDbSpline
210
0.0
220
0.0
230
1.0
 70
     8
 71
     3
 72
    10
 73
     6
 74
     0
 42
0.0000000001
 43
0.0000000001
 40
3.664699947043588
 40
3.664699947043588
 40
3.664699947043588
 40
3.664699947043588
 40
3.785869300891423
 40
3.785869300891423
 40
3.808479328329911
 40
3.808479328329911
 40
3.808479328329911
 40
3.808479328329911
 10
127.3446505263756
 20
132.0045736812838
 30
0.0
 10
127.4584937585842
 20
132.3977584517264
 30
0.0
 10
127.576067899048
 20
132.7782224939329
 30
0.0
 10
127.7152038231984
 20
133.209395147377
 30
0.0
 10
127.7374080961189
 20
133.2776403644347
 30
0.0
 10
127.7599090279986
 20
133.3462417822411
 30
0.0
  0
SPLINE
  5
305
330
6C
100
AcDbEntity
  8
Overlay (ISO)
 48
1.620176911354064
100
AcDbSpline
210
0.0
220
0.0
230
1.0
 70
     8
 71
     3
 72
     8
 73
     4
 74
     0
 42
0.0000000001
 43
0.0000000001
 40
4.714232720745108
 40
4.714232720745108
 40
4.714232720745108
 40
4.714232720745108
 40
4.954306289732459
 40
4.954306289732459
 40
4.954306289732459
 40
4.954306289732459
 10
129.0217267927677
 20
134.504573681283
 30
0.0
 10
128.6858806185251
 20
134.2012423055849
 30
0.0
 10
128.2599793800805
 20
133.8200461606
 30
0.0
 10
127.7938929161451
 20
133.4143798462247
 30
0.0
  0
LINE
  5
306
330
6C
100
AcDbEntity
  8
Overlay (ISO)
 48
3.872366666793823
100
AcDbLine
 10
112.8446505263756
 20
134.504573681282
 30
0.0
 11
112.8446505263756
 21
140.5045736812819
 31
0.0
  0
LINE
  5
307
330
6C
100
AcDbEntity
  8
Overlay (ISO)
 48
3.872366666793823
100
AcDbLine
 10
129.8446505263757
 20
134.504573681282
 30
0.0
 11
129.8446505263757
 21
140.5045736812819
 31
0.0
  0
LINE
  5
308
330
6C
100
AcDbEntity
  8
Overlay (ISO)
 48
10.2459020614624
100
AcDbLine
 10
145.3446505263757
 20
119.504573681282
 30
0.0
 11
132.8446505263757
 21
119.504573681282
 31
0.0
  0
LINE
  5
309
330
6C
100
AcDbEntity
  8
Overlay (ISO)
 48
10.2459020614624
100
AcDbLine
 10
145.3446505263757
 20
132.504573681282
 30
0.0
 11
132.8446505263757
 21
132.504573681282
 31
0.0
  0
LINE
  5
30A
330
6C
100
AcDbEntity
  8
Overlay (ISO)
 48
0.4562745988368988
100
AcDbLine
 10
129.3446505263757
 20
141.004573681282
 30
0.0
 11
129.8446505263757
 21
140.5045736812819
 31
0.0
  0
LINE
  5
30B
330
6C
100
AcDbEntity
  8
Overlay (ISO)
 48
0.4562745988368988
100
AcDbLine
 10
113.3446505263757
 20
141.004573681282
 30
0.0
 11
112.8446505263756
 21
140.5045736812819
 31
0.0
  0
ARC
  5
31D
330
6C
100
AcDbEntity
  8
Overlay (ISO)
 48
2.02751874923706
100
AcDbCircle
 10
120.3446505263757
 20
125.00457368129
 30
0.0
 40
2.0
100
AcDbArc
 50
180.0
 51
270.0
  0
LINE
  5
31E
330
6C
100
AcDbEntity
  8
Overlay (ISO)
 48
2.258838891983031
100
AcDbLine
 10
120.3446505263757
 20
123.00457368129
 30
0.0
 11
123.8446505263756
 21
123.00457368129
 31
0.0
  0
LINE
  5
31F
330
6C
100
AcDbEntity
  8
Overlay (ISO)
 48
0.322605550289154
100
AcDbLine
 10
123.8446505263756
 20
123.00457368129
 30
0.0
 11
123.8446505263756
 21
122.50457368129
 31
0.0
  0
LINE
  5
320
330
6C
100
AcDbEntity
  8
Overlay (ISO)
 48
0.9126491546630861
100
AcDbLine
 10
123.8446505263756
 20
122.50457368129
 30
0.0
 11
124.8446505263757
 21
123.50457368129
 31
0.0
  0
LINE
  5
321
330
6C
100
AcDbEntity
  8
Overlay (ISO)
 48
0.9126491546630861
100
AcDbLine
 10
124.8446505263757
 20
123.50457368129
 30
0.0
 11
123.8446505263756
 21
124.50457368129
 31
0.0
  0
LINE
  5
322
330
6C
100
AcDbEntity
  8
Overlay (ISO)
 48
0.322605550289154
100
AcDbLine
 10
123.8446505263756
 20
124.50457368129
 30
0.0
 11
123.8446505263756
 21
124.00457368129
 31
0.0
  0
LINE
  5
323
330
6C
100
AcDbEntity
  8
Overlay (ISO)
 48
1.936133384704589
100
AcDbLine
 10
123.8446505263756
 20
124.00457368129
 30
0.0
 11
120.8446505263756
 21
124.00457368129
 31
0.0
  0
ARC
  5
324
330
6C
100
AcDbEntity
  8
Overlay (ISO)
 48
1.520614147186279
100
AcDbCircle
 10
120.8446505263756
 20
125.50457368129
 30
0.0
 40
1.499999999999999
100
AcDbArc
 50
180.0
 51
270.0
  0
LINE
  5
325
330
6C
100
AcDbEntity
  8
Overlay (ISO)
 48
1.936133384704589
100
AcDbLine
 10
119.3446505263757
 20
125.50457368129
 30
0.0
 11
119.3446505263757
 21
128.50457368129
 31
0.0
  0
LINE
  5
326
330
6C
100
AcDbEntity
  8
Overlay (ISO)
 48
0.322605550289154
100
AcDbLine
 10
119.3446505263757
 20
128.50457368129
 30
0.0
 11
119.8446505263756
 21
128.50457368129
 31
0.0
  0
LINE
  5
327
330
6C
100
AcDbEntity
  8
Overlay (ISO)
 48
0.9126491546630861
100
AcDbLine
 10
119.8446505263756
 20
128.50457368129
 30
0.0
 11
118.8446505263756
 21
129.5045736812901
 31
0.0
  0
LINE
  5
328
330
6C
100
AcDbEntity
  8
Overlay (ISO)
 48
0.9126491546630861
100
AcDbLine
 10
118.8446505263756
 20
129.5045736812901
 30
0.0
 11
117.8446505263756
 21
128.50457368129
 31
0.0
  0
LINE
  5
329
330
6C
100
AcDbEntity
  8
Overlay (ISO)
 48
0.322605550289154
100
AcDbLine
 10
117.8446505263756
 20
128.50457368129
 30
0.0
 11
118.3446505263757
 21
128.50457368129
 31
0.0
  0
LINE
  5
32A
330
6C
100
AcDbEntity
  8
Overlay (ISO)
 48
2.258838891983031
100
AcDbLine
 10
118.3446505263757
 20
128.50457368129
 30
0.0
 11
118.3446505263757
 21
125.00457368129
 31
0.0
  0
SPLINE
  5
32C
330
6C
100
AcDbEntity
  8
Overlay (ISO)
 48
0.5782562494277954
100
AcDbSpline
210
0.0
220
0.0
230
1.0
 70
     8
 71
     3
 72
    18
 73
    14
 74
     0
 42
0.0000000001
 43
0.0000000001
 40
-0.0894071042414384
 40
-0.0894071042414384
 40
-0.0894071042414384
 40
-0.0894071042414384
 40
-0.0890024393096829
 40
-0.0890024393096829
 40
-0.071331341192769
 40
-0.071331341192769
 40
-0.054286520760514
 40
-0.054286520760514
 40
-0.033079826196916
 40
-0.033079826196916
 40
-0.0157603010710298
 40
-0.0157603010710298
 40
0.0
 40
0.0
 40
0.0
 40
0.0
 10
122.3446505263757
 20
121.1055941957237
 30
0.0
 10
122.345702874103
 20
121.1047349574022
 30
0.0
 10
122.3467553340654
 20
121.1038758534979
 30
0.0
 10
122.3937714206515
 20
121.0655075646856
 30
0.0
 10
122.4400395005545
 20
121.0281882581351
 30
0.0
 10
122.5288042646871
 20
120.9573527158829
 30
0.0
 10
122.5715412255239
 20
120.9236171493569
 30
0.0
 10
122.661958708692
 20
120.8528745780934
 30
0.0
 10
122.708311869248
 20
120.8170737708383
 30
0.0
 10
122.7779806376435
 20
120.763656055149
 30
0.0
 10
122.8035163248454
 20
120.7442413088463
 30
0.0
 10
122.8363741873184
 20
120.719317747209
 30
0.0
 10
122.8446505263756
 20
120.7130710591607
 30
0.0
 10
122.8446505263756
 20
120.7130710591607
 30
0.0
  0
ARC
  5
32D
330
6C
100
AcDbEntity
  8
Overlay (ISO)
 48
7.781566619873045
100
AcDbCircle
 10
121.3446505263757
 20
126.0045736812898
 30
0.0
 40
5.499999999999999
100
AcDbArc
 50
285.8266201318722
 51
74.17337986812781
  0
SPLINE
  5
32E
330
6C
100
AcDbEntity
  8
Overlay (ISO)
 48
0.5782562494277954
100
AcDbSpline
210
0.0
220
0.0
230
1.0
 70
     8
 71
     3
 72
    18
 73
    14
 74
     0
 42
0.0000000001
 43
0.0000000001
 40
-0.0896419378859127
 40
-0.0896419378859127
 40
-0.0896419378859127
 40
-0.0896419378859127
 40
-0.0737683962096255
 40
-0.0737683962096255
 40
-0.0563244271724696
 40
-0.0563244271724696
 40
-0.0349653586842182
 40
-0.0349653586842182
 40
-0.0177980681434567
 40
-0.0177980681434567
 40
0.0
 40
0.0
 40
0.0004075725222773
 40
0.0004075725222773
 40
0.0004075725222773
 40
0.0004075725222773
 10
122.8446505263756
 20
131.296076303419
 30
0.0
 10
122.8446505263756
 20
131.296076303419
 30
0.0
 10
122.8363741873184
 20
131.2898296153708
 30
0.0
 10
122.8035163248454
 20
131.2649060537335
 30
0.0
 10
122.7779806376435
 20
131.2454913074307
 30
0.0
 10
122.708311869248
 20
131.1920735917416
 30
0.0
 10
122.661958708692
 20
131.1562727844865
 30
0.0
 10
122.5715412255239
 20
131.0855302132231
 30
0.0
 10
122.5288042646871
 20
131.051794646697
 30
0.0
 10
122.4400395005547
 20
130.980959104445
 30
0.0
 10
122.3937714206526
 20
130.9436397978952
 30
0.0
 10
122.3467553340654
 20
130.9052715090819
 30
0.0
 10
122.345702874103
 20
130.9044124051777
 30
0.0
 10
122.3446505263757
 20
130.9035531668564
 30
0.0
  0
LINE
  5
32F
330
6C
100
AcDbEntity
  8
Visible Narrow (ISO)
 48
0.4561142325401307
100
AcDbLine
 10
122.8431091932422
 20
120.5962467680939
 30
0.0
 11
122.3838800742396
 21
120.5962467680939
 31
0.0
  0
LINE
  5
330
330
6C
100
AcDbEntity
  8
Overlay (ISO)
 48
0.0752996951341629
100
AcDbLine
 10
122.8446505263756
 20
120.5962467680939
 30
0.0
 11
122.8446505263756
 21
120.7130710591607
 31
0.0
  0
LINE
  5
331
330
6C
100
AcDbEntity
  8
Visible Narrow (ISO)
 48
0.2957646548748016
100
AcDbLine
 10
122.3446505263757
 20
121.0801268243421
 30
0.0
 11
122.3446505263757
 21
120.6217141394754
 31
0.0
  0
LINE
  5
332
330
6C
100
AcDbEntity
  8
Visible Narrow (ISO)
 48
0.4561142325401307
100
AcDbLine
 10
122.3838800742396
 20
131.412900594486
 30
0.0
 11
122.8431091932422
 21
131.4129005944857
 31
0.0
  0
LINE
  5
333
330
6C
100
AcDbEntity
  8
Visible Narrow (ISO)
 48
0.2957646548748016
100
AcDbLine
 10
122.3446505263757
 20
131.3874332231045
 30
0.0
 11
122.3446505263757
 21
130.9290205382377
 31
0.0
  0
LINE
  5
334
330
6C
100
AcDbEntity
  8
Overlay (ISO)
 48
0.0752996951341629
100
AcDbLine
 10
122.8446505263756
 20
131.296076303419
 30
0.0
 11
122.8446505263756
 21
131.4129005944857
 31
0.0
  0
LINE
  5
335
330
6C
100
AcDbEntity
  8
Visible Narrow (ISO)
 48
0.4561142325401307
100
AcDbLine
 10
122.4352793748967
 20
131.903051035055
 30
0.0
 11
122.3517831714418
 21
131.4514762707595
 31
0.0
  0
ARC
  5
336
330
6C
100
AcDbEntity
  8
Overlay (ISO)
 48
1.415946006774901
100
AcDbCircle
 10
121.3446505263757
 20
126.0045736812898
 30
0.0
 40
5.999999999999959
100
AcDbArc
 50
79.52431830361006
 51
100.4756816963899
  0
LINE
  5
337
330
6C
100
AcDbEntity
  8
Visible Narrow (ISO)
 48
0.4561142325401307
100
AcDbLine
 10
120.3375178813095
 20
131.4514762707595
 30
0.0
 11
120.2540216778545
 21
131.903051035055
 31
0.0
  0
ARC
  5
338
330
6C
100
AcDbEntity
  8
Visible Narrow (ISO)
 48
1.168137907981872
100
AcDbCircle
 10
121.3446505263757
 20
126.00457368129
 30
0.0
 40
5.499999999999992
100
AcDbArc
 50
80.57188647324895
 51
99.42811352675105
  0
ARC
  5
339
330
6C
100
AcDbEntity
  8
Overlay (ISO)
 48
0.4478028118610382
100
AcDbCircle
 10
122.3446505263757
 20
131.4129005944857
 30
0.0
 40
0.4999999999999988
100
AcDbArc
 50
0.0
 51
79.52431830361145
  0
LINE
  5
33A
330
6C
100
AcDbEntity
  8
Visible Narrow (ISO)
 48
0.4561142325401307
100
AcDbLine
 10
120.3054209785117
 20
120.5962467680939
 30
0.0
 11
119.8461918595091
 21
120.5962467680939
 31
0.0
  0
LINE
  5
33B
330
6C
100
AcDbEntity
  8
Visible Narrow (ISO)
 48
0.2957646548748016
100
AcDbLine
 10
120.3446505263757
 20
120.6217141394754
 30
0.0
 11
120.3446505263757
 21
121.0801268243421
 31
0.0
  0
SPLINE
  5
33C
330
6C
100
AcDbEntity
  8
Overlay (ISO)
 48
0.5782562494277954
100
AcDbSpline
210
0.0
220
0.0
230
1.0
 70
     8
 71
     3
 72
    18
 73
    14
 74
     0
 42
0.0000000001
 43
0.0000000001
 40
-0.0004075725222822
 40
-0.0004075725222822
 40
-0.0004075725222822
 40
-0.0004075725222822
 40
0.0
 40
0.0
 40
0.0177980681435137
 40
0.0177980681435137
 40
0.0349653586843403
 40
0.0349653586843403
 40
0.0563244271726714
 40
0.0563244271726714
 40
0.0737683962098895
 40
0.0737683962098895
 40
0.0896419378862371
 40
0.0896419378862371
 40
0.0896419378862371
 40
0.0896419378862371
 10
120.3446505263757
 20
121.1055941957237
 30
0.0
 10
120.3435981786482
 20
121.1047349574021
 30
0.0
 10
120.342545718686
 20
121.103875853498
 30
0.0
 10
120.2955296320985
 20
121.0655075646847
 30
0.0
 10
120.2492615521966
 20
121.0281882581351
 30
0.0
 10
120.1604967880641
 20
120.9573527158829
 30
0.0
 10
120.1177598272274
 20
120.9236171493569
 30
0.0
 10
120.0273423440592
 20
120.8528745780934
 30
0.0
 10
119.9809891835033
 20
120.8170737708383
 30
0.0
 10
119.9113204151077
 20
120.763656055149
 30
0.0
 10
119.8857847279059
 20
120.7442413088463
 30
0.0
 10
119.8529268654328
 20
120.719317747209
 30
0.0
 10
119.8446505263756
 20
120.7130710591607
 30
0.0
 10
119.8446505263756
 20
120.7130710591607
 30
0.0
  0
LINE
  5
33D
330
6C
100
AcDbEntity
  8
Overlay (ISO)
 48
0.0752996951341629
100
AcDbLine
 10
119.8446505263756
 20
120.7130710591607
 30
0.0
 11
119.8446505263756
 21
120.5962467680939
 31
0.0
  0
SPLINE
  5
33F
330
6C
100
AcDbEntity
  8
Overlay (ISO)
 48
0.5782562494277954
100
AcDbSpline
210
0.0
220
0.0
230
1.0
 70
     8
 71
     3
 72
    18
 73
    14
 74
     0
 42
0.0000000001
 43
0.0000000001
 40
-0.0894071042413794
 40
-0.0894071042413794
 40
-0.0894071042413794
 40
-0.0894071042413794
 40
-0.0890024393096068
 40
-0.0890024393096068
 40
-0.0713313411927872
 40
-0.0713313411927872
 40
-0.054286520760529
 40
-0.054286520760529
 40
-0.0330798261969246
 40
-0.0330798261969246
 40
-0.0157603010710319
 40
-0.0157603010710319
 40
0.0
 40
0.0
 40
0.0
 40
0.0
 10
120.3446505263757
 20
130.9035531668564
 30
0.0
 10
120.3435981786482
 20
130.9044124051777
 30
0.0
 10
120.342545718686
 20
130.9052715090819
 30
0.0
 10
120.2955296320981
 20
130.9436397978956
 30
0.0
 10
120.2492615521965
 20
130.980959104445
 30
0.0
 10
120.1604967880641
 20
131.051794646697
 30
0.0
 10
120.1177598272274
 20
131.0855302132231
 30
0.0
 10
120.0273423440592
 20
131.1562727844865
 30
0.0
 10
119.9809891835033
 20
131.1920735917416
 30
0.0
 10
119.9113204151077
 20
131.2454913074307
 30
0.0
 10
119.8857847279059
 20
131.2649060537335
 30
0.0
 10
119.8529268654328
 20
131.2898296153708
 30
0.0
 10
119.8446505263756
 20
131.296076303419
 30
0.0
 10
119.8446505263756
 20
131.296076303419
 30
0.0
  0
ARC
  5
340
330
6C
100
AcDbEntity
  8
Overlay (ISO)
 48
7.781566619873045
100
AcDbCircle
 10
121.3446505263757
 20
126.0045736812898
 30
0.0
 40
5.499999999999999
100
AcDbArc
 50
105.8266201318722
 51
254.1733798681276
  0
LINE
  5
341
330
6C
100
AcDbEntity
  8
Visible Narrow (ISO)
 48
0.4561142325401307
100
AcDbLine
 10
119.8461918595091
 20
131.4129005944857
 30
0.0
 11
120.3054209785117
 21
131.412900594486
 31
0.0
  0
LINE
  5
342
330
6C
100
AcDbEntity
  8
Overlay (ISO)
 48
0.0752996951341629
100
AcDbLine
 10
119.8446505263756
 20
131.4129005944857
 30
0.0
 11
119.8446505263756
 21
131.296076303419
 31
0.0
  0
LINE
  5
343
330
6C
100
AcDbEntity
  8
Visible Narrow (ISO)
 48
0.2957646548748016
100
AcDbLine
 10
120.3446505263757
 20
130.9290205382379
 30
0.0
 11
120.3446505263757
 21
131.3874332231045
 31
0.0
  0
ARC
  5
344
330
6C
100
AcDbEntity
  8
Overlay (ISO)
 48
0.4478028118610382
100
AcDbCircle
 10
120.3446505263757
 20
131.4129005944857
 30
0.0
 40
0.5000000000000023
100
AcDbArc
 50
100.4756816963904
 51
180.0
  0
LINE
  5
345
330
6C
100
AcDbEntity
  8
Visible Narrow (ISO)
 48
0.4561142325401307
100
AcDbLine
 10
120.2540216778545
 20
120.1060963275248
 30
0.0
 11
120.3375178813095
 21
120.5576710918204
 31
0.0
  0
ARC
  5
346
330
6C
100
AcDbEntity
  8
Overlay (ISO)
 48
1.415946006774901
100
AcDbCircle
 10
121.3446505263757
 20
126.0045736812897
 30
0.0
 40
5.999999999999969
100
AcDbArc
 50
259.52431830361
 51
280.4756816963899
  0
LINE
  5
347
330
6C
100
AcDbEntity
  8
Visible Narrow (ISO)
 48
0.4561142325401307
100
AcDbLine
 10
122.3517831714418
 20
120.5576710918204
 30
0.0
 11
122.4352793748967
 21
120.1060963275248
 31
0.0
  0
ARC
  5
348
330
6C
100
AcDbEntity
  8
Visible Narrow (ISO)
 48
1.168137907981872
100
AcDbCircle
 10
121.3446505263757
 20
126.00457368129
 30
0.0
 40
5.499999999999999
100
AcDbArc
 50
260.571886473249
 51
279.428113526751
  0
ARC
  5
349
330
6C
100
AcDbEntity
  8
Overlay (ISO)
 48
0.4478028118610382
100
AcDbCircle
 10
120.3446505263757
 20
120.5962467680939
 30
0.0
 40
0.5000000000000006
100
AcDbArc
 50
180.0
 51
259.5243183036096
  0
ARC
  5
34A
330
6C
100
AcDbEntity
  8
Overlay (ISO)
 48
0.4478028118610382
100
AcDbCircle
 10
122.3446505263757
 20
120.5962467680939
 30
0.0
 40
0.4999999999999984
100
AcDbArc
 50
280.4756816963905
 51
0.0
  0
SPLINE
  5
34B
330
6C
100
AcDbEntity
  8
Overlay (ISO)
 48
3.215791702270506
100
AcDbSpline
210
0.0
220
0.0
230
1.0
 70
    28
 71
     2
 72
     6
 73
     3
 74
     0
 42
0.0000000001
 43
0.0000000001
 40
0.0906100100638158
 40
0.0906100100638158
 40
0.0906100100638158
 40
0.6046693311223932
 40
0.6046693311223932
 40
0.6046693311223932
 10
108.9411235805234
 20
134.5045736812835
 30
0.0
 41
1.030578586555895
 10
109.7003129590782
 20
134.5045736812827
 30
0.0
 41
1.110294117647057
 10
109.7003129590782
 20
134.504573681282
 30
0.0
 41
1.110294117647057
  0
SPLINE
  5
34C
330
6C
100
AcDbEntity
  8
Overlay (ISO)
 48
8.168594360351562
100
AcDbSpline
210
0.0
220
0.0
230
1.0
 70
    12
 71
     2
 72
     6
 73
     3
 74
     0
 42
0.0000000001
 43
0.0000000001
 40
0.0906100100638159
 40
0.0906100100638159
 40
0.0906100100638159
 40
1.118728652180965
 40
1.118728652180965
 40
1.118728652180965
 10
108.9411235805234
 20
126.0045736812849
 30
0.0
 41
1.030578586555895
 10
110.3577902471901
 20
130.2545736812841
 30
0.0
 41
1.190009648738219
 10
108.9411235805234
 20
134.5045736812835
 30
0.0
 41
1.030578586555895
  0
SPLINE
  5
34D
330
6C
100
AcDbEntity
  8
Overlay (ISO)
 48
8.168594360351562
100
AcDbSpline
210
0.0
220
0.0
230
1.0
 70
    12
 71
     2
 72
     6
 73
     3
 74
     0
 42
0.0000000001
 43
0.0000000001
 40
0.0906100100638158
 40
0.0906100100638158
 40
0.0906100100638158
 40
1.118728652180966
 40
1.118728652180966
 40
1.118728652180966
 10
108.9411235805234
 20
117.5045736812834
 30
0.0
 41
1.030578586555895
 10
110.3577902471901
 20
121.7545736812841
 30
0.0
 41
1.190009648738221
 10
108.9411235805234
 20
126.0045736812849
 30
0.0
 41
1.030578586555895
  0
SPLINE
  5
34E
330
6C
100
AcDbEntity
  8
Overlay (ISO)
 48
3.215791702270506
100
AcDbSpline
210
0.0
220
0.0
230
1.0
 70
    28
 71
     2
 72
     6
 73
     3
 74
     0
 42
0.0000000001
 43
0.0000000001
 40
0.6046693311223941
 40
0.6046693311223941
 40
0.6046693311223941
 40
1.118728652180966
 40
1.118728652180966
 40
1.118728652180966
 10
109.7003129590782
 20
117.5045736812819
 30
0.0
 41
1.110294117647057
 10
109.7003129590782
 20
117.5045736812827
 30
0.0
 41
1.110294117647057
 10
108.9411235805234
 20
117.5045736812834
 30
0.0
 41
1.030578586555895
  0
LINE
  5
34F
330
6C
100
AcDbEntity
  8
Overlay (ISO)
 48
0.1862141489982605
100
AcDbLine
 10
109.8446505263757
 20
117.754573681282
 30
0.0
 11
109.7003129590782
 21
117.5045736812819
 31
0.0
  0
LINE
  5
350
330
6C
100
AcDbEntity
  8
Overlay (ISO)
 48
0.1862141489982605
100
AcDbLine
 10
109.8446505263757
 20
134.254573681282
 30
0.0
 11
109.7003129590782
 21
134.504573681282
 31
0.0
  0
LINE
  5
351
330
6C
100
AcDbEntity
  8
Overlay (ISO)
 48
9.174546241760252
100
AcDbLine
 10
108.9411235805234
 20
117.5045736812834
 30
0.0
 11
97.74817747222789
 21
117.5045736812834
 31
0.0
  0
LINE
  5
352
330
6C
100
AcDbEntity
  8
Overlay (ISO)
 48
9.174546241760252
100
AcDbLine
 10
108.9411235805234
 20
126.0045736812849
 30
0.0
 11
97.7481774722279
 21
126.0045736812849
 31
0.0
  0
LINE
  5
353
330
6C
100
AcDbEntity
  8
Overlay (ISO)
 48
9.174546241760252
100
AcDbLine
 10
108.9411235805234
 20
134.5045736812835
 30
0.0
 11
97.7481774722279
 21
134.5045736812835
 31
0.0
  0
SPLINE
  5
354
330
6C
100
AcDbEntity
  8
Overlay (ISO)
 48
3.215791702270506
100
AcDbSpline
210
0.0
220
0.0
230
1.0
 70
    28
 71
     2
 72
     6
 73
     3
 74
     0
 42
0.0000000001
 43
0.0000000001
 40
0.0906100100638165
 40
0.0906100100638165
 40
0.0906100100638165
 40
0.6046693311223902
 40
0.6046693311223902
 40
0.6046693311223902
 10
97.74817747222789
 20
117.5045736812834
 30
0.0
 41
1.030578586555895
 10
96.98898809367307
 20
117.5045736812827
 30
0.0
 41
1.110294117647057
 10
96.98898809367307
 20
117.5045736812819
 30
0.0
 41
1.110294117647057
  0
SPLINE
  5
355
330
6C
100
AcDbEntity
  8
Overlay (ISO)
 48
8.168594360351562
100
AcDbSpline
210
0.0
220
0.0
230
1.0
 70
    12
 71
     2
 72
     6
 73
     3
 74
     0
 42
0.0000000001
 43
0.0000000001
 40
0.0906100100638162
 40
0.0906100100638162
 40
0.0906100100638162
 40
1.118728652180968
 40
1.118728652180968
 40
1.118728652180968
 10
97.7481774722279
 20
126.0045736812849
 30
0.0
 41
1.030578586555895
 10
96.33151080556123
 20
121.7545736812841
 30
0.0
 41
1.19000964873822
 10
97.74817747222789
 20
117.5045736812834
 30
0.0
 41
1.030578586555895
  0
SPLINE
  5
356
330
6C
100
AcDbEntity
  8
Overlay (ISO)
 48
8.168594360351562
100
AcDbSpline
210
0.0
220
0.0
230
1.0
 70
    12
 71
     2
 72
     6
 73
     3
 74
     0
 42
0.0000000001
 43
0.0000000001
 40
0.0906100100638159
 40
0.0906100100638159
 40
0.0906100100638159
 40
1.118728652180965
 40
1.118728652180965
 40
1.118728652180965
 10
97.74817747222794
 20
134.5045736812835
 30
0.0
 41
1.030578586555895
 10
96.33151080556125
 20
130.2545736812841
 30
0.0
 41
1.190009648738221
 10
97.7481774722279
 20
126.0045736812849
 30
0.0
 41
1.030578586555895
  0
SPLINE
  5
357
330
6C
100
AcDbEntity
  8
Overlay (ISO)
 48
3.215791702270506
100
AcDbSpline
210
0.0
220
0.0
230
1.0
 70
    28
 71
     2
 72
     6
 73
     3
 74
     0
 42
0.0000000001
 43
0.0000000001
 40
0.6046693311223899
 40
0.6046693311223899
 40
0.6046693311223899
 40
1.118728652180966
 40
1.118728652180966
 40
1.118728652180966
 10
96.98898809367307
 20
134.504573681282
 30
0.0
 41
1.110294117647057
 10
96.98898809367307
 20
134.5045736812827
 30
0.0
 41
1.110294117647057
 10
97.74817747222794
 20
134.5045736812835
 30
0.0
 41
1.030578586555895
  0
LINE
  5
358
330
6C
100
AcDbEntity
  8
Overlay (ISO)
 48
8.497750282287597
100
AcDbLine
 10
96.84465052637564
 20
134.254573681282
 30
0.0
 11
96.84465052637564
 21
117.754573681282
 31
0.0
  0
LINE
  5
359
330
6C
100
AcDbEntity
  8
Overlay (ISO)
 48
0.1862141489982605
100
AcDbLine
 10
96.84465052637568
 20
134.254573681282
 30
0.0
 11
96.98898809367307
 21
134.504573681282
 31
0.0
  0
LINE
  5
35A
330
6C
100
AcDbEntity
  8
Overlay (ISO)
 48
0.1862141489982605
100
AcDbLine
 10
96.84465052637564
 20
117.754573681282
 30
0.0
 11
96.98898809367307
 21
117.5045736812819
 31
0.0
  0
SPLINE
  5
35B
330
6C
100
AcDbEntity
  8
Overlay (ISO)
 48
3.215791702270506
100
AcDbSpline
210
0.0
220
0.0
230
1.0
 70
    28
 71
     2
 72
     6
 73
     3
 74
     0
 42
0.0000000001
 43
0.0000000001
 40
0.0906100100638158
 40
0.0906100100638158
 40
0.0906100100638158
 40
0.6046693311223926
 40
0.6046693311223926
 40
0.6046693311223926
 10
129.8446505263757
 20
141.9081006271357
 30
0.0
 41
1.030578586555895
 10
129.8446505263757
 20
141.1489112485801
 30
0.0
 41
1.110294117647057
 10
129.8446505263757
 20
141.1489112485794
 30
0.0
 41
1.110294117647057
  0
SPLINE
  5
35C
330
6C
100
AcDbEntity
  8
Overlay (ISO)
 48
8.168594360351562
100
AcDbSpline
210
0.0
220
0.0
230
1.0
 70
    12
 71
     2
 72
     6
 73
     3
 74
     0
 42
0.0000000001
 43
0.0000000001
 40
0.0906100100638159
 40
0.0906100100638159
 40
0.0906100100638159
 40
1.118728652180965
 40
1.118728652180965
 40
1.118728652180965
 10
121.3446505263757
 20
141.9081006271371
 30
0.0
 41
1.030578586555895
 10
125.5946505263756
 20
140.4914339604697
 30
0.0
 41
1.190009648738219
 10
129.8446505263757
 20
141.9081006271357
 30
0.0
 41
1.030578586555895
  0
SPLINE
  5
35D
330
6C
100
AcDbEntity
  8
Overlay (ISO)
 48
8.168594360351562
100
AcDbSpline
210
0.0
220
0.0
230
1.0
 70
    12
 71
     2
 72
     6
 73
     3
 74
     0
 42
0.0000000001
 43
0.0000000001
 40
0.0906100100638158
 40
0.0906100100638158
 40
0.0906100100638158
 40
1.118728652180966
 40
1.118728652180966
 40
1.118728652180966
 10
112.8446505263756
 20
141.9081006271357
 30
0.0
 41
1.030578586555895
 10
117.0946505263757
 20
140.4914339604697
 30
0.0
 41
1.190009648738221
 10
121.3446505263757
 20
141.9081006271371
 30
0.0
 41
1.030578586555895
  0
SPLINE
  5
35E
330
6C
100
AcDbEntity
  8
Overlay (ISO)
 48
3.215791702270506
100
AcDbSpline
210
0.0
220
0.0
230
1.0
 70
    28
 71
     2
 72
     6
 73
     3
 74
     0
 42
0.0000000001
 43
0.0000000001
 40
0.6046693311223934
 40
0.6046693311223934
 40
0.6046693311223934
 40
1.118728652180966
 40
1.118728652180966
 40
1.118728652180966
 10
112.8446505263756
 20
141.1489112485794
 30
0.0
 41
1.110294117647057
 10
112.8446505263756
 20
141.1489112485801
 30
0.0
 41
1.110294117647057
 10
112.8446505263756
 20
141.9081006271357
 30
0.0
 41
1.030578586555895
  0
LINE
  5
35F
330
6C
100
AcDbEntity
  8
Overlay (ISO)
 48
8.497750282287597
100
AcDbLine
 10
113.0946505263757
 20
141.004573681282
 30
0.0
 11
129.5946505263755
 21
141.004573681282
 31
0.0
  0
LINE
  5
360
330
6C
100
AcDbEntity
  8
Overlay (ISO)
 48
0.1862141489982605
100
AcDbLine
 10
113.0946505263757
 20
141.004573681282
 30
0.0
 11
112.8446505263756
 21
141.1489112485794
 31
0.0
  0
LINE
  5
361
330
6C
100
AcDbEntity
  8
Overlay (ISO)
 48
0.1862141489982605
100
AcDbLine
 10
129.5946505263755
 20
141.004573681282
 30
0.0
 11
129.8446505263757
 21
141.1489112485794
 31
0.0
  0
LINE
  5
362
330
6C
100
AcDbEntity
  8
Overlay (ISO)
 48
9.174546241760252
100
AcDbLine
 10
112.8446505263756
 20
141.9081006271357
 30
0.0
 11
112.8446505263756
 21
153.1010467354311
 31
0.0
  0
LINE
  5
363
330
6C
100
AcDbEntity
  8
Overlay (ISO)
 48
9.174546241760252
100
AcDbLine
 10
121.3446505263757
 20
141.9081006271371
 30
0.0
 11
121.3446505263757
 21
153.1010467354327
 31
0.0
  0
LINE
  5
364
330
6C
100
AcDbEntity
  8
Overlay (ISO)
 48
9.174546241760252
100
AcDbLine
 10
129.8446505263757
 20
141.9081006271357
 30
0.0
 11
129.8446505263757
 21
153.1010467354311
 31
0.0
  0
SPLINE
  5
365
330
6C
100
AcDbEntity
  8
Overlay (ISO)
 48
3.215791702270506
100
AcDbSpline
210
0.0
220
0.0
230
1.0
 70
    28
 71
     2
 72
     6
 73
     3
 74
     0
 42
0.0000000001
 43
0.0000000001
 40
0.0906100100638165
 40
0.0906100100638165
 40
0.0906100100638165
 40
0.6046693311223908
 40
0.6046693311223908
 40
0.6046693311223908
 10
112.8446505263756
 20
153.1010467354311
 30
0.0
 41
1.030578586555895
 10
112.8446505263756
 20
153.8602361139853
 30
0.0
 41
1.110294117647057
 10
112.8446505263756
 20
153.8602361139846
 30
0.0
 41
1.110294117647057
  0
SPLINE
  5
366
330
6C
100
AcDbEntity
  8
Overlay (ISO)
 48
8.168594360351562
100
AcDbSpline
210
0.0
220
0.0
230
1.0
 70
    12
 71
     2
 72
     6
 73
     3
 74
     0
 42
0.0000000001
 43
0.0000000001
 40
0.0906100100638162
 40
0.0906100100638162
 40
0.0906100100638162
 40
1.118728652180968
 40
1.118728652180968
 40
1.118728652180968
 10
121.3446505263757
 20
153.1010467354327
 30
0.0
 41
1.030578586555895
 10
117.0946505263755
 20
154.5177134020985
 30
0.0
 41
1.19000964873822
 10
112.8446505263756
 20
153.1010467354311
 30
0.0
 41
1.030578586555895
  0
SPLINE
  5
367
330
6C
100
AcDbEntity
  8
Overlay (ISO)
 48
8.168594360351562
100
AcDbSpline
210
0.0
220
0.0
230
1.0
 70
    12
 71
     2
 72
     6
 73
     3
 74
     0
 42
0.0000000001
 43
0.0000000001
 40
0.0906100100638159
 40
0.0906100100638159
 40
0.0906100100638159
 40
1.118728652180965
 40
1.118728652180965
 40
1.118728652180965
 10
129.8446505263757
 20
153.1010467354311
 30
0.0
 41
1.030578586555895
 10
125.5946505263756
 20
154.5177134020986
 30
0.0
 41
1.190009648738221
 10
121.3446505263757
 20
153.1010467354327
 30
0.0
 41
1.030578586555895
  0
SPLINE
  5
368
330
6C
100
AcDbEntity
  8
Overlay (ISO)
 48
3.215791702270506
100
AcDbSpline
210
0.0
220
0.0
230
1.0
 70
    28
 71
     2
 72
     6
 73
     3
 74
     0
 42
0.0000000001
 43
0.0000000001
 40
0.6046693311223905
 40
0.6046693311223905
 40
0.6046693311223905
 40
1.118728652180966
 40
1.118728652180966
 40
1.118728652180966
 10
129.8446505263757
 20
153.8602361139846
 30
0.0
 41
1.110294117647057
 10
129.8446505263757
 20
153.8602361139853
 30
0.0
 41
1.110294117647057
 10
129.8446505263757
 20
153.1010467354311
 30
0.0
 41
1.030578586555895
  0
LINE
  5
369
330
6C
100
AcDbEntity
  8
Overlay (ISO)
 48
8.497750282287597
100
AcDbLine
 10
129.5946505263755
 20
154.0045736812819
 30
0.0
 11
113.0946505263757
 21
154.0045736812819
 31
0.0
  0
LINE
  5
36A
330
6C
100
AcDbEntity
  8
Overlay (ISO)
 48
0.1862141489982605
100
AcDbLine
 10
129.5946505263755
 20
154.0045736812819
 30
0.0
 11
129.8446505263757
 21
153.8602361139846
 31
0.0
  0
LINE
  5
36B
330
6C
100
AcDbEntity
  8
Overlay (ISO)
 48
0.1862141489982605
100
AcDbLine
 10
113.0946505263756
 20
154.0045736812819
 30
0.0
 11
112.8446505263756
 21
153.8602361139846
 31
0.0
  0
MTEXT
  5
6B2
330
6C
100
AcDbEntity
  8
0
100
AcDbMText
 10
167.1475544561249
 20
111.4617769729455
 30
0.0
 40
5.0
 41
76.62677534305635
 71
     1
 72
     5
  1
ｴｰｽﾎﾞｰﾙ 3W 1BT-1111
 73
     1
 44
1.0
1001
ACAD
1000
ACAD_MTEXT_COLUMN_INFO_BEGIN
1070
    75
1070
     2
1070
    79
1070
     0
1070
    76
1070
     1
1070
    78
1070
     0
1070
    48
1040
76.62677534305635
1070
    49
1040
1.0
1070
    50
1070
     1
1040
0.0
1000
ACAD_MTEXT_COLUMN_INFO_END
  0
ENDSEC
  0
SECTION
  2
OBJECTS
  0
DICTIONARY
  5
C
330
0
100
AcDbDictionary
281
     1
  3
ACAD_COLOR
350
63
  3
ACAD_GROUP
350
D
  3
ACAD_LAYOUT
350
62
  3
ACAD_MATERIAL
350
10
  3
ACAD_MLEADERSTYLE
350
66
  3
ACAD_MLINESTYLE
350
5F
  3
ACAD_PLOTSETTINGS
350
61
  3
ACAD_PLOTSTYLENAME
350
E
  3
ACAD_SCALELIST
350
42
  3
ACAD_TABLESTYLE
350
64
  3
ACAD_VISUALSTYLE
350
29
  3
ACDB_RECOMPOSE_DATA
350
6B5
  3
AcDbVariableDictionary
350
5A8
  3
AcmDictionary
350
638
  3
AMG
350
5EF
  3
AMGSNAPSETTINGS
350
6A8
  0
DICTIONARY
  5
63
102
{ACAD_REACTORS
330
C
102
}
330
C
100
AcDbDictionary
281
     1
  0
DICTIONARY
  5
D
102
{ACAD_REACTORS
330
C
102
}
330
C
100
AcDbDictionary
281
     1
  0
DICTIONARY
  5
62
102
{ACAD_REACTORS
330
C
102
}
330
C
100
AcDbDictionary
281
     1
  3
Layout1
350
6B
  3
Layout2
350
73
  3
Model
350
6F
  0
DICTIONARY
  5
10
102
{ACAD_REACTORS
330
C
102
}
330
C
100
AcDbDictionary
281
     1
  3
ByBlock
350
19
  3
ByLayer
350
11
  3
Global
350
21
  0
DICTIONARY
  5
66
102
{ACAD_REACTORS
330
C
102
}
330
C
100
AcDbDictionary
281
     1
  3
Standard
350
67
  0
DICTIONARY
  5
5F
102
{ACAD_REACTORS
330
C
102
}
330
C
100
AcDbDictionary
281
     1
  3
Standard
350
60
  0
DICTIONARY
  5
61
102
{ACAD_REACTORS
330
C
102
}
330
C
100
AcDbDictionary
281
     1
  0
ACDBDICTIONARYWDFLT
  5
E
102
{ACAD_REACTORS
330
C
102
}
330
C
100
AcDbDictionary
281
     1
  3
Normal
350
F
100
AcDbDictionaryWithDefault
340
F
  0
DICTIONARY
  5
42
102
{ACAD_REACTORS
330
C
102
}
330
C
100
AcDbDictionary
281
     1
  3
A0
350
43
  3
A1
350
44
  3
A2
350
45
  3
A3
350
46
  3
A4
350
47
  3
A5
350
48
  3
A6
350
49
  3
A7
350
4A
  3
A8
350
4B
  3
A9
350
4C
  3
B0
350
4D
  3
B1
350
4E
  3
B2
350
4F
  3
B3
350
50
  3
B4
350
51
  3
B5
350
52
  3
B6
350
53
  0
DICTIONARY
  5
64
102
{ACAD_REACTORS
330
C
102
}
330
C
100
AcDbDictionary
281
     1
  3
Standard
350
65
  0
DICTIONARY
  5
29
102
{ACAD_REACTORS
330
C
102
}
330
C
100
AcDbDictionary
281
     1
  3
2dWireframe
350
2F
  3
Basic
350
2E
  3
Brighten
350
35
  3
ColorChange
350
39
  3
Conceptual
350
32
  3
Dim
350
34
  3
EdgeColorOff
350
41
  3
Facepattern
350
38
  3
Flat
350
2A
  3
FlatWithEdges
350
2B
  3
Gouraud
350
2C
  3
GouraudWithEdges
350
2D
  3
Hidden
350
31
  3
JitterOff
350
3F
  3
Linepattern
350
37
  3
OverhangOff
350
40
  3
Realistic
350
33
  3
Shaded
350
3E
  3
Shaded with edges
350
3D
  3
Shades of Gray
350
3A
  3
Sketchy
350
3B
  3
Thicken
350
36
  3
Wireframe
350
30
  3
X-Ray
350
3C
  0
XRECORD
  5
6B5
102
{ACAD_REACTORS
330
C
102
}
330
C
100
AcDbXrecord
280
     1
 90
        1
330
65
330
6B2
  0
DICTIONARY
  5
5A8
102
{ACAD_REACTORS
330
C
102
}
330
C
100
AcDbDictionary
281
     1
  3
CANNOSCALE
350
5AC
  3
CMLEADERSTYLE
350
5AA
  3
CTABLESTYLE
350
5A9
  3
LAYEREVAL
350
5AE
  3
LAYERNOTIFY
350
5AF
  3
LIGHTINGUNITS
350
5AD
  3
MSLTSCALE
350
5AB
  3
XCLIPFRAME
350
6B3
  0
DICTIONARY
  5
638
102
{ACAD_REACTORS
330
C
102
}
330
C
100
AcDbDictionary
281
     1
  3
AcmStdDictionary
350
639
  0
DICTIONARY
  5
5EF
102
{ACAD_REACTORS
330
C
102
}
330
C
100
AcDbDictionary
281
     1
  0
DICTIONARY
  5
6A8
102
{ACAD_REACTORS
330
C
102
}
330
C
100
AcDbDictionary
281
     1
  0
LAYOUT
  5
6B
102
{ACAD_REACTORS
330
62
102
}
330
62
100
AcDbPlotSettings
  1

  2

  4

  6

 40
0.0
 41
0.0
 42
0.0
 43
0.0
 44
0.0
 45
0.0
 46
0.0
 47
0.0
 48
0.0
 49
0.0
140
0.0
141
0.0
142
1.0
143
1.0
 70
   688
 72
     0
 73
     0
 74
     5
  7

 75
    16
147
1.0
 76
     0
 77
     2
 78
   300
148
0.0
149
0.0
100
AcDbLayout
  1
Layout1
 70
     1
 71
     1
 10
0.0
 20
0.0
 11
420.0
 21
297.0
 12
0.0
 22
0.0
 32
0.0
 14
0.0
 24
0.0
 34
0.0
 15
420.0
 25
297.0
 35
0.0
146
0.0
 13
0.0
 23
0.0
 33
0.0
 16
1.0
 26
0.0
 36
0.0
 17
0.0
 27
1.0
 37
0.0
 76
     0
330
68
  0
LAYOUT
  5
73
102
{ACAD_REACTORS
330
62
102
}
330
62
100
AcDbPlotSettings
  1

  2

  4

  6

 40
0.0
 41
0.0
 42
0.0
 43
0.0
 44
0.0
 45
0.0
 46
0.0
 47
0.0
 48
0.0
 49
0.0
140
0.0
141
0.0
142
1.0
143
1.0
 70
   688
 72
     0
 73
     0
 74
     5
  7

 75
    16
147
1.0
 76
     0
 77
     2
 78
   300
148
0.0
149
0.0
100
AcDbLayout
  1
Layout2
 70
     1
 71
     2
 10
0.0
 20
0.0
 11
12.0
 21
9.0
 12
0.0
 22
0.0
 32
0.0
 14
0.0
 24
0.0
 34
0.0
 15
0.0
 25
0.0
 35
0.0
146
0.0
 13
0.0
 23
0.0
 33
0.0
 16
1.0
 26
0.0
 36
0.0
 17
0.0
 27
1.0
 37
0.0
 76
     0
330
70
  0
LAYOUT
  5
6F
102
{ACAD_REACTORS
330
62
102
}
330
62
100
AcDbPlotSettings
  1

  2

  4

  6

 40
0.0
 41
0.0
 42
0.0
 43
0.0
 44
0.0
 45
0.0
 46
0.0
 47
0.0
 48
0.0
 49
0.0
140
0.0
141
0.0
142
1.0
143
1.0
 70
  1712
 72
     0
 73
     0
 74
     0
  7

 75
     0
147
1.0
 76
     0
 77
     2
 78
   300
148
0.0
149
0.0
100
AcDbLayout
  1
Model
 70
     1
 71
     0
 10
0.0
 20
0.0
 11
12.0
 21
9.0
 12
0.0
 22
0.0
 32
0.0
 14
0.0
 24
0.0
 34
0.0
 15
0.0
 25
0.0
 35
0.0
146
0.0
 13
0.0
 23
0.0
 33
0.0
 16
1.0
 26
0.0
 36
0.0
 17
0.0
 27
1.0
 37
0.0
 76
     0
330
6C
331
57
  0
MATERIAL
  5
19
102
{ACAD_XDICTIONARY
360
1A
102
}
102
{ACAD_REACTORS
330
10
102
}
330
10
100
AcDbMaterial
  1
ByBlock
 72
     0
 43
0.0208333333333333
 43
0.0
 43
0.0
 43
0.0
 43
0.0
 43
0.0208333333333333
 43
0.0
 43
0.0
 43
0.0
 43
0.0
 43
1.0
 43
0.0
 43
0.0
 43
0.0
 43
0.0
 43
1.0
 77
     0
 47
0.0208333333333333
 47
0.0
 47
0.0
 47
0.0
 47
0.0
 47
0.0208333333333333
 47
0.0
 47
0.0
 47
0.0
 47
0.0
 47
1.0
 47
0.0
 47
0.0
 47
0.0
 47
0.0
 47
1.0
171
     0
 49
0.0208333333333333
 49
0.0
 49
0.0
 49
0.0
 49
0.0
 49
0.0208333333333333
 49
0.0
 49
0.0
 49
0.0
 49
0.0
 49
1.0
 49
0.0
 49
0.0
 49
0.0
 49
0.0
 49
1.0
175
     0
142
0.0208333333333333
142
0.0
142
0.0
142
0.0
142
0.0
142
0.0208333333333333
142
0.0
142
0.0
142
0.0
142
0.0
142
1.0
142
0.0
142
0.0
142
0.0
142
0.0
142
1.0
179
     0
144
0.0208333333333333
144
0.0
144
0.0
144
0.0
144
0.0
144
0.0208333333333333
144
0.0
144
0.0
144
0.0
144
0.0
144
1.0
144
0.0
144
0.0
144
0.0
144
0.0
144
1.0
147
0.0208333333333333
147
0.0
147
0.0
147
0.0
147
0.0
147
0.0208333333333333
147
0.0
147
0.0
147
0.0
147
0.0
147
1.0
147
0.0
147
0.0
147
0.0
147
0.0
147
1.0
  0
MATERIAL
  5
11
102
{ACAD_XDICTIONARY
360
12
102
}
102
{ACAD_REACTORS
330
10
102
}
330
10
100
AcDbMaterial
  1
ByLayer
 72
     0
 43
0.0208333333333333
 43
0.0
 43
0.0
 43
0.0
 43
0.0
 43
0.0208333333333333
 43
0.0
 43
0.0
 43
0.0
 43
0.0
 43
1.0
 43
0.0
 43
0.0
 43
0.0
 43
0.0
 43
1.0
 77
     0
 47
0.0208333333333333
 47
0.0
 47
0.0
 47
0.0
 47
0.0
 47
0.0208333333333333
 47
0.0
 47
0.0
 47
0.0
 47
0.0
 47
1.0
 47
0.0
 47
0.0
 47
0.0
 47
0.0
 47
1.0
171
     0
 49
0.0208333333333333
 49
0.0
 49
0.0
 49
0.0
 49
0.0
 49
0.0208333333333333
 49
0.0
 49
0.0
 49
0.0
 49
0.0
 49
1.0
 49
0.0
 49
0.0
 49
0.0
 49
0.0
 49
1.0
175
     0
142
0.0208333333333333
142
0.0
142
0.0
142
0.0
142
0.0
142
0.0208333333333333
142
0.0
142
0.0
142
0.0
142
0.0
142
1.0
142
0.0
142
0.0
142
0.0
142
0.0
142
1.0
179
     0
144
0.0208333333333333
144
0.0
144
0.0
144
0.0
144
0.0
144
0.0208333333333333
144
0.0
144
0.0
144
0.0
144
0.0
144
1.0
144
0.0
144
0.0
144
0.0
144
0.0
144
1.0
147
0.0208333333333333
147
0.0
147
0.0
147
0.0
147
0.0
147
0.0208333333333333
147
0.0
147
0.0
147
0.0
147
0.0
147
1.0
147
0.0
147
0.0
147
0.0
147
0.0
147
1.0
  0
MATERIAL
  5
21
102
{ACAD_XDICTIONARY
360
22
102
}
102
{ACAD_REACTORS
330
10
102
}
330
10
100
AcDbMaterial
  1
Global
 72
     0
 43
0.0208333333333333
 43
0.0
 43
0.0
 43
0.0
 43
0.0
 43
0.0208333333333333
 43
0.0
 43
0.0
 43
0.0
 43
0.0
 43
1.0
 43
0.0
 43
0.0
 43
0.0
 43
0.0
 43
1.0
 77
     0
 47
0.0208333333333333
 47
0.0
 47
0.0
 47
0.0
 47
0.0
 47
0.0208333333333333
 47
0.0
 47
0.0
 47
0.0
 47
0.0
 47
1.0
 47
0.0
 47
0.0
 47
0.0
 47
0.0
 47
1.0
171
     0
 49
0.0208333333333333
 49
0.0
 49
0.0
 49
0.0
 49
0.0
 49
0.0208333333333333
 49
0.0
 49
0.0
 49
0.0
 49
0.0
 49
1.0
 49
0.0
 49
0.0
 49
0.0
 49
0.0
 49
1.0
175
     0
142
0.0208333333333333
142
0.0
142
0.0
142
0.0
142
0.0
142
0.0208333333333333
142
0.0
142
0.0
142
0.0
142
0.0
142
1.0
142
0.0
142
0.0
142
0.0
142
0.0
142
1.0
179
     0
144
0.0208333333333333
144
0.0
144
0.0
144
0.0
144
0.0
144
0.0208333333333333
144
0.0
144
0.0
144
0.0
144
0.0
144
1.0
144
0.0
144
0.0
144
0.0
144
0.0
144
1.0
147
0.0208333333333333
147
0.0
147
0.0
147
0.0
147
0.0
147
0.0208333333333333
147
0.0
147
0.0
147
0.0
147
0.0
147
1.0
147
0.0
147
0.0
147
0.0
147
0.0
147
1.0
  0
MLEADERSTYLE
  5
67
102
{ACAD_REACTORS
330
66
102
}
330
66
100
AcDbMLeaderStyle
170
     2
171
     1
172
     0
 90
        2
 40
0.0
 41
0.0
173
     1
 91
-1056964608
340
5B
 92
       -2
290
     1
 42
0.09
291
     1
 43
0.36
  3
Standard
 44
0.18
300

342
55
174
     1
178
     6
175
     1
176
     0
 93
-1056964608
 45
0.18
292
     0
297
     0
 46
0.18
 94
-1056964608
 47
1.0
 49
1.0
140
1.0
293
     1
141
0.0
294
     1
177
     0
142
1.0
295
     0
296
     0
143
0.125
1001
ACAD_MLEADERVER
1070
     2
  0
MLINESTYLE
  5
60
102
{ACAD_REACTORS
330
5F
102
}
330
5F
100
AcDbMlineStyle
  2
STANDARD
 70
     0
  3

 62
   256
 51
90.0
 52
90.0
 71
     2
 49
0.5
 62
   256
  6
BYLAYER
 49
-0.5
 62
   256
  6
BYLAYER
  0
ACDBPLACEHOLDER
  5
F
102
{ACAD_REACTORS
330
E
102
}
330
E
  0
SCALE
  5
43
102
{ACAD_REACTORS
330
42
102
}
330
42
100
AcDbScale
 70
     0
300
1:1
140
1.0
141
1.0
290
     1
  0
SCALE
  5
44
102
{ACAD_REACTORS
330
42
102
}
330
42
100
AcDbScale
 70
     0
300
1/128" = 1'-0"
140
0.0078125
141
12.0
290
     0
  0
SCALE
  5
45
102
{ACAD_REACTORS
330
42
102
}
330
42
100
AcDbScale
 70
     0
300
1/64" = 1'-0"
140
0.015625
141
12.0
290
     0
  0
SCALE
  5
46
102
{ACAD_REACTORS
330
42
102
}
330
42
100
AcDbScale
 70
     0
300
1/32" = 1'-0"
140
0.03125
141
12.0
290
     0
  0
SCALE
  5
47
102
{ACAD_REACTORS
330
42
102
}
330
42
100
AcDbScale
 70
     0
300
1/16" = 1'-0"
140
0.0625
141
12.0
290
     0
  0
SCALE
  5
48
102
{ACAD_REACTORS
330
42
102
}
330
42
100
AcDbScale
 70
     0
300
3/32" = 1'-0"
140
0.09375
141
12.0
290
     0
  0
SCALE
  5
49
102
{ACAD_REACTORS
330
42
102
}
330
42
100
AcDbScale
 70
     0
300
1/8" = 1'-0"
140
0.125
141
12.0
290
     0
  0
SCALE
  5
4A
102
{ACAD_REACTORS
330
42
102
}
330
42
100
AcDbScale
 70
     0
300
3/16" = 1'-0"
140
0.1875
141
12.0
290
     0
  0
SCALE
  5
4B
102
{ACAD_REACTORS
330
42
102
}
330
42
100
AcDbScale
 70
     0
300
1/4" = 1'-0"
140
0.25
141
12.0
290
     0
  0
SCALE
  5
4C
102
{ACAD_REACTORS
330
42
102
}
330
42
100
AcDbScale
 70
     0
300
3/8" = 1'-0"
140
0.375
141
12.0
290
     0
  0
SCALE
  5
4D
102
{ACAD_REACTORS
330
42
102
}
330
42
100
AcDbScale
 70
     0
300
1/2" = 1'-0"
140
0.5
141
12.0
290
     0
  0
SCALE
  5
4E
102
{ACAD_REACTORS
330
42
102
}
330
42
100
AcDbScale
 70
     0
300
3/4" = 1'-0"
140
0.75
141
12.0
290
     0
  0
SCALE
  5
4F
102
{ACAD_REACTORS
330
42
102
}
330
42
100
AcDbScale
 70
     0
300
1" = 1'-0"
140
1.0
141
12.0
290
     0
  0
SCALE
  5
50
102
{ACAD_REACTORS
330
42
102
}
330
42
100
AcDbScale
 70
     0
300
1-1/2" = 1'-0"
140
1.5
141
12.0
290
     0
  0
SCALE
  5
51
102
{ACAD_REACTORS
330
42
102
}
330
42
100
AcDbScale
 70
     0
300
3" = 1'-0"
140
3.0
141
12.0
290
     0
  0
SCALE
  5
52
102
{ACAD_REACTORS
330
42
102
}
330
42
100
AcDbScale
 70
     0
300
6" = 1'-0"
140
6.0
141
12.0
290
     0
  0
SCALE
  5
53
102
{ACAD_REACTORS
330
42
102
}
330
42
100
AcDbScale
 70
     0
300
1'-0" = 1'-0"
140
12.0
141
12.0
290
     0
  0
TABLESTYLE
  5
65
102
{ACAD_XDICTIONARY
360
5B1
102
}
102
{ACAD_REACTORS
330
64
102
}
330
64
100
AcDbTableStyle
  3
Standard
 70
     0
 71
     0
 40
0.06
 41
0.06
280
     0
281
     0
  7
Standard
140
0.18
170
     2
 62
     0
 63
     7
283
     0
274
    -2
284
     1
 64
     0
275
    -2
285
     1
 65
     0
276
    -2
286
     1
 66
     0
277
    -2
287
     1
 67
     0
278
    -2
288
     1
 68
     0
279
    -2
289
     1
 69
     0
  7
Standard
140
0.25
170
     5
 62
     0
 63
     7
283
     0
274
    -2
284
     1
 64
     0
275
    -2
285
     1
 65
     0
276
    -2
286
     1
 66
     0
277
    -2
287
     1
 67
     0
278
    -2
288
     1
 68
     0
279
    -2
289
     1
 69
     0
  7
Standard
140
0.18
170
     5
 62
     0
 63
     7
283
     0
274
    -2
284
     1
 64
     0
275
    -2
285
     1
 65
     0
276
    -2
286
     1
 66
     0
277
    -2
287
     1
 67
     0
278
    -2
288
     1
 68
     0
279
    -2
289
     1
 69
     0
  0
VISUALSTYLE
  5
2F
102
{ACAD_XDICTIONARY
360
6C0
102
}
102
{ACAD_REACTORS
330
29
102
}
330
29
100
AcDbVisualStyle
  2

 70
     4
 71
     0
 72
     2
 73
     0
 90
        0
 40
-0.6
 41
-30.0
 62
     5
 63
     7
421
 16777215
 74
     1
 91
        4
 64
     7
 65
   257
 75
     1
175
     1
 42
1.0
 92
        0
 66
   257
 43
1.0
 76
     1
 77
     6
 78
     2
 67
     7
 79
     5
170
     0
171
     0
290
     0
174
     0
 93
        1
 44
0.0
173
     0
291
     0
 45
0.0
1001
ACAD
1000
AcDbSavedByObjectVersion
1070
     0
  0
VISUALSTYLE
  5
2E
102
{ACAD_XDICTIONARY
360
6BE
102
}
102
{ACAD_REACTORS
330
29
102
}
330
29
100
AcDbVisualStyle
  2

 70
     7
 71
     1
 72
     0
 73
     1
 90
        0
 40
-0.6
 41
-30.0
 62
     5
 63
     7
421
 16777215
 74
     0
 91
        4
 64
     7
 65
   257
 75
     1
175
     1
 42
1.0
 92
        8
 66
     7
 43
1.0
 76
     1
 77
     6
 78
     2
 67
     7
 79
     5
170
     0
171
     0
290
     0
174
     0
 93
        1
 44
0.0
173
     0
291
     1
 45
0.0
1001
ACAD
1000
AcDbSavedByObjectVersion
1070
     0
  0
VISUALSTYLE
  5
35
102
{ACAD_XDICTIONARY
360
6CC
102
}
102
{ACAD_REACTORS
330
29
102
}
330
29
100
AcDbVisualStyle
  2

 70
    12
 71
     2
 72
     2
 73
     0
 90
        0
 40
-0.6
 41
-30.0
 62
     5
 63
     7
421
 16777215
 74
     1
 91
        4
 64
     7
 65
   257
 75
     1
175
     1
 42
1.0
 92
        8
 66
     7
 43
1.0
 76
     1
 77
     6
 78
     2
 67
     7
 79
     5
170
     0
171
     0
290
     0
174
     0
 93
        1
 44
50.0
173
     0
291
     1
 45
0.0
1001
ACAD
1000
AcDbSavedByObjectVersion
1070
     0
  0
VISUALSTYLE
  5
39
102
{ACAD_XDICTIONARY
360
6D4
102
}
102
{ACAD_REACTORS
330
29
102
}
330
29
100
AcDbVisualStyle
  2

 70
    16
 71
     2
 72
     2
 73
     3
 90
        0
 40
-0.6
 41
-30.0
 62
     5
 63
     8
421
  8421504
 74
     1
 91
        4
 64
     7
 65
   257
 75
     1
175
     1
 42
1.0
 92
        8
 66
     8
424
  8421504
 43
1.0
 76
     1
 77
     6
 78
     2
 67
     7
 79
     5
170
     0
171
     0
290
     0
174
     0
 93
        1
 44
0.0
173
     0
291
     1
 45
0.0
1001
ACAD
1000
AcDbSavedByObjectVersion
1070
     0
  0
VISUALSTYLE
  5
32
102
{ACAD_XDICTIONARY
360
6C6
102
}
102
{ACAD_REACTORS
330
29
102
}
330
29
100
AcDbVisualStyle
  2

 70
     9
 71
     3
 72
     2
 73
     0
 90
        0
 40
-0.6
 41
-30.0
 62
     5
 63
     7
421
 16777215
 74
     2
 91
        2
 64
     7
 65
   257
 75
     1
175
     1
 42
179.0
 92
        8
 66
     7
 43
1.0
 76
     1
 77
     6
 78
     2
 67
     7
 79
     3
170
     0
171
     0
290
     0
174
     0
 93
        1
 44
0.0
173
     0
291
     0
 45
0.0
1001
ACAD
1000
AcDbSavedByObjectVersion
1070
     0
  0
VISUALSTYLE
  5
34
102
{ACAD_XDICTIONARY
360
6CA
102
}
102
{ACAD_REACTORS
330
29
102
}
330
29
100
AcDbVisualStyle
  2

 70
    11
 71
     2
 72
     2
 73
     0
 90
        0
 40
-0.6
 41
-30.0
 62
     5
 63
     7
421
 16777215
 74
     1
 91
        4
 64
     7
 65
   257
 75
     1
175
     1
 42
1.0
 92
        8
 66
     7
 43
1.0
 76
     1
 77
     6
 78
     2
 67
     7
 79
     5
170
     0
171
     0
290
     0
174
     0
 93
        1
 44
-50.0
173
     0
291
     1
 45
0.0
1001
ACAD
1000
AcDbSavedByObjectVersion
1070
     0
  0
VISUALSTYLE
  5
41
102
{ACAD_XDICTIONARY
360
6E4
102
}
102
{ACAD_REACTORS
330
29
102
}
330
29
100
AcDbVisualStyle
  2

 70
    22
 71
     2
 72
     2
 73
     0
 90
        0
 40
-0.6
 41
-30.0
 62
     5
 63
     7
421
 16777215
 74
     1
 91
        4
 64
     7
 65
   257
 75
     1
175
     1
 42
1.0
 92
        8
 66
     7
 43
1.0
 76
     1
 77
     6
 78
     2
 67
     7
 79
     5
170
     0
171
     0
290
     0
174
     0
 93
        1
 44
0.0
173
     0
291
     1
 45
0.0
1001
ACAD
1000
AcDbSavedByObjectVersion
1070
     0
  0
VISUALSTYLE
  5
38
102
{ACAD_XDICTIONARY
360
6D2
102
}
102
{ACAD_REACTORS
330
29
102
}
330
29
100
AcDbVisualStyle
  2

 70
    15
 71
     2
 72
     2
 73
     0
 90
        0
 40
-0.6
 41
-30.0
 62
     5
 63
     7
421
 16777215
 74
     1
 91
        4
 64
     7
 65
   257
 75
     1
175
     1
 42
1.0
 92
        8
 66
     7
 43
1.0
 76
     1
 77
     6
 78
     2
 67
     7
 79
     5
170
     0
171
     0
290
     0
174
     0
 93
        1
 44
0.0
173
     0
291
     1
 45
0.0
1001
ACAD
1000
AcDbSavedByObjectVersion
1070
     0
  0
VISUALSTYLE
  5
2A
102
{ACAD_XDICTIONARY
360
6B6
102
}
102
{ACAD_REACTORS
330
29
102
}
330
29
100
AcDbVisualStyle
  2

 70
     0
 71
     2
 72
     1
 73
     1
 90
        2
 40
-0.6
 41
30.0
 62
     5
 63
     7
421
 16777215
 74
     0
 91
        0
 64
     7
 65
   257
 75
     1
175
     1
 42
1.0
 92
        8
 66
     7
 43
1.0
 76
     1
 77
     6
 78
     2
 67
     7
 79
     5
170
     0
171
     0
290
     0
174
     0
 93
       13
 44
0.0
173
     0
291
     1
 45
0.0
1001
ACAD
1000
AcDbSavedByObjectVersion
1070
     0
  0
VISUALSTYLE
  5
2B
102
{ACAD_XDICTIONARY
360
6B8
102
}
102
{ACAD_REACTORS
330
29
102
}
330
29
100
AcDbVisualStyle
  2

 70
     1
 71
     2
 72
     1
 73
     1
 90
        2
 40
-0.6
 41
30.0
 62
     5
 63
     7
421
 16777215
 74
     1
 91
        0
 64
     7
 65
   257
 75
     1
175
     1
 42
1.0
 92
        0
 66
   257
 43
1.0
 76
     1
 77
     6
 78
     2
 67
     7
 79
     5
170
     0
171
     0
290
     0
174
     0
 93
       13
 44
0.0
173
     0
291
     1
 45
0.0
1001
ACAD
1000
AcDbSavedByObjectVersion
1070
     0
  0
VISUALSTYLE
  5
2C
102
{ACAD_XDICTIONARY
360
6BA
102
}
102
{ACAD_REACTORS
330
29
102
}
330
29
100
AcDbVisualStyle
  2

 70
     2
 71
     2
 72
     2
 73
     1
 90
        2
 40
-0.6
 41
30.0
 62
     5
 63
     7
421
 16777215
 74
     0
 91
        0
 64
     7
 65
   257
 75
     1
175
     1
 42
1.0
 92
        0
 66
     7
 43
1.0
 76
     1
 77
     6
 78
     2
 67
     7
 79
     5
170
     0
171
     0
290
     0
174
     0
 93
       13
 44
0.0
173
     0
291
     1
 45
0.0
1001
ACAD
1000
AcDbSavedByObjectVersion
1070
     0
  0
VISUALSTYLE
  5
2D
102
{ACAD_XDICTIONARY
360
6BC
102
}
102
{ACAD_REACTORS
330
29
102
}
330
29
100
AcDbVisualStyle
  2

 70
     3
 71
     2
 72
     2
 73
     1
 90
        2
 40
-0.6
 41
30.0
 62
     5
 63
     7
421
 16777215
 74
     1
 91
        0
 64
     7
 65
   257
 75
     1
175
     1
 42
1.0
 92
        0
 66
   257
 43
1.0
 76
     1
 77
     6
 78
     2
 67
     7
 79
     5
170
     0
171
     0
290
     0
174
     0
 93
       13
 44
0.0
173
     0
291
     1
 45
0.0
1001
ACAD
1000
AcDbSavedByObjectVersion
1070
     0
  0
VISUALSTYLE
  5
31
102
{ACAD_XDICTIONARY
360
6C4
102
}
102
{ACAD_REACTORS
330
29
102
}
330
29
100
AcDbVisualStyle
  2

 70
     6
 71
     1
 72
     2
 73
     2
 90
        0
 40
-0.6
 41
-30.0
 62
     5
 63
     7
421
 16777215
 74
     2
 91
        2
 64
     7
 65
   257
 75
     2
175
     1
 42
40.0
 92
        0
 66
   257
 43
1.0
 76
     1
 77
     6
 78
     2
 67
     7
 79
     3
170
     0
171
     0
290
     0
174
     0
 93
        1
 44
0.0
173
     0
291
     0
 45
0.0
1001
ACAD
1000
AcDbSavedByObjectVersion
1070
     0
  0
VISUALSTYLE
  5
3F
102
{ACAD_XDICTIONARY
360
6E0
102
}
102
{ACAD_REACTORS
330
29
102
}
330
29
100
AcDbVisualStyle
  2

 70
    20
 71
     2
 72
     2
 73
     0
 90
        0
 40
-0.6
 41
-30.0
 62
     5
 63
     7
421
 16777215
 74
     1
 91
        4
 64
     7
 65
   257
 75
     1
175
     1
 42
1.0
 92
       10
 66
     7
 43
1.0
 76
     1
 77
     6
 78
     2
 67
     7
 79
     5
170
     0
171
     0
290
     0
174
     0
 93
        1
 44
0.0
173
     0
291
     1
 45
0.0
1001
ACAD
1000
AcDbSavedByObjectVersion
1070
     0
  0
VISUALSTYLE
  5
37
102
{ACAD_XDICTIONARY
360
6D0
102
}
102
{ACAD_REACTORS
330
29
102
}
330
29
100
AcDbVisualStyle
  2

 70
    14
 71
     2
 72
     2
 73
     0
 90
        0
 40
-0.6
 41
-30.0
 62
     5
 63
     7
421
 16777215
 74
     1
 91
        4
 64
     7
 65
   257
 75
     7
175
     7
 42
1.0
 92
        8
 66
     7
 43
1.0
 76
     1
 77
     6
 78
     2
 67
     7
 79
     5
170
     0
171
     0
290
     0
174
     0
 93
        1
 44
0.0
173
     0
291
     1
 45
0.0
1001
ACAD
1000
AcDbSavedByObjectVersion
1070
     0
  0
VISUALSTYLE
  5
40
102
{ACAD_XDICTIONARY
360
6E2
102
}
102
{ACAD_REACTORS
330
29
102
}
330
29
100
AcDbVisualStyle
  2

 70
    21
 71
     2
 72
     2
 73
     0
 90
        0
 40
-0.6
 41
-30.0
 62
     5
 63
     7
421
 16777215
 74
     1
 91
        4
 64
     7
 65
   257
 75
     1
175
     1
 42
1.0
 92
        9
 66
     7
 43
1.0
 76
     1
 77
     6
 78
     2
 67
     7
 79
     5
170
     0
171
     0
290
     0
174
     0
 93
        1
 44
0.0
173
     0
291
     1
 45
0.0
1001
ACAD
1000
AcDbSavedByObjectVersion
1070
     0
  0
VISUALSTYLE
  5
33
102
{ACAD_XDICTIONARY
360
6C8
102
}
102
{ACAD_REACTORS
330
29
102
}
330
29
100
AcDbVisualStyle
  2

 70
     8
 71
     2
 72
     3
 73
     0
 90
        2
 40
-0.6
 41
30.0
 62
     5
 63
     7
421
 16777215
 74
     0
 91
        0
 64
     7
 65
   257
 75
     1
175
     1
 42
1.0
 92
        8
 66
   257
 43
1.0
 76
     1
 77
     6
 78
     2
 67
     7
 79
     3
170
     0
171
     0
290
     0
174
     0
 93
       13
 44
0.0
173
     0
291
     0
 45
0.0
1001
ACAD
1000
AcDbSavedByObjectVersion
1070
     0
  0
VISUALSTYLE
  5
3E
102
{ACAD_XDICTIONARY
360
6DE
102
}
102
{ACAD_REACTORS
330
29
102
}
330
29
100
AcDbVisualStyle
  2

 70
    27
 71
     2
 72
     2
 73
     1
 90
        2
 40
-0.6
 41
30.0
 62
     5
 63
     7
421
 16777215
 74
     0
 91
        4
 64
     7
 65
   257
 75
     1
175
     1
 42
1.0
 92
        8
 66
   257
 43
1.0
 76
     1
 77
     6
 78
     2
 67
     8
425
  7895160
 79
     3
170
     0
171
     0
290
     0
174
     0
 93
        5
 44
0.0
173
     0
291
     0
 45
0.0
1001
ACAD
1000
AcDbSavedByObjectVersion
1070
     0
  0
VISUALSTYLE
  5
3D
102
{ACAD_XDICTIONARY
360
6DC
102
}
102
{ACAD_REACTORS
330
29
102
}
330
29
100
AcDbVisualStyle
  2

 70
    26
 71
     2
 72
     2
 73
     1
 90
        2
 40
-0.6
 41
30.0
 62
     5
 63
     7
421
 16777215
 74
     1
 91
       10
 64
     7
 65
   257
 75
     2
175
     1
 42
1.0
 92
        8
 66
   257
 43
1.0
 76
     1
 77
     6
 78
     2
 67
     7
 79
     3
170
     0
171
     0
290
     0
174
     0
 93
        5
 44
0.0
173
     0
291
     0
 45
0.0
1001
ACAD
1000
AcDbSavedByObjectVersion
1070
     0
  0
VISUALSTYLE
  5
3A
102
{ACAD_XDICTIONARY
360
6D6
102
}
102
{ACAD_REACTORS
330
29
102
}
330
29
100
AcDbVisualStyle
  2

 70
    23
 71
     2
 72
     2
 73
     3
 90
        0
 40
-0.6
 41
-30.0
 62
     5
 63
     7
421
 16777215
 74
     2
 91
        2
 64
     7
 65
     7
 75
     1
175
     1
 42
40.0
 92
        8
 66
     7
 43
1.0
 76
     1
 77
     6
 78
     2
 67
     7
 79
     3
170
     0
171
     0
290
     0
174
     0
 93
        1
 44
0.0
173
     0
291
     0
 45
0.0
1001
ACAD
1000
AcDbSavedByObjectVersion
1070
     0
  0
VISUALSTYLE
  5
3B
102
{ACAD_XDICTIONARY
360
6D8
102
}
102
{ACAD_REACTORS
330
29
102
}
330
29
100
AcDbVisualStyle
  2

 70
    24
 71
     1
 72
     2
 73
     2
 90
        0
 40
-0.6
 41
-30.0
 62
     5
 63
     7
421
 16777215
 74
     2
 91
        2
 64
     7
 65
     7
 75
     1
175
     1
 42
40.0
 92
       11
 66
     7
 43
1.0
 76
     1
 77
     6
 78
     2
 67
     7
 79
     6
170
     0
171
     0
290
     0
174
     0
 93
        1
 44
0.0
173
     0
291
     0
 45
0.0
1001
ACAD
1000
AcDbSavedByObjectVersion
1070
     0
  0
VISUALSTYLE
  5
36
102
{ACAD_XDICTIONARY
360
6CE
102
}
102
{ACAD_REACTORS
330
29
102
}
330
29
100
AcDbVisualStyle
  2

 70
    13
 71
     2
 72
     2
 73
     0
 90
        0
 40
-0.6
 41
-30.0
 62
     5
 63
     7
421
 16777215
 74
     1
 91
        4
 64
     7
 65
   257
 75
     1
175
     1
 42
1.0
 92
       12
 66
     7
 43
1.0
 76
     1
 77
     6
 78
     2
 67
     7
 79
     5
170
     0
171
     0
290
     0
174
     0
 93
        1
 44
0.0
173
     0
291
     1
 45
0.0
1001
ACAD
1000
AcDbSavedByObjectVersion
1070
     0
  0
VISUALSTYLE
  5
30
102
{ACAD_XDICTIONARY
360
6C2
102
}
102
{ACAD_REACTORS
330
29
102
}
330
29
100
AcDbVisualStyle
  2

 70
     5
 71
     0
 72
     2
 73
     0
 90
        0
 40
-0.6
 41
-30.0
 62
     5
 63
     7
421
 16777215
 74
     1
 91
        4
 64
     7
 65
   257
 75
     1
175
     1
 42
1.0
 92
        0
 66
   257
 43
1.0
 76
     1
 77
     6
 78
     2
 67
     7
 79
     3
170
     0
171
     0
290
     0
174
     0
 93
        1
 44
0.0
173
     0
291
     0
 45
0.0
1001
ACAD
1000
AcDbSavedByObjectVersion
1070
     0
  0
VISUALSTYLE
  5
3C
102
{ACAD_XDICTIONARY
360
6DA
102
}
102
{ACAD_REACTORS
330
29
102
}
330
29
100
AcDbVisualStyle
  2

 70
    25
 71
     2
 72
     2
 73
     1
 90
        1
 40
0.5
 41
-30.0
 62
     5
 63
     7
421
 16777215
 74
     1
 91
        0
 64
     7
 65
   257
 75
     1
175
     1
 42
1.0
 92
        8
 66
     7
 43
1.0
 76
     1
 77
     6
 78
     2
 67
     7
 79
     3
170
     0
171
     0
290
     0
174
     0
 93
       13
 44
0.0
173
     0
291
     0
 45
0.0
1001
ACAD
1000
AcDbSavedByObjectVersion
1070
     0
  0
DICTIONARYVAR
  5
5AC
102
{ACAD_REACTORS
330
5A8
102
}
330
5A8
100
DictionaryVariables
280
     0
  1
1:1
  0
DICTIONARYVAR
  5
5AA
102
{ACAD_REACTORS
330
5A8
102
}
330
5A8
100
DictionaryVariables
280
     0
  1
STANDARD
  0
DICTIONARYVAR
  5
5A9
102
{ACAD_REACTORS
330
5A8
102
}
330
5A8
100
DictionaryVariables
280
     0
  1
STANDARD
  0
DICTIONARYVAR
  5
5AE
102
{ACAD_REACTORS
330
5A8
102
}
330
5A8
100
DictionaryVariables
280
     0
  1
0
  0
DICTIONARYVAR
  5
5AF
102
{ACAD_REACTORS
330
5A8
102
}
330
5A8
100
DictionaryVariables
280
     0
  1
0
  0
DICTIONARYVAR
  5
5AD
102
{ACAD_REACTORS
330
5A8
102
}
330
5A8
100
DictionaryVariables
280
     0
  1
2
  0
DICTIONARYVAR
  5
5AB
102
{ACAD_REACTORS
330
5A8
102
}
330
5A8
100
DictionaryVariables
280
     0
  1
1
  0
DICTIONARYVAR
  5
6B3
102
{ACAD_REACTORS
330
5A8
102
}
330
5A8
100
DictionaryVariables
280
     0
  1
2
  0
DICTIONARY
  5
639
102
{ACAD_REACTORS
330
638
102
}
330
638
100
AcDbDictionary
281
     1
  0
DICTIONARY
  5
1A
330
19
100
AcDbDictionary
280
     1
281
     1
  3
ACAD_XREC_ROUNDTRIP
360
5B5
  3
BUMPTILE
360
1C
  3
DIFFUSETILE
360
1B
  3
OPACITYTILE
360
1F
  3
REFLECTIONTILE
360
1E
  3
REFRACTIONTILE
360
20
  3
SPECULARTILE
360
1D
  0
DICTIONARY
  5
12
330
11
100
AcDbDictionary
280
     1
281
     1
  3
ACAD_XREC_ROUNDTRIP
360
5B4
  3
BUMPTILE
360
14
  3
DIFFUSETILE
360
13
  3
OPACITYTILE
360
17
  3
REFLECTIONTILE
360
16
  3
REFRACTIONTILE
360
18
  3
SPECULARTILE
360
15
  0
DICTIONARY
  5
22
330
21
100
AcDbDictionary
280
     1
281
     1
  3
ACAD_XREC_ROUNDTRIP
360
5B6
  3
BUMPTILE
360
24
  3
DIFFUSETILE
360
23
  3
OPACITYTILE
360
27
  3
REFLECTIONTILE
360
26
  3
REFRACTIONTILE
360
28
  3
SPECULARTILE
360
25
  0
DICTIONARY
  5
5B1
330
65
100
AcDbDictionary
280
     1
281
     1
  3
ACAD_ROUNDTRIP_2008_TABLESTYLE_CELLSTYLEMAP
360
6B4
  3
ACAD_XREC_ROUNDTRIP
360
6E6
  0
DICTIONARY
  5
6C0
330
2F
100
AcDbDictionary
280
     1
281
     1
  3
ACAD_XREC_ROUNDTRIP
360
6C1
  0
DICTIONARY
  5
6BE
330
2E
100
AcDbDictionary
280
     1
281
     1
  3
ACAD_XREC_ROUNDTRIP
360
6BF
  0
DICTIONARY
  5
6CC
330
35
100
AcDbDictionary
280
     1
281
     1
  3
ACAD_XREC_ROUNDTRIP
360
6CD
  0
DICTIONARY
  5
6D4
330
39
100
AcDbDictionary
280
     1
281
     1
  3
ACAD_XREC_ROUNDTRIP
360
6D5
  0
DICTIONARY
  5
6C6
330
32
100
AcDbDictionary
280
     1
281
     1
  3
ACAD_XREC_ROUNDTRIP
360
6C7
  0
DICTIONARY
  5
6CA
330
34
100
AcDbDictionary
280
     1
281
     1
  3
ACAD_XREC_ROUNDTRIP
360
6CB
  0
DICTIONARY
  5
6E4
330
41
100
AcDbDictionary
280
     1
281
     1
  3
ACAD_XREC_ROUNDTRIP
360
6E5
  0
DICTIONARY
  5
6D2
330
38
100
AcDbDictionary
280
     1
281
     1
  3
ACAD_XREC_ROUNDTRIP
360
6D3
  0
DICTIONARY
  5
6B6
330
2A
100
AcDbDictionary
280
     1
281
     1
  3
ACAD_XREC_ROUNDTRIP
360
6B7
  0
DICTIONARY
  5
6B8
330
2B
100
AcDbDictionary
280
     1
281
     1
  3
ACAD_XREC_ROUNDTRIP
360
6B9
  0
DICTIONARY
  5
6BA
330
2C
100
AcDbDictionary
280
     1
281
     1
  3
ACAD_XREC_ROUNDTRIP
360
6BB
  0
DICTIONARY
  5
6BC
330
2D
100
AcDbDictionary
280
     1
281
     1
  3
ACAD_XREC_ROUNDTRIP
360
6BD
  0
DICTIONARY
  5
6C4
330
31
100
AcDbDictionary
280
     1
281
     1
  3
ACAD_XREC_ROUNDTRIP
360
6C5
  0
DICTIONARY
  5
6E0
330
3F
100
AcDbDictionary
280
     1
281
     1
  3
ACAD_XREC_ROUNDTRIP
360
6E1
  0
DICTIONARY
  5
6D0
330
37
100
AcDbDictionary
280
     1
281
     1
  3
ACAD_XREC_ROUNDTRIP
360
6D1
  0
DICTIONARY
  5
6E2
330
40
100
AcDbDictionary
280
     1
281
     1
  3
ACAD_XREC_ROUNDTRIP
360
6E3
  0
DICTIONARY
  5
6C8
330
33
100
AcDbDictionary
280
     1
281
     1
  3
ACAD_XREC_ROUNDTRIP
360
6C9
  0
DICTIONARY
  5
6DE
330
3E
100
AcDbDictionary
280
     1
281
     1
  3
ACAD_XREC_ROUNDTRIP
360
6DF
  0
DICTIONARY
  5
6DC
330
3D
100
AcDbDictionary
280
     1
281
     1
  3
ACAD_XREC_ROUNDTRIP
360
6DD
  0
DICTIONARY
  5
6D6
330
3A
100
AcDbDictionary
280
     1
281
     1
  3
ACAD_XREC_ROUNDTRIP
360
6D7
  0
DICTIONARY
  5
6D8
330
3B
100
AcDbDictionary
280
     1
281
     1
  3
ACAD_XREC_ROUNDTRIP
360
6D9
  0
DICTIONARY
  5
6CE
330
36
100
AcDbDictionary
280
     1
281
     1
  3
ACAD_XREC_ROUNDTRIP
360
6CF
  0
DICTIONARY
  5
6C2
330
30
100
AcDbDictionary
280
     1
281
     1
  3
ACAD_XREC_ROUNDTRIP
360
6C3
  0
DICTIONARY
  5
6DA
330
3C
100
AcDbDictionary
280
     1
281
     1
  3
ACAD_XREC_ROUNDTRIP
360
6DB
  0
XRECORD
  5
5B5
102
{ACAD_REACTORS
330
1A
102
}
330
1A
100
AcDbXrecord
280
     1
102
MATERIAL
148
0.0
149
0.0
149
0.0
 93
        0
 94
      127
282
     0
 72
     0
 77
     0
171
     0
175
     0
179
     0
273
     0
  0
XRECORD
  5
1C
102
{ACAD_REACTORS
330
1A
102
}
330
1A
100
AcDbXrecord
280
     1
270
     1
271
     1
  0
XRECORD
  5
1B
102
{ACAD_REACTORS
330
1A
102
}
330
1A
100
AcDbXrecord
280
     1
270
     1
271
     1
  0
XRECORD
  5
1F
102
{ACAD_REACTORS
330
1A
102
}
330
1A
100
AcDbXrecord
280
     1
270
     1
271
     1
  0
XRECORD
  5
1E
102
{ACAD_REACTORS
330
1A
102
}
330
1A
100
AcDbXrecord
280
     1
270
     1
271
     1
  0
XRECORD
  5
20
102
{ACAD_REACTORS
330
1A
102
}
330
1A
100
AcDbXrecord
280
     1
270
     1
271
     1
  0
XRECORD
  5
1D
102
{ACAD_REACTORS
330
1A
102
}
330
1A
100
AcDbXrecord
280
     1
270
     1
271
     1
  0
XRECORD
  5
5B4
102
{ACAD_REACTORS
330
12
102
}
330
12
100
AcDbXrecord
280
     1
102
MATERIAL
148
0.0
149
0.0
149
0.0
 93
        0
 94
      127
282
     0
 72
     0
 77
     0
171
     0
175
     0
179
     0
273
     0
  0
XRECORD
  5
14
102
{ACAD_REACTORS
330
12
102
}
330
12
100
AcDbXrecord
280
     1
270
     1
271
     1
  0
XRECORD
  5
13
102
{ACAD_REACTORS
330
12
102
}
330
12
100
AcDbXrecord
280
     1
270
     1
271
     1
  0
XRECORD
  5
17
102
{ACAD_REACTORS
330
12
102
}
330
12
100
AcDbXrecord
280
     1
270
     1
271
     1
  0
XRECORD
  5
16
102
{ACAD_REACTORS
330
12
102
}
330
12
100
AcDbXrecord
280
     1
270
     1
271
     1
  0
XRECORD
  5
18
102
{ACAD_REACTORS
330
12
102
}
330
12
100
AcDbXrecord
280
     1
270
     1
271
     1
  0
XRECORD
  5
15
102
{ACAD_REACTORS
330
12
102
}
330
12
100
AcDbXrecord
280
     1
270
     1
271
     1
  0
XRECORD
  5
5B6
102
{ACAD_REACTORS
330
22
102
}
330
22
100
AcDbXrecord
280
     1
102
MATERIAL
148
0.0
149
0.0
149
0.0
 93
        0
 94
      127
282
     0
 72
     0
 77
     0
171
     0
175
     0
179
     0
273
     0
  0
XRECORD
  5
24
102
{ACAD_REACTORS
330
22
102
}
330
22
100
AcDbXrecord
280
     1
270
     1
271
     1
  0
XRECORD
  5
23
102
{ACAD_REACTORS
330
22
102
}
330
22
100
AcDbXrecord
280
     1
270
     1
271
     1
  0
XRECORD
  5
27
102
{ACAD_REACTORS
330
22
102
}
330
22
100
AcDbXrecord
280
     1
270
     1
271
     1
  0
XRECORD
  5
26
102
{ACAD_REACTORS
330
22
102
}
330
22
100
AcDbXrecord
280
     1
270
     1
271
     1
  0
XRECORD
  5
28
102
{ACAD_REACTORS
330
22
102
}
330
22
100
AcDbXrecord
280
     1
270
     1
271
     1
  0
XRECORD
  5
25
102
{ACAD_REACTORS
330
22
102
}
330
22
100
AcDbXrecord
280
     1
270
     1
271
     1
  0
CELLSTYLEMAP
  5
6B4
102
{ACAD_REACTORS
330
5B1
102
}
330
5B1
100
AcDbCellStyleMap
 90
        3
300
CELLSTYLE
  1
TABLEFORMAT_BEGIN
 90
        5
170
     1
 91
        0
 92
    32768
 62
   257
 93
        1
300
CONTENTFORMAT
  1
CONTENTFORMAT_BEGIN
 90
        0
 91
        0
 92
      512
 93
        0
300

 40
0.0
140
1.0
 94
        5
 62
     0
340
55
144
0.25
309
CONTENTFORMAT_END
171
     1
301
MARGIN
  1
CELLMARGIN_BEGIN
 40
0.06
 40
0.06
 40
0.06
 40
0.06
 40
0.18
 40
0.18
309
CELLMARGIN_END
 94
        6
 95
        1
302
GRIDFORMAT
  1
GRIDFORMAT_BEGIN
 90
        0
 91
        1
 62
     0
 92
       -2
340
0
 93
        0
 40
0.045
309
GRIDFORMAT_END
 95
        2
302
GRIDFORMAT
  1
GRIDFORMAT_BEGIN
 90
        0
 91
        1
 62
     0
 92
       -2
340
0
 93
        0
 40
0.045
309
GRIDFORMAT_END
 95
        4
302
GRIDFORMAT
  1
GRIDFORMAT_BEGIN
 90
        0
 91
        1
 62
     0
 92
       -2
340
0
 93
        0
 40
0.045
309
GRIDFORMAT_END
 95
        8
302
GRIDFORMAT
  1
GRIDFORMAT_BEGIN
 90
        0
 91
        1
 62
     0
 92
       -2
340
0
 93
        0
 40
0.045
309
GRIDFORMAT_END
 95
       16
302
GRIDFORMAT
  1
GRIDFORMAT_BEGIN
 90
        0
 91
        1
 62
     0
 92
       -2
340
0
 93
        0
 40
0.045
309
GRIDFORMAT_END
 95
       32
302
GRIDFORMAT
  1
GRIDFORMAT_BEGIN
 90
        0
 91
        1
 62
     0
 92
       -2
340
0
 93
        0
 40
0.045
309
GRIDFORMAT_END
309
TABLEFORMAT_END
  1
CELLSTYLE_BEGIN
 90
        1
 91
        1
300
_TITLE
309
CELLSTYLE_END
300
CELLSTYLE
  1
TABLEFORMAT_BEGIN
 90
        5
170
     1
 91
        0
 92
        0
 62
   257
 93
        1
300
CONTENTFORMAT
  1
CONTENTFORMAT_BEGIN
 90
        0
 91
        0
 92
      512
 93
        0
300

 40
0.0
140
1.0
 94
        5
 62
     0
340
55
144
0.18
309
CONTENTFORMAT_END
171
     1
301
MARGIN
  1
CELLMARGIN_BEGIN
 40
0.06
 40
0.06
 40
0.06
 40
0.06
 40
0.18
 40
0.18
309
CELLMARGIN_END
 94
        6
 95
        1
302
GRIDFORMAT
  1
GRIDFORMAT_BEGIN
 90
        0
 91
        1
 62
     0
 92
       -2
340
0
 93
        0
 40
0.045
309
GRIDFORMAT_END
 95
        2
302
GRIDFORMAT
  1
GRIDFORMAT_BEGIN
 90
        0
 91
        1
 62
     0
 92
       -2
340
0
 93
        0
 40
0.045
309
GRIDFORMAT_END
 95
        4
302
GRIDFORMAT
  1
GRIDFORMAT_BEGIN
 90
        0
 91
        1
 62
     0
 92
       -2
340
0
 93
        0
 40
0.045
309
GRIDFORMAT_END
 95
        8
302
GRIDFORMAT
  1
GRIDFORMAT_BEGIN
 90
        0
 91
        1
 62
     0
 92
       -2
340
0
 93
        0
 40
0.045
309
GRIDFORMAT_END
 95
       16
302
GRIDFORMAT
  1
GRIDFORMAT_BEGIN
 90
        0
 91
        1
 62
     0
 92
       -2
340
0
 93
        0
 40
0.045
309
GRIDFORMAT_END
 95
       32
302
GRIDFORMAT
  1
GRIDFORMAT_BEGIN
 90
        0
 91
        1
 62
     0
 92
       -2
340
0
 93
        0
 40
0.045
309
GRIDFORMAT_END
309
TABLEFORMAT_END
  1
CELLSTYLE_BEGIN
 90
        2
 91
        1
300
_HEADER
309
CELLSTYLE_END
300
CELLSTYLE
  1
TABLEFORMAT_BEGIN
 90
        5
170
     1
 91
        0
 92
        0
 62
   257
 93
        1
300
CONTENTFORMAT
  1
CONTENTFORMAT_BEGIN
 90
        0
 91
        0
 92
      512
 93
        0
300

 40
0.0
140
1.0
 94
        2
 62
     0
340
55
144
0.18
309
CONTENTFORMAT_END
171
     1
301
MARGIN
  1
CELLMARGIN_BEGIN
 40
0.06
 40
0.06
 40
0.06
 40
0.06
 40
0.18
 40
0.18
309
CELLMARGIN_END
 94
        6
 95
        1
302
GRIDFORMAT
  1
GRIDFORMAT_BEGIN
 90
        0
 91
        1
 62
     0
 92
       -2
340
0
 93
        0
 40
0.045
309
GRIDFORMAT_END
 95
        2
302
GRIDFORMAT
  1
GRIDFORMAT_BEGIN
 90
        0
 91
        1
 62
     0
 92
       -2
340
0
 93
        0
 40
0.045
309
GRIDFORMAT_END
 95
        4
302
GRIDFORMAT
  1
GRIDFORMAT_BEGIN
 90
        0
 91
        1
 62
     0
 92
       -2
340
0
 93
        0
 40
0.045
309
GRIDFORMAT_END
 95
        8
302
GRIDFORMAT
  1
GRIDFORMAT_BEGIN
 90
        0
 91
        1
 62
     0
 92
       -2
340
0
 93
        0
 40
0.045
309
GRIDFORMAT_END
 95
       16
302
GRIDFORMAT
  1
GRIDFORMAT_BEGIN
 90
        0
 91
        1
 62
     0
 92
       -2
340
0
 93
        0
 40
0.045
309
GRIDFORMAT_END
 95
       32
302
GRIDFORMAT
  1
GRIDFORMAT_BEGIN
 90
        0
 91
        1
 62
     0
 92
       -2
340
0
 93
        0
 40
0.045
309
GRIDFORMAT_END
309
TABLEFORMAT_END
  1
CELLSTYLE_BEGIN
 90
        3
 91
        2
300
_DATA
309
CELLSTYLE_END
  0
XRECORD
  5
6E6
102
{ACAD_REACTORS
330
5B1
102
}
330
5B1
100
AcDbXrecord
280
     1
102
ACAD_ROUNDTRIP_PRE2007_TABLESTYLE
 90
      512
 91
        0
  1

 92
      512
 93
        0
  2

 94
      512
 95
        0
  3

  0
XRECORD
  5
6C1
102
{ACAD_REACTORS
330
6C0
102
}
330
6C0
100
AcDbXrecord
280
     1
102
RTVSPropertyOp0
 70
     1
102
RTVSPropertyOp1
 70
     1
102
RTVSPropertyOp2
 70
     1
102
RTVSPropertyOp3
 70
     1
102
RTVSPropertyOp4
 70
     1
102
RTVSPropertyOp5
 70
     1
102
RTVSPropertyOp6
 70
     1
102
RTVSPropertyOp7
 70
     1
102
RTVSPropertyOp8
 70
     1
102
RTVSPropertyOp9
 70
     1
102
RTVSPropertyOp10
 70
     1
102
RTVSPropertyOp11
 70
     1
102
RTVSPropertyOp12
 70
     1
102
RTVSPropertyOp13
 70
     1
102
RTVSPropertyOp14
 70
     1
102
RTVSPropertyOp15
 70
     1
102
RTVSPropertyOp16
 70
     1
102
RTVSPropertyOp17
 70
     1
102
RTVSPropertyOp18
 70
     1
102
RTVSPropertyOp19
 70
     1
102
RTVSPropertyOp20
 70
     1
102
RTVSPropertyOp21
 70
     1
102
RTVSPropertyOp22
 70
     1
102
RTVSPropertyOp23
 70
     1
102
RTVSPropertyOp24
 70
     1
102
RTVSPropertyOp25
 70
     1
102
RTVSPropertyOp26
 70
     1
102
RTVSPropertyOp27
 70
     1
102
RTVSPropertyOp28
 70
     1
102
RTVSPropertyOp29
 70
     1
102
RTVSPropertyOp30
 70
     1
102
RTVSPropertyOp31
 70
     1
102
RTVSPropertyOp32
 70
     1
  0
XRECORD
  5
6BF
102
{ACAD_REACTORS
330
6BE
102
}
330
6BE
100
AcDbXrecord
280
     1
102
RTVSPropertyOp0
 70
     1
102
RTVSPropertyOp1
 70
     1
102
RTVSPropertyOp2
 70
     1
102
RTVSPropertyOp3
 70
     1
102
RTVSPropertyOp4
 70
     1
102
RTVSPropertyOp5
 70
     1
102
RTVSPropertyOp6
 70
     1
102
RTVSPropertyOp7
 70
     1
102
RTVSPropertyOp8
 70
     1
102
RTVSPropertyOp9
 70
     1
102
RTVSPropertyOp10
 70
     1
102
RTVSPropertyOp11
 70
     1
102
RTVSPropertyOp12
 70
     1
102
RTVSPropertyOp13
 70
     1
102
RTVSPropertyOp14
 70
     1
102
RTVSPropertyOp15
 70
     1
102
RTVSPropertyOp16
 70
     1
102
RTVSPropertyOp17
 70
     1
102
RTVSPropertyOp18
 70
     1
102
RTVSPropertyOp19
 70
     1
102
RTVSPropertyOp20
 70
     1
102
RTVSPropertyOp21
 70
     1
102
RTVSPropertyOp22
 70
     1
102
RTVSPropertyOp23
 70
     1
102
RTVSPropertyOp24
 70
     1
102
RTVSPropertyOp25
 70
     1
102
RTVSPropertyOp26
 70
     1
102
RTVSPropertyOp27
 70
     1
102
RTVSPropertyOp28
 70
     1
102
RTVSPropertyOp29
 70
     1
102
RTVSPropertyOp30
 70
     1
102
RTVSPropertyOp31
 70
     1
102
RTVSPropertyOp32
 70
     1
  0
XRECORD
  5
6CD
102
{ACAD_REACTORS
330
6CC
102
}
330
6CC
100
AcDbXrecord
280
     1
102
RTVSPropertyOp0
 70
     1
102
RTVSPropertyOp1
 70
     1
102
RTVSPropertyOp2
 70
     1
102
RTVSPropertyOp3
 70
     1
102
RTVSPropertyOp4
 70
     1
102
RTVSPropertyOp5
 70
     1
102
RTVSPropertyOp6
 70
     1
102
RTVSPropertyOp7
 70
     1
102
RTVSPropertyOp8
 70
     1
102
RTVSPropertyOp9
 70
     1
102
RTVSPropertyOp10
 70
     1
102
RTVSPropertyOp11
 70
     1
102
RTVSPropertyOp12
 70
     1
102
RTVSPropertyOp13
 70
     1
102
RTVSPropertyOp14
 70
     1
102
RTVSPropertyOp15
 70
     1
102
RTVSPropertyOp16
 70
     1
102
RTVSPropertyOp17
 70
     1
102
RTVSPropertyOp18
 70
     1
102
RTVSPropertyOp19
 70
     1
102
RTVSPropertyOp20
 70
     1
102
RTVSPropertyOp21
 70
     1
102
RTVSPropertyOp22
 70
     1
102
RTVSPropertyOp23
 70
     1
102
RTVSPropertyOp24
 70
     1
102
RTVSPropertyOp25
 70
     1
102
RTVSPropertyOp26
 70
     1
102
RTVSPropertyOp27
 70
     1
102
RTVSPropertyOp28
 70
     1
102
RTVSPropertyOp29
 70
     1
102
RTVSPropertyOp30
 70
     1
102
RTVSPropertyOp31
 70
     1
102
RTVSPropertyOp32
 70
     1
  0
XRECORD
  5
6D5
102
{ACAD_REACTORS
330
6D4
102
}
330
6D4
100
AcDbXrecord
280
     1
102
RTVSPropertyOp0
 70
     1
102
RTVSPropertyOp1
 70
     1
102
RTVSPropertyOp2
 70
     1
102
RTVSPropertyOp3
 70
     1
102
RTVSPropertyOp4
 70
     1
102
RTVSPropertyOp5
 70
     1
102
RTVSPropertyOp6
 70
     1
102
RTVSPropertyOp7
 70
     1
102
RTVSPropertyOp8
 70
     1
102
RTVSPropertyOp9
 70
     1
102
RTVSPropertyOp10
 70
     1
102
RTVSPropertyOp11
 70
     1
102
RTVSPropertyOp12
 70
     1
102
RTVSPropertyOp13
 70
     1
102
RTVSPropertyOp14
 70
     1
102
RTVSPropertyOp15
 70
     1
102
RTVSPropertyOp16
 70
     1
102
RTVSPropertyOp17
 70
     1
102
RTVSPropertyOp18
 70
     1
102
RTVSPropertyOp19
 70
     1
102
RTVSPropertyOp20
 70
     1
102
RTVSPropertyOp21
 70
     1
102
RTVSPropertyOp22
 70
     1
102
RTVSPropertyOp23
 70
     1
102
RTVSPropertyOp24
 70
     1
102
RTVSPropertyOp25
 70
     1
102
RTVSPropertyOp26
 70
     1
102
RTVSPropertyOp27
 70
     1
102
RTVSPropertyOp28
 70
     1
102
RTVSPropertyOp29
 70
     1
102
RTVSPropertyOp30
 70
     1
102
RTVSPropertyOp31
 70
     1
102
RTVSPropertyOp32
 70
     1
  0
XRECORD
  5
6C7
102
{ACAD_REACTORS
330
6C6
102
}
330
6C6
100
AcDbXrecord
280
     1
102
RTVSPropertyOp0
 70
     1
102
RTVSPropertyOp1
 70
     1
102
RTVSPropertyOp2
 70
     1
102
RTVSPropertyOp3
 70
     1
102
RTVSPropertyOp4
 70
     1
102
RTVSPropertyOp5
 70
     1
102
RTVSPropertyOp6
 70
     1
102
RTVSPropertyOp7
 70
     1
102
RTVSPropertyOp8
 70
     1
102
RTVSPropertyOp9
 70
     1
102
RTVSPropertyOp10
 70
     1
102
RTVSPropertyOp11
 70
     1
102
RTVSPropertyOp12
 70
     1
102
RTVSPropertyOp13
 70
     1
102
RTVSPropertyOp14
 70
     1
102
RTVSPropertyOp15
 70
     1
102
RTVSPropertyOp16
 70
     1
102
RTVSPropertyOp17
 70
     1
102
RTVSPropertyOp18
 70
     1
102
RTVSPropertyOp19
 70
     1
102
RTVSPropertyOp20
 70
     1
102
RTVSPropertyOp21
 70
     1
102
RTVSPropertyOp22
 70
     1
102
RTVSPropertyOp23
 70
     1
102
RTVSPropertyOp24
 70
     1
102
RTVSPropertyOp25
 70
     1
102
RTVSPropertyOp26
 70
     1
102
RTVSPropertyOp27
 70
     1
102
RTVSPropertyOp28
 70
     1
102
RTVSPropertyOp29
 70
     1
102
RTVSPropertyOp30
 70
     1
102
RTVSPropertyOp31
 70
     1
102
RTVSPropertyOp32
 70
     1
  0
XRECORD
  5
6CB
102
{ACAD_REACTORS
330
6CA
102
}
330
6CA
100
AcDbXrecord
280
     1
102
RTVSPropertyOp0
 70
     1
102
RTVSPropertyOp1
 70
     1
102
RTVSPropertyOp2
 70
     1
102
RTVSPropertyOp3
 70
     1
102
RTVSPropertyOp4
 70
     1
102
RTVSPropertyOp5
 70
     1
102
RTVSPropertyOp6
 70
     1
102
RTVSPropertyOp7
 70
     1
102
RTVSPropertyOp8
 70
     1
102
RTVSPropertyOp9
 70
     1
102
RTVSPropertyOp10
 70
     1
102
RTVSPropertyOp11
 70
     1
102
RTVSPropertyOp12
 70
     1
102
RTVSPropertyOp13
 70
     1
102
RTVSPropertyOp14
 70
     1
102
RTVSPropertyOp15
 70
     1
102
RTVSPropertyOp16
 70
     1
102
RTVSPropertyOp17
 70
     1
102
RTVSPropertyOp18
 70
     1
102
RTVSPropertyOp19
 70
     1
102
RTVSPropertyOp20
 70
     1
102
RTVSPropertyOp21
 70
     1
102
RTVSPropertyOp22
 70
     1
102
RTVSPropertyOp23
 70
     1
102
RTVSPropertyOp24
 70
     1
102
RTVSPropertyOp25
 70
     1
102
RTVSPropertyOp26
 70
     1
102
RTVSPropertyOp27
 70
     1
102
RTVSPropertyOp28
 70
     1
102
RTVSPropertyOp29
 70
     1
102
RTVSPropertyOp30
 70
     1
102
RTVSPropertyOp31
 70
     1
102
RTVSPropertyOp32
 70
     1
  0
XRECORD
  5
6E5
102
{ACAD_REACTORS
330
6E4
102
}
330
6E4
100
AcDbXrecord
280
     1
102
RTVSPropertyOp0
 70
     0
102
RTVSPropertyOp1
 70
     0
102
RTVSPropertyOp2
 70
     0
102
RTVSPropertyOp3
 70
     0
102
RTVSPropertyOp4
 70
     0
102
RTVSPropertyOp5
 70
     0
102
RTVSPropertyOp6
 70
     0
102
RTVSPropertyOp7
 70
     0
102
RTVSPropertyOp8
 70
     0
102
RTVSPropertyOp9
 70
     0
102
RTVSPropertyOp10
 70
     0
102
RTVSPropertyOp11
 70
     0
102
RTVSPropertyOp12
 70
     0
102
RTVSPropertyOp13
 70
     0
102
RTVSPropertyOp14
 70
     2
102
RTVSPropertyOp15
 70
     0
102
RTVSPropertyOp16
 70
     0
102
RTVSPropertyOp17
 70
     0
102
RTVSPropertyOp18
 70
     0
102
RTVSPropertyOp19
 70
     0
102
RTVSPropertyOp20
 70
     0
102
RTVSPropertyOp21
 70
     0
102
RTVSPropertyOp22
 70
     0
102
RTVSPropertyOp23
 70
     0
102
RTVSPropertyOp24
 70
     0
102
RTVSPropertyOp25
 70
     0
102
RTVSPropertyOp26
 70
     0
102
RTVSPropertyOp27
 70
     0
102
RTVSPropertyOp28
 70
     0
102
RTVSPropertyOp29
 70
     0
102
RTVSPropertyOp30
 70
     0
102
RTVSPropertyOp31
 70
     0
102
RTVSPropertyOp32
 70
     0
  0
XRECORD
  5
6D3
102
{ACAD_REACTORS
330
6D2
102
}
330
6D2
100
AcDbXrecord
280
     1
102
RTVSPropertyOp0
 70
     1
102
RTVSPropertyOp1
 70
     1
102
RTVSPropertyOp2
 70
     1
102
RTVSPropertyOp3
 70
     1
102
RTVSPropertyOp4
 70
     1
102
RTVSPropertyOp5
 70
     1
102
RTVSPropertyOp6
 70
     1
102
RTVSPropertyOp7
 70
     1
102
RTVSPropertyOp8
 70
     1
102
RTVSPropertyOp9
 70
     1
102
RTVSPropertyOp10
 70
     1
102
RTVSPropertyOp11
 70
     1
102
RTVSPropertyOp12
 70
     1
102
RTVSPropertyOp13
 70
     1
102
RTVSPropertyOp14
 70
     1
102
RTVSPropertyOp15
 70
     1
102
RTVSPropertyOp16
 70
     1
102
RTVSPropertyOp17
 70
     1
102
RTVSPropertyOp18
 70
     1
102
RTVSPropertyOp19
 70
     1
102
RTVSPropertyOp20
 70
     1
102
RTVSPropertyOp21
 70
     1
102
RTVSPropertyOp22
 70
     1
102
RTVSPropertyOp23
 70
     1
102
RTVSPropertyOp24
 70
     1
102
RTVSPropertyOp25
 70
     1
102
RTVSPropertyOp26
 70
     1
102
RTVSPropertyOp27
 70
     1
102
RTVSPropertyOp28
 70
     1
102
RTVSPropertyOp29
 70
     1
102
RTVSPropertyOp30
 70
     1
102
RTVSPropertyOp31
 70
     1
102
RTVSPropertyOp32
 70
     1
  0
XRECORD
  5
6B7
102
{ACAD_REACTORS
330
6B6
102
}
330
6B6
100
AcDbXrecord
280
     1
102
RTVSPropertyOp0
 70
     1
102
RTVSPropertyOp1
 70
     1
102
RTVSPropertyOp2
 70
     1
102
RTVSPropertyOp3
 70
     1
102
RTVSPropertyOp4
 70
     1
102
RTVSPropertyOp5
 70
     1
102
RTVSPropertyOp6
 70
     1
102
RTVSPropertyOp7
 70
     1
102
RTVSPropertyOp8
 70
     1
102
RTVSPropertyOp9
 70
     1
102
RTVSPropertyOp10
 70
     1
102
RTVSPropertyOp11
 70
     1
102
RTVSPropertyOp12
 70
     1
102
RTVSPropertyOp13
 70
     1
102
RTVSPropertyOp14
 70
     1
102
RTVSPropertyOp15
 70
     1
102
RTVSPropertyOp16
 70
     1
102
RTVSPropertyOp17
 70
     1
102
RTVSPropertyOp18
 70
     1
102
RTVSPropertyOp19
 70
     1
102
RTVSPropertyOp20
 70
     1
102
RTVSPropertyOp21
 70
     1
102
RTVSPropertyOp22
 70
     1
102
RTVSPropertyOp23
 70
     1
102
RTVSPropertyOp24
 70
     1
102
RTVSPropertyOp25
 70
     1
102
RTVSPropertyOp26
 70
     1
102
RTVSPropertyOp27
 70
     1
102
RTVSPropertyOp28
 70
     1
102
RTVSPropertyOp29
 70
     1
102
RTVSPropertyOp30
 70
     1
102
RTVSPropertyOp31
 70
     1
102
RTVSPropertyOp32
 70
     1
  0
XRECORD
  5
6B9
102
{ACAD_REACTORS
330
6B8
102
}
330
6B8
100
AcDbXrecord
280
     1
102
RTVSPropertyOp0
 70
     1
102
RTVSPropertyOp1
 70
     1
102
RTVSPropertyOp2
 70
     1
102
RTVSPropertyOp3
 70
     1
102
RTVSPropertyOp4
 70
     1
102
RTVSPropertyOp5
 70
     1
102
RTVSPropertyOp6
 70
     1
102
RTVSPropertyOp7
 70
     1
102
RTVSPropertyOp8
 70
     1
102
RTVSPropertyOp9
 70
     1
102
RTVSPropertyOp10
 70
     1
102
RTVSPropertyOp11
 70
     1
102
RTVSPropertyOp12
 70
     1
102
RTVSPropertyOp13
 70
     1
102
RTVSPropertyOp14
 70
     1
102
RTVSPropertyOp15
 70
     1
102
RTVSPropertyOp16
 70
     1
102
RTVSPropertyOp17
 70
     1
102
RTVSPropertyOp18
 70
     1
102
RTVSPropertyOp19
 70
     1
102
RTVSPropertyOp20
 70
     1
102
RTVSPropertyOp21
 70
     1
102
RTVSPropertyOp22
 70
     1
102
RTVSPropertyOp23
 70
     1
102
RTVSPropertyOp24
 70
     1
102
RTVSPropertyOp25
 70
     1
102
RTVSPropertyOp26
 70
     1
102
RTVSPropertyOp27
 70
     1
102
RTVSPropertyOp28
 70
     1
102
RTVSPropertyOp29
 70
     1
102
RTVSPropertyOp30
 70
     1
102
RTVSPropertyOp31
 70
     1
102
RTVSPropertyOp32
 70
     1
  0
XRECORD
  5
6BB
102
{ACAD_REACTORS
330
6BA
102
}
330
6BA
100
AcDbXrecord
280
     1
102
RTVSPropertyOp0
 70
     1
102
RTVSPropertyOp1
 70
     1
102
RTVSPropertyOp2
 70
     1
102
RTVSPropertyOp3
 70
     1
102
RTVSPropertyOp4
 70
     1
102
RTVSPropertyOp5
 70
     1
102
RTVSPropertyOp6
 70
     1
102
RTVSPropertyOp7
 70
     1
102
RTVSPropertyOp8
 70
     1
102
RTVSPropertyOp9
 70
     1
102
RTVSPropertyOp10
 70
     1
102
RTVSPropertyOp11
 70
     1
102
RTVSPropertyOp12
 70
     1
102
RTVSPropertyOp13
 70
     1
102
RTVSPropertyOp14
 70
     1
102
RTVSPropertyOp15
 70
     1
102
RTVSPropertyOp16
 70
     1
102
RTVSPropertyOp17
 70
     1
102
RTVSPropertyOp18
 70
     1
102
RTVSPropertyOp19
 70
     1
102
RTVSPropertyOp20
 70
     1
102
RTVSPropertyOp21
 70
     1
102
RTVSPropertyOp22
 70
     1
102
RTVSPropertyOp23
 70
     1
102
RTVSPropertyOp24
 70
     1
102
RTVSPropertyOp25
 70
     1
102
RTVSPropertyOp26
 70
     1
102
RTVSPropertyOp27
 70
     1
102
RTVSPropertyOp28
 70
     1
102
RTVSPropertyOp29
 70
     1
102
RTVSPropertyOp30
 70
     1
102
RTVSPropertyOp31
 70
     1
102
RTVSPropertyOp32
 70
     1
  0
XRECORD
  5
6BD
102
{ACAD_REACTORS
330
6BC
102
}
330
6BC
100
AcDbXrecord
280
     1
102
RTVSPropertyOp0
 70
     1
102
RTVSPropertyOp1
 70
     1
102
RTVSPropertyOp2
 70
     1
102
RTVSPropertyOp3
 70
     1
102
RTVSPropertyOp4
 70
     1
102
RTVSPropertyOp5
 70
     1
102
RTVSPropertyOp6
 70
     1
102
RTVSPropertyOp7
 70
     1
102
RTVSPropertyOp8
 70
     1
102
RTVSPropertyOp9
 70
     1
102
RTVSPropertyOp10
 70
     1
102
RTVSPropertyOp11
 70
     1
102
RTVSPropertyOp12
 70
     1
102
RTVSPropertyOp13
 70
     1
102
RTVSPropertyOp14
 70
     1
102
RTVSPropertyOp15
 70
     1
102
RTVSPropertyOp16
 70
     1
102
RTVSPropertyOp17
 70
     1
102
RTVSPropertyOp18
 70
     1
102
RTVSPropertyOp19
 70
     1
102
RTVSPropertyOp20
 70
     1
102
RTVSPropertyOp21
 70
     1
102
RTVSPropertyOp22
 70
     1
102
RTVSPropertyOp23
 70
     1
102
RTVSPropertyOp24
 70
     1
102
RTVSPropertyOp25
 70
     1
102
RTVSPropertyOp26
 70
     1
102
RTVSPropertyOp27
 70
     1
102
RTVSPropertyOp28
 70
     1
102
RTVSPropertyOp29
 70
     1
102
RTVSPropertyOp30
 70
     1
102
RTVSPropertyOp31
 70
     1
102
RTVSPropertyOp32
 70
     1
  0
XRECORD
  5
6C5
102
{ACAD_REACTORS
330
6C4
102
}
330
6C4
100
AcDbXrecord
280
     1
102
RTVSPropertyOp0
 70
     1
102
RTVSPropertyOp1
 70
     1
102
RTVSPropertyOp2
 70
     1
102
RTVSPropertyOp3
 70
     1
102
RTVSPropertyOp4
 70
     1
102
RTVSPropertyOp5
 70
     1
102
RTVSPropertyOp6
 70
     1
102
RTVSPropertyOp7
 70
     1
102
RTVSPropertyOp8
 70
     1
102
RTVSPropertyOp9
 70
     1
102
RTVSPropertyOp10
 70
     1
102
RTVSPropertyOp11
 70
     1
102
RTVSPropertyOp12
 70
     1
102
RTVSPropertyOp13
 70
     1
102
RTVSPropertyOp14
 70
     1
102
RTVSPropertyOp15
 70
     1
102
RTVSPropertyOp16
 70
     1
102
RTVSPropertyOp17
 70
     1
102
RTVSPropertyOp18
 70
     1
102
RTVSPropertyOp19
 70
     1
102
RTVSPropertyOp20
 70
     1
102
RTVSPropertyOp21
 70
     1
102
RTVSPropertyOp22
 70
     1
102
RTVSPropertyOp23
 70
     1
102
RTVSPropertyOp24
 70
     1
102
RTVSPropertyOp25
 70
     1
102
RTVSPropertyOp26
 70
     1
102
RTVSPropertyOp27
 70
     1
102
RTVSPropertyOp28
 70
     1
102
RTVSPropertyOp29
 70
     1
102
RTVSPropertyOp30
 70
     1
102
RTVSPropertyOp31
 70
     1
102
RTVSPropertyOp32
 70
     1
  0
XRECORD
  5
6E1
102
{ACAD_REACTORS
330
6E0
102
}
330
6E0
100
AcDbXrecord
280
     1
102
RTVSPropertyOp0
 70
     0
102
RTVSPropertyOp1
 70
     0
102
RTVSPropertyOp2
 70
     0
102
RTVSPropertyOp3
 70
     0
102
RTVSPropertyOp4
 70
     0
102
RTVSPropertyOp5
 70
     0
102
RTVSPropertyOp6
 70
     0
102
RTVSPropertyOp7
 70
     0
102
RTVSPropertyOp8
 70
     0
102
RTVSPropertyOp9
 70
     0
102
RTVSPropertyOp10
 70
     0
102
RTVSPropertyOp11
 70
     0
102
RTVSPropertyOp12
 70
     0
102
RTVSPropertyOp13
 70
     0
102
RTVSPropertyOp14
 70
     2
102
RTVSPropertyOp15
 70
     0
102
RTVSPropertyOp16
 70
     0
102
RTVSPropertyOp17
 70
     0
102
RTVSPropertyOp18
 70
     0
102
RTVSPropertyOp19
 70
     0
102
RTVSPropertyOp20
 70
     0
102
RTVSPropertyOp21
 70
     0
102
RTVSPropertyOp22
 70
     0
102
RTVSPropertyOp23
 70
     0
102
RTVSPropertyOp24
 70
     0
102
RTVSPropertyOp25
 70
     0
102
RTVSPropertyOp26
 70
     0
102
RTVSPropertyOp27
 70
     0
102
RTVSPropertyOp28
 70
     0
102
RTVSPropertyOp29
 70
     0
102
RTVSPropertyOp30
 70
     0
102
RTVSPropertyOp31
 70
     0
102
RTVSPropertyOp32
 70
     0
  0
XRECORD
  5
6D1
102
{ACAD_REACTORS
330
6D0
102
}
330
6D0
100
AcDbXrecord
280
     1
102
RTVSPropertyOp0
 70
     1
102
RTVSPropertyOp1
 70
     1
102
RTVSPropertyOp2
 70
     1
102
RTVSPropertyOp3
 70
     1
102
RTVSPropertyOp4
 70
     1
102
RTVSPropertyOp5
 70
     1
102
RTVSPropertyOp6
 70
     1
102
RTVSPropertyOp7
 70
     1
102
RTVSPropertyOp8
 70
     1
102
RTVSPropertyOp9
 70
     1
102
RTVSPropertyOp10
 70
     1
102
RTVSPropertyOp11
 70
     1
102
RTVSPropertyOp12
 70
     1
102
RTVSPropertyOp13
 70
     1
102
RTVSPropertyOp14
 70
     1
102
RTVSPropertyOp15
 70
     1
102
RTVSPropertyOp16
 70
     1
102
RTVSPropertyOp17
 70
     1
102
RTVSPropertyOp18
 70
     1
102
RTVSPropertyOp19
 70
     1
102
RTVSPropertyOp20
 70
     1
102
RTVSPropertyOp21
 70
     1
102
RTVSPropertyOp22
 70
     1
102
RTVSPropertyOp23
 70
     1
102
RTVSPropertyOp24
 70
     1
102
RTVSPropertyOp25
 70
     1
102
RTVSPropertyOp26
 70
     1
102
RTVSPropertyOp27
 70
     1
102
RTVSPropertyOp28
 70
     1
102
RTVSPropertyOp29
 70
     1
102
RTVSPropertyOp30
 70
     1
102
RTVSPropertyOp31
 70
     1
102
RTVSPropertyOp32
 70
     1
  0
XRECORD
  5
6E3
102
{ACAD_REACTORS
330
6E2
102
}
330
6E2
100
AcDbXrecord
280
     1
102
RTVSPropertyOp0
 70
     0
102
RTVSPropertyOp1
 70
     0
102
RTVSPropertyOp2
 70
     0
102
RTVSPropertyOp3
 70
     0
102
RTVSPropertyOp4
 70
     0
102
RTVSPropertyOp5
 70
     0
102
RTVSPropertyOp6
 70
     0
102
RTVSPropertyOp7
 70
     0
102
RTVSPropertyOp8
 70
     0
102
RTVSPropertyOp9
 70
     0
102
RTVSPropertyOp10
 70
     0
102
RTVSPropertyOp11
 70
     0
102
RTVSPropertyOp12
 70
     0
102
RTVSPropertyOp13
 70
     0
102
RTVSPropertyOp14
 70
     2
102
RTVSPropertyOp15
 70
     0
102
RTVSPropertyOp16
 70
     0
102
RTVSPropertyOp17
 70
     0
102
RTVSPropertyOp18
 70
     0
102
RTVSPropertyOp19
 70
     0
102
RTVSPropertyOp20
 70
     0
102
RTVSPropertyOp21
 70
     0
102
RTVSPropertyOp22
 70
     0
102
RTVSPropertyOp23
 70
     0
102
RTVSPropertyOp24
 70
     0
102
RTVSPropertyOp25
 70
     0
102
RTVSPropertyOp26
 70
     0
102
RTVSPropertyOp27
 70
     0
102
RTVSPropertyOp28
 70
     0
102
RTVSPropertyOp29
 70
     0
102
RTVSPropertyOp30
 70
     0
102
RTVSPropertyOp31
 70
     0
102
RTVSPropertyOp32
 70
     0
  0
XRECORD
  5
6C9
102
{ACAD_REACTORS
330
6C8
102
}
330
6C8
100
AcDbXrecord
280
     1
102
RTVSPropertyOp0
 70
     1
102
RTVSPropertyOp1
 70
     1
102
RTVSPropertyOp2
 70
     1
102
RTVSPropertyOp3
 70
     1
102
RTVSPropertyOp4
 70
     1
102
RTVSPropertyOp5
 70
     1
102
RTVSPropertyOp6
 70
     1
102
RTVSPropertyOp7
 70
     1
102
RTVSPropertyOp8
 70
     1
102
RTVSPropertyOp9
 70
     1
102
RTVSPropertyOp10
 70
     1
102
RTVSPropertyOp11
 70
     1
102
RTVSPropertyOp12
 70
     1
102
RTVSPropertyOp13
 70
     1
102
RTVSPropertyOp14
 70
     1
102
RTVSPropertyOp15
 70
     1
102
RTVSPropertyOp16
 70
     1
102
RTVSPropertyOp17
 70
     1
102
RTVSPropertyOp18
 70
     1
102
RTVSPropertyOp19
 70
     1
102
RTVSPropertyOp20
 70
     1
102
RTVSPropertyOp21
 70
     1
102
RTVSPropertyOp22
 70
     1
102
RTVSPropertyOp23
 70
     1
102
RTVSPropertyOp24
 70
     1
102
RTVSPropertyOp25
 70
     1
102
RTVSPropertyOp26
 70
     1
102
RTVSPropertyOp27
 70
     1
102
RTVSPropertyOp28
 70
     1
102
RTVSPropertyOp29
 70
     1
102
RTVSPropertyOp30
 70
     1
102
RTVSPropertyOp31
 70
     1
102
RTVSPropertyOp32
 70
     1
  0
XRECORD
  5
6DF
102
{ACAD_REACTORS
330
6DE
102
}
330
6DE
100
AcDbXrecord
280
     1
102
RTVSPropertyOp0
 70
     1
102
RTVSPropertyOp1
 70
     1
102
RTVSPropertyOp2
 70
     1
102
RTVSPropertyOp3
 70
     1
102
RTVSPropertyOp4
 70
     1
102
RTVSPropertyOp5
 70
     1
102
RTVSPropertyOp6
 70
     1
102
RTVSPropertyOp7
 70
     1
102
RTVSPropertyOp8
 70
     1
102
RTVSPropertyOp9
 70
     1
102
RTVSPropertyOp10
 70
     1
102
RTVSPropertyOp11
 70
     1
102
RTVSPropertyOp12
 70
     1
102
RTVSPropertyOp13
 70
     1
102
RTVSPropertyOp14
 70
     1
102
RTVSPropertyOp15
 70
     1
102
RTVSPropertyOp16
 70
     1
102
RTVSPropertyOp17
 70
     1
102
RTVSPropertyOp18
 70
     1
102
RTVSPropertyOp19
 70
     1
102
RTVSPropertyOp20
 70
     1
102
RTVSPropertyOp21
 70
     1
102
RTVSPropertyOp22
 70
     1
102
RTVSPropertyOp23
 70
     1
102
RTVSPropertyOp24
 70
     1
102
RTVSPropertyOp25
 70
     1
102
RTVSPropertyOp26
 70
     1
102
RTVSPropertyOp27
 70
     1
102
RTVSPropertyOp28
 70
     1
102
RTVSPropertyOp29
 70
     1
102
RTVSPropertyOp30
 70
     1
102
RTVSPropertyOp31
 70
     1
102
RTVSPropertyOp32
 70
     1
  0
XRECORD
  5
6DD
102
{ACAD_REACTORS
330
6DC
102
}
330
6DC
100
AcDbXrecord
280
     1
102
RTVSPropertyOp0
 70
     1
102
RTVSPropertyOp1
 70
     1
102
RTVSPropertyOp2
 70
     1
102
RTVSPropertyOp3
 70
     1
102
RTVSPropertyOp4
 70
     1
102
RTVSPropertyOp5
 70
     1
102
RTVSPropertyOp6
 70
     1
102
RTVSPropertyOp7
 70
     1
102
RTVSPropertyOp8
 70
     1
102
RTVSPropertyOp9
 70
     1
102
RTVSPropertyOp10
 70
     1
102
RTVSPropertyOp11
 70
     1
102
RTVSPropertyOp12
 70
     1
102
RTVSPropertyOp13
 70
     1
102
RTVSPropertyOp14
 70
     1
102
RTVSPropertyOp15
 70
     1
102
RTVSPropertyOp16
 70
     1
102
RTVSPropertyOp17
 70
     1
102
RTVSPropertyOp18
 70
     1
102
RTVSPropertyOp19
 70
     1
102
RTVSPropertyOp20
 70
     1
102
RTVSPropertyOp21
 70
     1
102
RTVSPropertyOp22
 70
     1
102
RTVSPropertyOp23
 70
     1
102
RTVSPropertyOp24
 70
     1
102
RTVSPropertyOp25
 70
     1
102
RTVSPropertyOp26
 70
     1
102
RTVSPropertyOp27
 70
     1
102
RTVSPropertyOp28
 70
     1
102
RTVSPropertyOp29
 70
     1
102
RTVSPropertyOp30
 70
     1
102
RTVSPropertyOp31
 70
     1
102
RTVSPropertyOp32
 70
     1
  0
XRECORD
  5
6D7
102
{ACAD_REACTORS
330
6D6
102
}
330
6D6
100
AcDbXrecord
280
     1
102
RTVSPropertyOp0
 70
     1
102
RTVSPropertyOp1
 70
     1
102
RTVSPropertyOp2
 70
     1
102
RTVSPropertyOp3
 70
     1
102
RTVSPropertyOp4
 70
     1
102
RTVSPropertyOp5
 70
     1
102
RTVSPropertyOp6
 70
     1
102
RTVSPropertyOp7
 70
     1
102
RTVSPropertyOp8
 70
     1
102
RTVSPropertyOp9
 70
     1
102
RTVSPropertyOp10
 70
     1
102
RTVSPropertyOp11
 70
     1
102
RTVSPropertyOp12
 70
     1
102
RTVSPropertyOp13
 70
     1
102
RTVSPropertyOp14
 70
     1
102
RTVSPropertyOp15
 70
     1
102
RTVSPropertyOp16
 70
     1
102
RTVSPropertyOp17
 70
     1
102
RTVSPropertyOp18
 70
     1
102
RTVSPropertyOp19
 70
     1
102
RTVSPropertyOp20
 70
     1
102
RTVSPropertyOp21
 70
     1
102
RTVSPropertyOp22
 70
     1
102
RTVSPropertyOp23
 70
     1
102
RTVSPropertyOp24
 70
     1
102
RTVSPropertyOp25
 70
     1
102
RTVSPropertyOp26
 70
     1
102
RTVSPropertyOp27
 70
     1
102
RTVSPropertyOp28
 70
     1
102
RTVSPropertyOp29
 70
     1
102
RTVSPropertyOp30
 70
     1
102
RTVSPropertyOp31
 70
     1
102
RTVSPropertyOp32
 70
     1
  0
XRECORD
  5
6D9
102
{ACAD_REACTORS
330
6D8
102
}
330
6D8
100
AcDbXrecord
280
     1
102
RTVSPropertyOp0
 70
     1
102
RTVSPropertyOp1
 70
     1
102
RTVSPropertyOp2
 70
     1
102
RTVSPropertyOp3
 70
     1
102
RTVSPropertyOp4
 70
     1
102
RTVSPropertyOp5
 70
     1
102
RTVSPropertyOp6
 70
     1
102
RTVSPropertyOp7
 70
     1
102
RTVSPropertyOp8
 70
     1
102
RTVSPropertyOp9
 70
     1
102
RTVSPropertyOp10
 70
     1
102
RTVSPropertyOp11
 70
     1
102
RTVSPropertyOp12
 70
     1
102
RTVSPropertyOp13
 70
     1
102
RTVSPropertyOp14
 70
     1
102
RTVSPropertyOp15
 70
     1
102
RTVSPropertyOp16
 70
     1
102
RTVSPropertyOp17
 70
     1
102
RTVSPropertyOp18
 70
     1
102
RTVSPropertyOp19
 70
     1
102
RTVSPropertyOp20
 70
     1
102
RTVSPropertyOp21
 70
     1
102
RTVSPropertyOp22
 70
     1
102
RTVSPropertyOp23
 70
     1
102
RTVSPropertyOp24
 70
     1
102
RTVSPropertyOp25
 70
     1
102
RTVSPropertyOp26
 70
     1
102
RTVSPropertyOp27
 70
     1
102
RTVSPropertyOp28
 70
     1
102
RTVSPropertyOp29
 70
     1
102
RTVSPropertyOp30
 70
     1
102
RTVSPropertyOp31
 70
     1
102
RTVSPropertyOp32
 70
     1
  0
XRECORD
  5
6CF
102
{ACAD_REACTORS
330
6CE
102
}
330
6CE
100
AcDbXrecord
280
     1
102
RTVSPropertyOp0
 70
     1
102
RTVSPropertyOp1
 70
     1
102
RTVSPropertyOp2
 70
     1
102
RTVSPropertyOp3
 70
     1
102
RTVSPropertyOp4
 70
     1
102
RTVSPropertyOp5
 70
     1
102
RTVSPropertyOp6
 70
     1
102
RTVSPropertyOp7
 70
     1
102
RTVSPropertyOp8
 70
     1
102
RTVSPropertyOp9
 70
     1
102
RTVSPropertyOp10
 70
     1
102
RTVSPropertyOp11
 70
     1
102
RTVSPropertyOp12
 70
     1
102
RTVSPropertyOp13
 70
     1
102
RTVSPropertyOp14
 70
     1
102
RTVSPropertyOp15
 70
     1
102
RTVSPropertyOp16
 70
     1
102
RTVSPropertyOp17
 70
     1
102
RTVSPropertyOp18
 70
     1
102
RTVSPropertyOp19
 70
     1
102
RTVSPropertyOp20
 70
     1
102
RTVSPropertyOp21
 70
     1
102
RTVSPropertyOp22
 70
     1
102
RTVSPropertyOp23
 70
     1
102
RTVSPropertyOp24
 70
     1
102
RTVSPropertyOp25
 70
     1
102
RTVSPropertyOp26
 70
     1
102
RTVSPropertyOp27
 70
     1
102
RTVSPropertyOp28
 70
     1
102
RTVSPropertyOp29
 70
     1
102
RTVSPropertyOp30
 70
     1
102
RTVSPropertyOp31
 70
     1
102
RTVSPropertyOp32
 70
     1
  0
XRECORD
  5
6C3
102
{ACAD_REACTORS
330
6C2
102
}
330
6C2
100
AcDbXrecord
280
     1
102
RTVSPropertyOp0
 70
     1
102
RTVSPropertyOp1
 70
     1
102
RTVSPropertyOp2
 70
     1
102
RTVSPropertyOp3
 70
     1
102
RTVSPropertyOp4
 70
     1
102
RTVSPropertyOp5
 70
     1
102
RTVSPropertyOp6
 70
     1
102
RTVSPropertyOp7
 70
     1
102
RTVSPropertyOp8
 70
     1
102
RTVSPropertyOp9
 70
     1
102
RTVSPropertyOp10
 70
     1
102
RTVSPropertyOp11
 70
     1
102
RTVSPropertyOp12
 70
     1
102
RTVSPropertyOp13
 70
     1
102
RTVSPropertyOp14
 70
     1
102
RTVSPropertyOp15
 70
     1
102
RTVSPropertyOp16
 70
     1
102
RTVSPropertyOp17
 70
     1
102
RTVSPropertyOp18
 70
     1
102
RTVSPropertyOp19
 70
     1
102
RTVSPropertyOp20
 70
     1
102
RTVSPropertyOp21
 70
     1
102
RTVSPropertyOp22
 70
     1
102
RTVSPropertyOp23
 70
     1
102
RTVSPropertyOp24
 70
     1
102
RTVSPropertyOp25
 70
     1
102
RTVSPropertyOp26
 70
     1
102
RTVSPropertyOp27
 70
     1
102
RTVSPropertyOp28
 70
     1
102
RTVSPropertyOp29
 70
     1
102
RTVSPropertyOp30
 70
     1
102
RTVSPropertyOp31
 70
     1
102
RTVSPropertyOp32
 70
     1
  0
XRECORD
  5
6DB
102
{ACAD_REACTORS
330
6DA
102
}
330
6DA
100
AcDbXrecord
280
     1
102
RTVSPropertyOp0
 70
     1
102
RTVSPropertyOp1
 70
     1
102
RTVSPropertyOp2
 70
     1
102
RTVSPropertyOp3
 70
     1
102
RTVSPropertyOp4
 70
     1
102
RTVSPropertyOp5
 70
     1
102
RTVSPropertyOp6
 70
     1
102
RTVSPropertyOp7
 70
     1
102
RTVSPropertyOp8
 70
     1
102
RTVSPropertyOp9
 70
     1
102
RTVSPropertyOp10
 70
     1
102
RTVSPropertyOp11
 70
     1
102
RTVSPropertyOp12
 70
     1
102
RTVSPropertyOp13
 70
     1
102
RTVSPropertyOp14
 70
     1
102
RTVSPropertyOp15
 70
     1
102
RTVSPropertyOp16
 70
     1
102
RTVSPropertyOp17
 70
     1
102
RTVSPropertyOp18
 70
     1
102
RTVSPropertyOp19
 70
     1
102
RTVSPropertyOp20
 70
     1
102
RTVSPropertyOp21
 70
     1
102
RTVSPropertyOp22
 70
     1
102
RTVSPropertyOp23
 70
     1
102
RTVSPropertyOp24
 70
     1
102
RTVSPropertyOp25
 70
     1
102
RTVSPropertyOp26
 70
     1
102
RTVSPropertyOp27
 70
     1
102
RTVSPropertyOp28
 70
     1
102
RTVSPropertyOp29
 70
     1
102
RTVSPropertyOp30
 70
     1
102
RTVSPropertyOp31
 70
     1
102
RTVSPropertyOp32
 70
     1
  0
ENDSEC
  0
EOF
