  0
SECTION
  2
HEADER
  9
$ACADVER
  1
AC1015
  9
$ACADMAINTVER
 70
    20
  9
$DWGCODEPAGE
  3
ANSI_932
  9
$INSBASE
 10
0.0
 20
0.0
 30
0.0
  9
$EXTMIN
 10
812.5164349680016
 20
420.5658303637219
 30
0.0
  9
$EXTMAX
 10
936.8319098925745
 20
497.1337561723607
 30
0.0
  9
$LIMMIN
 10
785.0458385632992
 20
402.6259190441958
  9
$LIMMAX
 10
995.0672671347279
 20
551.1259190441959
  9
$ORTHOMODE
 70
     0
  9
$REGENMODE
 70
     1
  9
$FILLMODE
 70
     1
  9
$QTEXTMODE
 70
     0
  9
$MIRRTEXT
 70
     1
  9
$LTSCALE
 40
0.5
  9
$ATTMODE
 70
     1
  9
$TEXTSIZE
 40
1.6
  9
$TRACEWID
 40
0.05
  9
$TEXTSTYLE
  7
STANDARD
  9
$CLAYER
  8
AM_0
  9
$CELTYPE
  6
ByLayer
  9
$CECOLOR
 62
   256
  9
$CELTSCALE
 40
1.0
  9
$DISPSILH
 70
     0
  9
$DIMSCALE
 40
0.5
  9
$DIMASZ
 40
2.5
  9
$DIMEXO
 40
1.0
  9
$DIMDLI
 40
10.0
  9
$DIMRND
 40
0.0
  9
$DIMDLE
 40
0.0
  9
$DIMEXE
 40
1.0
  9
$DIMTP
 40
0.1
  9
$DIMTM
 40
0.1
  9
$DIMTXT
 40
3.5
  9
$DIMCEN
 40
0.0
  9
$DIMTSZ
 40
0.0
  9
$DIMTOL
 70
     0
  9
$DIMLIM
 70
     0
  9
$DIMTIH
 70
     0
  9
$DIMTOH
 70
     0
  9
$DIMSE1
 70
     0
  9
$DIMSE2
 70
     0
  9
$DIMTAD
 70
     3
  9
$DIMZIN
 70
     8
  9
$DIMBLK
  1
Open30
  9
$DIMASO
 70
     1
  9
$DIMSHO
 70
     1
  9
$DIMPOST
  1

  9
$DIMAPOST
  1
"
  9
$DIMALT
 70
     0
  9
$DIMALTD
 70
     2
  9
$DIMALTF
 40
0.0393701
  9
$DIMLFAC
 40
1.0
  9
$DIMTOFL
 70
     1
  9
$DIMTVP
 40
0.0
  9
$DIMTIX
 70
     0
  9
$DIMSOXD
 70
     0
  9
$DIMSAH
 70
     0
  9
$DIMBLK1
  1
Open30
  9
$DIMBLK2
  1
Open30
  9
$DIMSTYLE
  2
AM_JIS
  9
$DIMCLRD
 70
   256
  9
$DIMCLRE
 70
   256
  9
$DIMCLRT
 70
     2
  9
$DIMTFAC
 40
0.71
  9
$DIMGAP
 40
1.5
  9
$DIMJUST
 70
     0
  9
$DIMSD1
 70
     0
  9
$DIMSD2
 70
     0
  9
$DIMTOLJ
 70
     0
  9
$DIMTZIN
 70
     8
  9
$DIMALTZ
 70
     0
  9
$DIMALTTZ
 70
     0
  9
$DIMUPT
 70
     0
  9
$DIMDEC
 70
     2
  9
$DIMTDEC
 70
     3
  9
$DIMALTU
 70
     2
  9
$DIMALTTD
 70
     4
  9
$DIMTXSTY
  7
STANDARD
  9
$DIMAUNIT
 70
     0
  9
$DIMADEC
 70
     0
  9
$DIMALTRND
 40
0.0
  9
$DIMAZIN
 70
     2
  9
$DIMDSEP
 70
    46
  9
$DIMATFIT
 70
     3
  9
$DIMFRAC
 70
     0
  9
$DIMLDRBLK
  1
Open30
  9
$DIMLUNIT
 70
     2
  9
$DIMLWD
 70
    -1
  9
$DIMLWE
 70
    -1
  9
$DIMTMOVE
 70
     0
  9
$LUNITS
 70
     2
  9
$LUPREC
 70
     2
  9
$SKETCHINC
 40
0.1
  9
$FILLETRAD
 40
1.25
  9
$AUNITS
 70
     0
  9
$AUPREC
 70
     0
  9
$MENU
  1
.
  9
$ELEVATION
 40
0.0
  9
$PELEVATION
 40
0.0
  9
$THICKNESS
 40
0.0
  9
$LIMCHECK
 70
     0
  9
$CHAMFERA
 40
0.2
  9
$CHAMFERB
 40
0.2
  9
$CHAMFERC
 40
1.0
  9
$CHAMFERD
 40
0.0
  9
$SKPOLY
 70
     0
  9
$TDCREATE
 40
2454412.597159850
  9
$TDUCREATE
 40
2454412.222159850
  9
$TDUPDATE
 40
2455693.784478623
  9
$TDUUPDATE
 40
2455693.409478623
  9
$TDINDWG
 40
0.2240742130
  9
$TDUSRTIMER
 40
0.2240742130
  9
$USRTIMER
 70
     1
  9
$ANGBASE
 50
0.0
  9
$ANGDIR
 70
     0
  9
$PDMODE
 70
     0
  9
$PDSIZE
 40
0.0
  9
$PLINEWID
 40
0.0
  9
$SPLFRAME
 70
     0
  9
$SPLINETYPE
 70
     6
  9
$SPLINESEGS
 70
     8
  9
$HANDSEED
  5
1AAD
  9
$SURFTAB1
 70
     6
  9
$SURFTAB2
 70
     6
  9
$SURFTYPE
 70
     6
  9
$SURFU
 70
     6
  9
$SURFV
 70
     6
  9
$UCSBASE
  2

  9
$UCSNAME
  2

  9
$UCSORG
 10
0.0
 20
0.0
 30
0.0
  9
$UCSXDIR
 10
1.0
 20
0.0
 30
0.0
  9
$UCSYDIR
 10
0.0
 20
1.0
 30
0.0
  9
$UCSORTHOREF
  2

  9
$UCSORTHOVIEW
 70
     0
  9
$UCSORGTOP
 10
0.0
 20
0.0
 30
0.0
  9
$UCSORGBOTTOM
 10
0.0
 20
0.0
 30
0.0
  9
$UCSORGLEFT
 10
0.0
 20
0.0
 30
0.0
  9
$UCSORGRIGHT
 10
0.0
 20
0.0
 30
0.0
  9
$UCSORGFRONT
 10
0.0
 20
0.0
 30
0.0
  9
$UCSORGBACK
 10
0.0
 20
0.0
 30
0.0
  9
$PUCSBASE
  2

  9
$PUCSNAME
  2

  9
$PUCSORG
 10
0.0
 20
0.0
 30
0.0
  9
$PUCSXDIR
 10
1.0
 20
0.0
 30
0.0
  9
$PUCSYDIR
 10
0.0
 20
1.0
 30
0.0
  9
$PUCSORTHOREF
  2

  9
$PUCSORTHOVIEW
 70
     0
  9
$PUCSORGTOP
 10
0.0
 20
0.0
 30
0.0
  9
$PUCSORGBOTTOM
 10
0.0
 20
0.0
 30
0.0
  9
$PUCSORGLEFT
 10
0.0
 20
0.0
 30
0.0
  9
$PUCSORGRIGHT
 10
0.0
 20
0.0
 30
0.0
  9
$PUCSORGFRONT
 10
0.0
 20
0.0
 30
0.0
  9
$PUCSORGBACK
 10
0.0
 20
0.0
 30
0.0
  9
$USERI1
 70
     0
  9
$USERI2
 70
     0
  9
$USERI3
 70
     0
  9
$USERI4
 70
     0
  9
$USERI5
 70
     0
  9
$USERR1
 40
0.0
  9
$USERR2
 40
0.0
  9
$USERR3
 40
0.0
  9
$USERR4
 40
0.0
  9
$USERR5
 40
0.0
  9
$WORLDVIEW
 70
     1
  9
$SHADEDGE
 70
     3
  9
$SHADEDIF
 70
    70
  9
$TILEMODE
 70
     1
  9
$MAXACTVP
 70
    64
  9
$PINSBASE
 10
0.0
 20
0.0
 30
0.0
  9
$PLIMCHECK
 70
     0
  9
$PEXTMIN
 10
1.000000000000000E+20
 20
1.000000000000000E+20
 30
1.000000000000000E+20
  9
$PEXTMAX
 10
-1.000000000000000E+20
 20
-1.000000000000000E+20
 30
-1.000000000000000E+20
  9
$PLIMMIN
 10
0.0
 20
0.0
  9
$PLIMMAX
 10
12.0
 20
9.0
  9
$UNITMODE
 70
     0
  9
$VISRETAIN
 70
     1
  9
$PLINEGEN
 70
     0
  9
$PSLTSCALE
 70
     1
  9
$TREEDEPTH
 70
  3020
  9
$CMLSTYLE
  2
Standard
  9
$CMLJUST
 70
     0
  9
$CMLSCALE
 40
1.0
  9
$PROXYGRAPHICS
 70
     1
  9
$MEASUREMENT
 70
     1
  9
$CELWEIGHT
370
    -1
  9
$ENDCAPS
280
     0
  9
$JOINSTYLE
280
     0
  9
$LWDISPLAY
290
     0
  9
$INSUNITS
 70
     4
  9
$HYPERLINKBASE
  1

  9
$STYLESHEET
  1
IMAGIO.ctb
  9
$XEDIT
290
     1
  9
$CEPSNTYPE
380
     0
  9
$PSTYLEMODE
290
     1
  9
$FINGERPRINTGUID
  2
{FDEAD576-A652-11D2-9A35-0060089B3A3F}
  9
$VERSIONGUID
  2
{FE20ABA1-394D-4B84-BDD6-F90EDB6A78E9}
  9
$EXTNAMES
290
     1
  9
$PSVPSCALE
 40
0.0
  9
$OLESTARTUP
290
     0
  0
ENDSEC
  0
SECTION
  2
CLASSES
  0
CLASS
  1
ACDBDICTIONARYWDFLT
  2
AcDbDictionaryWithDefault
  3
ObjectDBX Classes
 90
        0
280
     0
281
     0
  0
CLASS
  1
ACDBPLACEHOLDER
  2
AcDbPlaceHolder
  3
ObjectDBX Classes
 90
        0
280
     0
281
     0
  0
CLASS
  1
LAYOUT
  2
AcDbLayout
  3
ObjectDBX Classes
 90
        0
280
     0
281
     0
  0
CLASS
  1
ACME_DOCUMENT
  2
AcMeDbDoc
  3
AcMeServices
 90
     1024
280
     0
281
     0
  0
CLASS
  1
AMGSETTINGSOBJ
  2
AmgSettingsObj
  3
"AcadM|Product Description: AutoCAD Mechanical|Company: Autodesk, Inc."
 90
     1024
280
     0
281
     0
  0
CLASS
  1
ACMESCOPE
  2
AcMeScope
  3
AcMeServices
 90
     1024
280
     0
281
     0
  0
CLASS
  1
ACMECOMMANDHISTORY
  2
AcMeCommandHistory
  3
AcMeServices
 90
     1024
280
     0
281
     0
  0
CLASS
  1
ACIMSYSVARMAN
  2
AcImSysVarManager
  3
AcMeServices
 90
     1024
280
     0
281
     0
  0
CLASS
  1
ACIMREALSYSVAR
  2
AcImRealSysVar
  3
AcMeServices
 90
     1024
280
     0
281
     0
  0
CLASS
  1
ACIMINTSYSVAR
  2
AcImIntSysVar
  3
AcMeServices
 90
     1024
280
     0
281
     0
  0
CLASS
  1
ACMEDRAWINGMAN
  2
AcMeDrawingMan
  3
AcMeServices
 90
    33792
280
     0
281
     0
  0
CLASS
  1
ACMEVIEW
  2
AcMeView
  3
AcMeServices
 90
    33792
280
     0
281
     0
  0
CLASS
  1
ACDBENTITYCACHE
  2
AcMeEntityCache
  3
AcMeServices
 90
     1024
280
     0
281
     0
  0
CLASS
  1
GSMANAGER
  2
AcMeGSManager
  3
AcMeServices
 90
    32768
280
     0
281
     0
  0
CLASS
  1
AMDTINTERNALREACTOR
  2
AmdtInternalReactor
  3
AcMeServices
 90
     1024
280
     0
281
     0
  0
CLASS
  1
ACMESTATEMGR
  2
AcMeStateMgr
  3
AcMeServices
 90
     1024
280
     0
281
     0
  0
CLASS
  1
ACGREFMASTER
  2
AcGrefMaster
  3
AcAttribServices
 90
     1024
280
     0
281
     0
  0
CLASS
  1
ACME_DATABASE
  2
AcMeDbDatabase
  3
AcMeServices
 90
     1024
280
     0
281
     0
  0
CLASS
  1
ACRFINSADJUSTERMGR
  2
AcRfInsAdjusterMgr
  3
AcMeServices
 90
     1024
280
     0
281
     0
  0
CLASS
  1
ACGREFACADMASTER
  2
AcGrefacadMaster
  3
AcGrefServices
 90
     1024
280
     0
281
     0
  0
CLASS
  1
AMIMASTER
  2
AmiMaster
  3
AmiServices
 90
     1024
280
     0
281
     0
  0
CLASS
  1
ACMDATADICTIONARY
  2
AcmDataDictionary
  3
"AcmSymBB|Product Description: AutoCAD Mechanical|Company: Autodesk, Inc."
 90
     1024
280
     0
281
     0
  0
CLASS
  1
ACMDATAENTRYBLOCK
  2
AcmDataEntryBlock
  3
AcmSymBB|Product Description: AutoCAD Mechanical|Company: Autodesk, Inc.
 90
     1024
280
     0
281
     0
  0
CLASS
  1
ACIMSTRSYSVAR
  2
AcImStrSysVar
  3
AcMeServices
 90
     1024
280
     0
281
     0
  0
CLASS
  1
ACMSTANDARDANSI
  2
AcmStandardANSI
  3
"Amdt_StdImp|Product Description: AutoCAD Mechanical|Company: Autodesk, Inc."
 90
     1024
280
     0
281
     0
  0
CLASS
  1
AMGOBJPROPCFG
  2
AmgObjPropCfg
  3
"AmgLay|Product Description: AutoCAD Mechanical|Company: Autodesk, Inc."
 90
     1025
280
     0
281
     0
  0
CLASS
  1
ACMSURFSTANDARDANSI
  2
AcmSurfTextStdANSI
  3
"Amdt_StdImp|Product Description: AutoCAD Mechanical|Company: Autodesk, Inc."
 90
     1024
280
     0
281
     0
  0
CLASS
  1
ACMFCFSTANDARDANSI
  2
AcmFCFStdANSI
  3
"Amdt_StdImp|Product Description: AutoCAD Mechanical|Company: Autodesk, Inc."
 90
     1024
280
     0
281
     0
  0
CLASS
  1
ACMWELDSTANDARDANSI
  2
AcmWeldingStdANSI
  3
"Amdt_StdImp|Product Description: AutoCAD Mechanical|Company: Autodesk, Inc."
 90
     1024
280
     0
281
     0
  0
CLASS
  1
ACMIDSTANDARDANSI
  2
AcmIdStdANSI
  3
"Amdt_StdImp|Product Description: AutoCAD Mechanical|Company: Autodesk, Inc."
 90
     1024
280
     0
281
     0
  0
CLASS
  1
ACMDATUMSTANDARDANSI
  2
AcmDatumStdANSI
  3
"Amdt_StdImp|Product Description: AutoCAD Mechanical|Company: Autodesk, Inc."
 90
     1024
280
     0
281
     0
  0
CLASS
  1
ACMBOMSTANDARDANSI
  2
AcmBOMStdANSI
  3
"Amdt_StdImp|Product Description: AutoCAD Mechanical|Company: Autodesk, Inc."
 90
     1024
280
     0
281
     0
  0
CLASS
  1
ACMDETAILSTANDARDANSI
  2
AmdtDetailSymStdANSI
  3
"Amdt_StdImp|Product Description: AutoCAD Mechanical|Company: Autodesk, Inc."
 90
     1024
280
     0
281
     0
  0
CLASS
  1
ACMSECTIONSTANDARDANSI
  2
AmdtSectionSymStdANSI
  3
"Amdt_StdImp|Product Description: AutoCAD Mechanical|Company: Autodesk, Inc."
 90
     1024
280
     0
281
     0
  0
CLASS
  1
ACMCENTERLINESTANDARDANSI
  2
AmdtCenterLineStdANSI
  3
"Amdt_StdImp|Product Description: AutoCAD Mechanical|Company: Autodesk, Inc."
 90
     1024
280
     0
281
     0
  0
CLASS
  1
ACMNOTESTANDARDANSI
  2
AmdtNoteStdANSI
  3
"Amdt_StdImp|Product Description: AutoCAD Mechanical|Company: Autodesk, Inc."
 90
     1024
280
     0
281
     0
  0
CLASS
  1
ACAMGLAYSTD
  2
AcAmgLayStd
  3
"AmgLay|Product Description: AutoCAD Mechanical|Company: Autodesk, Inc."
 90
     1024
280
     0
281
     0
  0
CLASS
  1
ACAMGDIMSTD
  2
AcAmgDimStd
  3
"AmgDim|Product Description: AutoCAD Mechanical|Company: Autodesk, Inc."
 90
     1024
280
     0
281
     0
  0
CLASS
  1
ACAMGHOLECHARTSTDANSI
  2
AcAmgHoleChartStdANSI
  3
AmgDim|Product Description: AutoCAD Mechanical|Company: Autodesk, Inc.
 90
     1024
280
     0
281
     0
  0
CLASS
  1
ACAMGTITLESTD
  2
AcAmgTitleStd
  3
"AmgTitle|Product Description: AutoCAD Mechanical|Company: Autodesk, Inc."
 90
     4095
280
     0
281
     0
  0
CLASS
  1
LAYER_INDEX
  2
AcDbLayerIndex
  3
ObjectDBX Classes
 90
    32768
280
     0
281
     0
  0
CLASS
  1
IDBUFFER
  2
AcDbIdBuffer
  3
ObjectDBX Classes
 90
    32768
280
     0
281
     0
  0
CLASS
  1
DICTIONARYVAR
  2
AcDbDictionaryVar
  3
ObjectDBX Classes
 90
        0
280
     0
281
     0
  0
CLASS
  1
ACMSTANDARDJIS
  2
AcmStandardJIS
  3
"Amdt_StdImp|Product Description: AutoCAD Mechanical|Company: Autodesk, Inc."
 90
     1024
280
     0
281
     0
  0
CLASS
  1
ACMSURFSTANDARDJIS
  2
AcmSurfTextStdJIS
  3
"Amdt_StdImp|Product Description: AutoCAD Mechanical|Company: Autodesk, Inc."
 90
     1024
280
     0
281
     0
  0
CLASS
  1
ACMFCFSTANDARDJIS98
  2
AcmFCFStdJIS98
  3
"Amdt_StdImp|Product Description: AutoCAD Mechanical|Company: Autodesk, Inc."
 90
     1024
280
     0
281
     0
  0
CLASS
  1
ACMWELDSTANDARDJIS
  2
AcmWeldingStdJIS
  3
"Amdt_StdImp|Product Description: AutoCAD Mechanical|Company: Autodesk, Inc."
 90
     1024
280
     0
281
     0
  0
CLASS
  1
ACMIDSTANDARDJIS
  2
AcmIdStdJIS
  3
"Amdt_StdImp|Product Description: AutoCAD Mechanical|Company: Autodesk, Inc."
 90
     1024
280
     0
281
     0
  0
CLASS
  1
ACMDATUMSTANDARDJIS
  2
AcmDatumStdJIS
  3
"Amdt_StdImp|Product Description: AutoCAD Mechanical|Company: Autodesk, Inc."
 90
     1024
280
     0
281
     0
  0
CLASS
  1
ACMBOMSTANDARDJIS
  2
AcmBOMStdJIS
  3
"Amdt_StdImp|Product Description: AutoCAD Mechanical|Company: Autodesk, Inc."
 90
     1024
280
     0
281
     0
  0
CLASS
  1
ACMDETAILSTANDARDJIS
  2
AmdtDetailSymStdJIS
  3
"Amdt_StdImp|Product Description: AutoCAD Mechanical|Company: Autodesk, Inc."
 90
     1024
280
     0
281
     0
  0
CLASS
  1
ACMSECTIONSTANDARDJIS
  2
AmdtSectionSymStdJIS
  3
"Amdt_StdImp|Product Description: AutoCAD Mechanical|Company: Autodesk, Inc."
 90
     1024
280
     0
281
     0
  0
CLASS
  1
ACMCENTERLINESTANDARDJIS
  2
AmdtCenterLineStdJIS
  3
"Amdt_StdImp|Product Description: AutoCAD Mechanical|Company: Autodesk, Inc."
 90
     1024
280
     0
281
     0
  0
CLASS
  1
ACMNOTESTANDARDJIS
  2
AmdtNoteStdJIS
  3
"Amdt_StdImp|Product Description: AutoCAD Mechanical|Company: Autodesk, Inc."
 90
     1024
280
     0
281
     0
  0
CLASS
  1
ACAMGHOLECHARTSTDJIS
  2
AcAmgHoleChartStdJIS
  3
AmgDim|Product Description: AutoCAD Mechanical|Company: Autodesk, Inc.
 90
     1024
280
     0
281
     0
  0
CLASS
  1
ACAMGFILTERDAT
  2
AcAmgFilterDat
  3
"AcadM|Product Description: AutoCAD Mechanical|Company: Autodesk, Inc."
 90
     1024
280
     0
281
     0
  0
CLASS
  1
AM_DRAWING_MGR
  2
AcDmDwgMgr
  3
AcMechDwgViewMgmt
 90
     1024
280
     0
281
     0
  0
CLASS
  1
AM_DWG_DOCUMENT
  2
AcDmDwgDocument
  3
AcMechDwgViewMgmt
 90
     1024
280
     0
281
     0
  0
CLASS
  1
AM_DWG_SHEET
  2
AcDmSheet
  3
AcMechDwgViewMgmt
 90
     1024
280
     0
281
     0
  0
CLASS
  1
AM_VIEWDIMPARMAP
  2
AcDmViewDimParMap
  3
AcMechDwgViewMgmt
 90
     1024
280
     0
281
     0
  0
CLASS
  1
AM_DWGMGR_NAME
  2
AcDmDwgMgrName
  3
AcMechDwgViewMgmt
 90
     1024
280
     0
281
     0
  0
CLASS
  1
AMDTMENUSTATEMGR
  2
AmdtMenuStateMgr
  3
McadcomServices
 90
     1024
280
     0
281
     0
  0
CLASS
  1
AMDTMCOMMENUSTATE
  2
AmdtMcomMenuState
  3
McadcomServices
 90
     1024
280
     0
281
     0
  0
CLASS
  1
MAPIAMMOUDLE
  2
MApiAmModule
  3
MApiAmServices
 90
     1024
280
     0
281
     0
  0
CLASS
  1
AMDTADMENUSTATE
  2
AmdtAdMenuState
  3
DesignerServices
 90
    32768
280
     0
281
     0
  0
CLASS
  1
ADAPPL
  2
AcAdAppl
  3
DesignerAssemblies
 90
    33792
280
     0
281
     0
  0
CLASS
  1
DEPMGR
  2
AcAdDepMgr
  3
DesignerAssemblies
 90
    33792
280
     0
281
     0
  0
CLASS
  1
PARAMMGR
  2
AcAdParamMgr
  3
DesignerAssemblies
 90
    33792
280
     0
281
     0
  0
CLASS
  1
PARAMSCOPE
  2
AcAdParamScope
  3
DesignerAssemblies
 90
    33792
280
     0
281
     0
  0
CLASS
  1
NAMEDAPPL
  2
AcAdNamedAppl
  3
DesignerAssemblies
 90
    33792
280
     0
281
     0
  0
CLASS
  1
AMDTDMMENUSTATE
  2
AmdtDmMenuState
  3
AcMechDwgViewMgmt
 90
     1024
280
     0
281
     0
  0
CLASS
  1
AMDTAMMENUSTATE
  2
AmdtAmMenuState
  3
DesignerAssemblies
 90
     1024
280
     0
281
     0
  0
CLASS
  1
ACAMPROJECT
  2
AcAmProject
  3
DesignerAssemblies
 90
     1024
280
     0
281
     0
  0
CLASS
  1
ACAMGRCOMPDEF
  2
AcAmGrCompDef
  3
DesignerAssemblies
 90
     1024
280
     0
281
     0
  0
CLASS
  1
ACCMCONTEXT
  2
AcCmContext
  3
DesignerAssemblies
 90
     1024
280
     0
281
     0
  0
CLASS
  1
ACAMCOMPDEF
  2
AcAmCompDef
  3
DesignerAssemblies
 90
     1024
280
     0
281
     0
  0
CLASS
  1
ACAMCOMPDEFMGR
  2
AcAmCompDefMgr
  3
DesignerAssemblies
 90
     1024
280
     0
281
     0
  0
CLASS
  1
AMCONTEXTMGR
  2
AcAmContextMgr
  3
DesignerAssemblies
 90
     1024
280
     0
281
     0
  0
CLASS
  1
ACAMCONTEXTMODELER
  2
AcAmContextModeler
  3
DesignerAssemblies
 90
     1024
280
     0
281
     0
  0
CLASS
  1
ACMTHREADLINESTANDARDANSI
  2
AmdtThreadLineStdANSI
  3
"Amdt_StdImp|Product Description: AutoCAD Mechanical|Company: Autodesk, Inc."
 90
     1024
280
     0
281
     0
  0
CLASS
  1
ACMTHREADLINESTANDARDJIS
  2
AmdtThreadLineStdJIS
  3
"Amdt_StdImp|Product Description: AutoCAD Mechanical|Company: Autodesk, Inc."
 90
     1024
280
     0
281
     0
  0
CLASS
  1
CATALOGSTATE
  2
AcAmCatalogState
  3
DesignerAssemblies
 90
    33792
280
     0
281
     0
  0
CLASS
  1
ACAMGRCOMPDEFSET
  2
AcAmGrCompDefSet
  3
DesignerAssemblies
 90
     1024
280
     0
281
     0
  0
CLASS
  1
AMDTBROWSERDBTAB
  2
AmdtBrowserDbTab
  3
McadcomServices
 90
     1024
280
     0
281
     0
  0
CLASS
  1
CBROWSERAPPOBJECT
  2
CBrowserAppObject
  3
McadcomServices
 90
     1024
280
     0
281
     0
  0
CLASS
  1
DM_PLACEHOLDER
  2
AcDmSelsetPlaceholder
  3
AcMechDwgViewMgmt
 90
     1024
280
     0
281
     0
  0
CLASS
  1
AMDTNOTETEMPLATEDB
  2
AmdtNoteTemplateDB
  3
AcmSymBB|Product Description: AutoCAD Mechanical|Company: Autodesk, Inc.
 90
     1024
280
     0
281
     0
  0
CLASS
  1
MATERIAL
  2
AcDbMaterial
  3
ObjectDBX Classes
 90
     1153
280
     0
281
     0
  0
CLASS
  1
NEWSTDPARTPARLIST
  2
AmgNewParListFiler
  3
"AmgParList|Product Description: AutoCAD Mechanical|Company: Autodesk, Inc."
 90
    36863
280
     0
281
     0
  0
CLASS
  1
ACMSTANDARDISO
  2
AcmStandardISO
  3
"Amdt_StdImp|Product Description: AutoCAD Mechanical|Company: Autodesk, Inc."
 90
     1024
280
     0
281
     0
  0
CLASS
  1
AMDTEDGESTANDARDISO
  2
AmdtEdgeStdISO
  3
"Amdt_StdImp|Product Description: AutoCAD Mechanical|Company: Autodesk, Inc."
 90
     1024
280
     0
281
     0
  0
CLASS
  1
ACMSURFSTANDARDISO
  2
AcmSurfTextStdISO
  3
"Amdt_StdImp|Product Description: AutoCAD Mechanical|Company: Autodesk, Inc."
 90
     1024
280
     0
281
     0
  0
CLASS
  1
ACMFCFSTANDARDISO
  2
AcmFCFStdISO
  3
"Amdt_StdImp|Product Description: AutoCAD Mechanical|Company: Autodesk, Inc."
 90
     1024
280
     0
281
     0
  0
CLASS
  1
ACMWELDSTANDARDISO
  2
AcmWeldingStdISO
  3
"Amdt_StdImp|Product Description: AutoCAD Mechanical|Company: Autodesk, Inc."
 90
     1024
280
     0
281
     0
  0
CLASS
  1
ACMIDSTANDARDISO
  2
AcmIdStdISO
  3
"Amdt_StdImp|Product Description: AutoCAD Mechanical|Company: Autodesk, Inc."
 90
     1024
280
     0
281
     0
  0
CLASS
  1
ACMDATUMSTANDARDISO
  2
AcmDatumStdISO
  3
"Amdt_StdImp|Product Description: AutoCAD Mechanical|Company: Autodesk, Inc."
 90
     1024
280
     0
281
     0
  0
CLASS
  1
ACMBOMSTANDARDISO
  2
AcmBOMStdISO
  3
"Amdt_StdImp|Product Description: AutoCAD Mechanical|Company: Autodesk, Inc."
 90
     1024
280
     0
281
     0
  0
CLASS
  1
ACMDETAILSTANDARDISO
  2
AmdtDetailSymStdISO
  3
"Amdt_StdImp|Product Description: AutoCAD Mechanical|Company: Autodesk, Inc."
 90
     1024
280
     0
281
     0
  0
CLASS
  1
ACMSECTIONSTANDARDISO
  2
AmdtSectionSymStdISO
  3
"Amdt_StdImp|Product Description: AutoCAD Mechanical|Company: Autodesk, Inc."
 90
     1024
280
     0
281
     0
  0
CLASS
  1
ACMCENTERLINESTANDARDISO
  2
AmdtCenterLineStdISO
  3
"Amdt_StdImp|Product Description: AutoCAD Mechanical|Company: Autodesk, Inc."
 90
     1024
280
     0
281
     0
  0
CLASS
  1
ACMTHREADLINESTANDARDISO
  2
AmdtThreadLineStdISO
  3
"Amdt_StdImp|Product Description: AutoCAD Mechanical|Company: Autodesk, Inc."
 90
     1024
280
     0
281
     0
  0
CLASS
  1
ACMNOTESTANDARDISO
  2
AmdtNoteStdISO
  3
"Amdt_StdImp|Product Description: AutoCAD Mechanical|Company: Autodesk, Inc."
 90
     1024
280
     0
281
     0
  0
CLASS
  1
ACAMGHOLECHARTSTDISO
  2
AcAmgHoleChartStdISO
  3
AmgDim|Product Description: AutoCAD Mechanical|Company: Autodesk, Inc.
 90
     1024
280
     0
281
     0
  0
CLASS
  1
ACMDATAENTRYPART
  2
AcmDataEntryPart
  3
AcmSymBB|Product Description: AutoCAD Mechanical|Company: Autodesk, Inc.
 90
     1024
280
     0
281
     0
  0
CLASS
  1
ACMPARTREF
  2
AcmPartRef
  3
"AcmSymBB|Product Description: AutoCAD Mechanical|Company: Autodesk, Inc."
 90
     4095
280
     0
281
     1
  0
CLASS
  1
ACDBCIRCARCRES
  2
AcDbCircArcRes
  3
AcGrefServices
 90
     1024
280
     0
281
     0
  0
CLASS
  1
AMDTFORMULAUPDATEDISPATCHER
  2
AmdtFormulaUpdateDispatcher
  3
AcMeServices
 90
     1024
280
     0
281
     0
  0
CLASS
  1
VISUALSTYLE
  2
AcDbVisualStyle
  3
ObjectDBX Classes
 90
     4095
280
     0
281
     0
  0
CLASS
  1
TABLESTYLE
  2
AcDbTableStyle
  3
ObjectDBX Classes
 90
     4095
280
     0
281
     0
  0
CLASS
  1
ACRFATTGENMGR
  2
AcRfAttGeneralMgr
  3
AcAttribServices
 90
     1024
280
     0
281
     0
  0
CLASS
  1
ACRFOBJATTMGR
  2
AcRfObjAttGroupMgr
  3
AcAttribServices
 90
     1024
280
     0
281
     0
  0
CLASS
  1
ACRFMCADAPIATTHOLDER
  2
AcRfMCADAPIAttHolder
  3
AcAttribServices
 90
     1024
280
     0
281
     0
  0
CLASS
  1
AMDTSYSATTR
  2
AmdtSystemAttribute
  3
AcAttribServices
 90
     1024
280
     0
281
     0
  0
CLASS
  1
ACMTAPERSTANDARDJIS
  2
AcmTaperStdJIS
  3
"Amdt_StdImp|Product Description: AutoCAD Mechanical|Company: Autodesk, Inc."
 90
     1024
280
     0
281
     0
  0
CLASS
  1
ACMTAPERSTANDARDANSI
  2
AcmTaperStdANSI
  3
"Amdt_StdImp|Product Description: AutoCAD Mechanical|Company: Autodesk, Inc."
 90
     1024
280
     0
281
     0
  0
CLASS
  1
ACMTAPERSTANDARDISO
  2
AcmTaperStdISO
  3
"Amdt_StdImp|Product Description: AutoCAD Mechanical|Company: Autodesk, Inc."
 90
     1024
280
     0
281
     0
  0
CLASS
  1
ACDBLINERES
  2
AcDbLineRes
  3
AcGrefServices
 90
     1024
280
     0
281
     0
  0
CLASS
  1
AMDTNOTE
  2
AmdtNote
  3
"AcmSymBB|Product Description: AutoCAD Mechanical|Company: Autodesk, Inc."
 90
    36863
280
     0
281
     1
  0
CLASS
  1
ACMBOM
  2
AcmBom
  3
"AcmSymBB|Product Description: AutoCAD Mechanical|Company: Autodesk, Inc."
 90
     1024
280
     0
281
     0
  0
CLASS
  1
ACMBOMROW
  2
AcmBomRow
  3
"AcmSymBB|Product Description: AutoCAD Mechanical|Company: Autodesk, Inc."
 90
    33792
280
     0
281
     0
  0
CLASS
  1
ACMPICKOBJ
  2
AcmPickEnt
  3
"AcmSymBB|Product Description: AutoCAD Mechanical|Company: Autodesk, Inc."
 90
    33792
280
     0
281
     1
  0
CLASS
  1
ACMBALLOON
  2
AcmBalloon
  3
"AcmSymBB|Product Description: AutoCAD Mechanical|Company: Autodesk, Inc."
 90
    36863
280
     0
281
     1
  0
CLASS
  1
ACMDATAENTRY
  2
AcmDataEntry
  3
AcmSymBB|Product Description: AutoCAD Mechanical|Company: Autodesk, Inc.
 90
     1024
280
     0
281
     0
  0
CLASS
  1
CAMSSTRUCTBTNSTATE
  2
StructBtnState
  3
DesignerAssemblies
 90
    33792
280
     0
281
     0
  0
CLASS
  1
ACMPARTLIST
  2
AcmPartList
  3
"AcmSymBB|Product Description: AutoCAD Mechanical|Company: Autodesk, Inc."
 90
    36863
280
     0
281
     1
  0
CLASS
  1
ACDBOPPOLYLINERES
  2
AcDbOpPolylineRes
  3
AcGrefServices
 90
     1024
280
     0
281
     0
  0
CLASS
  1
ACRFINSADJ
  2
AcRfInsAdjuster
  3
AcMeServices
 90
     1024
280
     0
281
     0
  0
CLASS
  1
SORTENTSTABLE
  2
AcDbSortentsTable
  3
ObjectDBX Classes
 90
        0
280
     0
281
     0
  0
CLASS
  1
SCALE
  2
AcDbScale
  3
ObjectDBX Classes
 90
     1153
280
     0
281
     0
  0
CLASS
  1
MLEADERSTYLE
  2
AcDbMLeaderStyle
  3
ACDB_MLEADERSTYLE_CLASS
 90
     4095
280
     0
281
     0
  0
CLASS
  1
ACMANOOTATIONVIEWSTANDARDJIS
  2
AmdtAnViewStdJIS
  3
"Amdt_StdImp|Product Description: AutoCAD Mechanical|Company: Autodesk, Inc."
 90
     1024
280
     0
281
     0
  0
CLASS
  1
AMDTEDGESTANDARDJIS
  2
AmdtEdgeStdJIS
  3
"Amdt_StdImp|Product Description: AutoCAD Mechanical|Company: Autodesk, Inc."
 90
     1024
280
     0
281
     0
  0
CLASS
  1
ACMANOOTATIONVIEWSTANDARDANSI
  2
AmdtAnViewStdANSI
  3
"Amdt_StdImp|Product Description: AutoCAD Mechanical|Company: Autodesk, Inc."
 90
     1024
280
     0
281
     0
  0
CLASS
  1
ACMANOOTATIONVIEWSTANDARDISO
  2
AmdtAnViewStdISO
  3
"Amdt_StdImp|Product Description: AutoCAD Mechanical|Company: Autodesk, Inc."
 90
     1024
280
     0
281
     0
  0
CLASS
  1
CELLSTYLEMAP
  2
AcDbCellStyleMap
  3
ObjectDBX Classes
 90
     1152
280
     0
281
     0
  0
ENDSEC
  0
SECTION
  2
TABLES
  0
TABLE
  2
VPORT
  5
8
102
{ACAD_XDICTIONARY
360
F91
102
}
330
0
100
AcDbSymbolTable
 70
     1
  0
VPORT
  5
15EF
330
8
100
AcDbSymbolTableRecord
100
AcDbViewportTableRecord
  2
*Active
 70
     0
 10
0.0
 20
0.0
 11
1.0
 21
1.0
 12
874.674124469654
 22
458.8504448206251
 13
0.0
 23
0.0
 14
1.25
 24
1.25
 15
5.0
 25
5.0
 16
0.0
 26
0.0
 36
1.0
 17
0.0
 27
0.0
 37
0.0
 40
77.11361773100009
 41
2.070938215102974
 42
50.0
 43
0.0
 44
0.0
 50
0.0
 51
0.0
 71
    16
 72
   100
 73
     1
 74
     3
 75
     0
 76
     0
 77
     0
 78
     0
281
     0
 65
     1
110
0.0
120
0.0
130
0.0
111
1.0
121
0.0
131
0.0
112
0.0
122
1.0
132
0.0
 79
     0
146
0.0
  0
ENDTAB
  0
TABLE
  2
LTYPE
  5
5
330
0
100
AcDbSymbolTable
 70
    22
  0
LTYPE
  5
14
330
5
100
AcDbSymbolTableRecord
100
AcDbLinetypeTableRecord
  2
ByBlock
 70
     0
  3

 72
    65
 73
     0
 40
0.0
  0
LTYPE
  5
15
330
5
100
AcDbSymbolTableRecord
100
AcDbLinetypeTableRecord
  2
ByLayer
 70
     0
  3

 72
    65
 73
     0
 40
0.0
  0
LTYPE
  5
16
330
5
100
AcDbSymbolTableRecord
100
AcDbLinetypeTableRecord
  2
Continuous
 70
     0
  3
Solid line
 72
    65
 73
     0
 40
0.0
  0
LTYPE
  5
6C
330
5
100
AcDbSymbolTableRecord
100
AcDbLinetypeTableRecord
  2
AM_ISO02W050
 70
     0
  3
__ __ __ __ __ __ __ __ __ __ __ __ __ __ __
 72
    65
 73
     2
 40
7.5
 49
6.0
 74
     0
 49
-1.5
 74
     0
  0
LTYPE
  5
6D
330
5
100
AcDbSymbolTableRecord
100
AcDbLinetypeTableRecord
  2
AM_ISO08W050
 70
     0
  3
____ . ____ . ____ . ____ . ____ . ____ . ____
 72
    65
 73
     4
 40
18.0
 49
12.0
 74
     0
 49
-1.5
 74
     0
 49
3.0
 74
     0
 49
-1.5
 74
     0
  0
LTYPE
  5
6E
330
5
100
AcDbSymbolTableRecord
100
AcDbLinetypeTableRecord
  2
AM_ISO09W050
 70
     0
  3
_____ . . _____ . . _____ . . ____ .. ____
 72
    65
 73
     6
 40
22.5
 49
12.0
 74
     0
 49
-1.5
 74
     0
 49
3.0
 74
     0
 49
-1.5
 74
     0
 49
3.0
 74
     0
 49
-1.5
 74
     0
  0
LTYPE
  5
6F
330
5
100
AcDbSymbolTableRecord
100
AcDbLinetypeTableRecord
  2
Amconstr
 70
     0
  3
_______________________
 72
    65
 73
     2
 40
9999.0
 49
9999.0
 74
     0
 49
0.0
 74
     0
  0
LTYPE
  5
70
330
5
100
AcDbSymbolTableRecord
100
AcDbLinetypeTableRecord
  2
AM_ISO08W050x2
 70
     0
  3
__ . __ . __ . __ . __ . __
 72
    65
 73
     4
 40
9.0
 49
6.0
 74
     0
 49
-0.75
 74
     0
 49
1.5
 74
     0
 49
-0.75
 74
     0
  0
LTYPE
  5
71
330
5
100
AcDbSymbolTableRecord
100
AcDbLinetypeTableRecord
  2
AM_ISO02W050x2
 70
     0
  3
 _ _ _ _ _ _ _ _ _ _ _ _
 72
    65
 73
     2
 40
3.75
 49
3.0
 74
     0
 49
-0.75
 74
     0
  0
LTYPE
  5
74
330
5
100
AcDbSymbolTableRecord
100
AcDbLinetypeTableRecord
  2
Amzigzag
 70
     0
  3
/\/-/\/-/\/-/\/-/\/-/\/
 72
    65
 73
     2
 40
11.0001
 49
0.0001
 74
     4
 75
   135
340
73
 46
0.04
 50
0.0
 44
0.0
 45
0.0
 49
-11.0
 74
     0
  0
LTYPE
  5
75
330
5
100
AcDbSymbolTableRecord
100
AcDbLinetypeTableRecord
  2
HIDDEN
 70
     0
  3
Hidden __ __ __ __ __ __ __ __ __ __ __ __ __ _
 72
    65
 73
     2
 40
0.375
 49
0.25
 74
     0
 49
-0.125
 74
     0
  0
LTYPE
  5
76
330
5
100
AcDbSymbolTableRecord
100
AcDbLinetypeTableRecord
  2
CENTER
 70
     0
  3
Center ____ _ ____ _ ____ _ ____ _ ____ _ ____
 72
    65
 73
     4
 40
2.0
 49
1.25
 74
     0
 49
-0.25
 74
     0
 49
0.25
 74
     0
 49
-0.25
 74
     0
  0
LTYPE
  5
77
330
5
100
AcDbSymbolTableRecord
100
AcDbLinetypeTableRecord
  2
PHANTOM2
 70
     0
  3
Phantom (.5x) ___ _ _ ___ _ _ ___ _ _ ___ _ _
 72
    65
 73
     6
 40
1.25
 49
0.625
 74
     0
 49
-0.125
 74
     0
 49
0.125
 74
     0
 49
-0.125
 74
     0
 49
0.125
 74
     0
 49
-0.125
 74
     0
  0
LTYPE
  5
78
330
5
100
AcDbSymbolTableRecord
100
AcDbLinetypeTableRecord
  2
CENTER2
 70
     0
  3
Center (.5x) ___ _ ___ _ ___ _ ___ _ ___ _ ___
 72
    65
 73
     4
 40
1.125
 49
0.75
 74
     0
 49
-0.125
 74
     0
 49
0.125
 74
     0
 49
-0.125
 74
     0
  0
LTYPE
  5
79
330
5
100
AcDbSymbolTableRecord
100
AcDbLinetypeTableRecord
  2
HIDDEN2
 70
     0
  3
Hidden (.5x) _ _ _ _ _ _ _ _ _ _ _ _ _ _ _ _ _
 72
    65
 73
     2
 40
0.1875
 49
0.125
 74
     0
 49
-0.0625
 74
     0
  0
LTYPE
  5
7A
330
5
100
AcDbSymbolTableRecord
100
AcDbLinetypeTableRecord
  2
Amzigzag2
 70
     0
  3
/\/-/\/-/\/-/\/-/\/-/\/
 72
    65
 73
     2
 40
0.4401
 49
0.0001
 74
     4
 75
   135
340
73
 46
0.0016
 50
0.0
 44
0.0
 45
0.0
 49
-0.4400000000000001
 74
     0
  0
LTYPE
  5
87
330
5
100
AcDbSymbolTableRecord
100
AcDbLinetypeTableRecord
  2
ACANSTGB
 70
     0
  3
__ . . __ . .
 72
    65
 73
     6
 40
0.35433070866
 49
0.15748031496
 74
     0
 49
-0.03937007874
 74
     0
 49
0.03937007874
 74
     0
 49
-0.03937007874
 74
     0
 49
0.03937007874
 74
     0
 49
-0.03937007874
 74
     0
  0
LTYPE
  5
88
330
5
100
AcDbSymbolTableRecord
100
AcDbLinetypeTableRecord
  2
ACANSTGL
 70
     0
  3
_ _ _ _ _
 72
    65
 73
     2
 40
0.11811023622
 49
0.07874015748
 74
     0
 49
-0.03937007874
 74
     0
  0
LTYPE
  5
C2
330
5
100
AcDbSymbolTableRecord
100
AcDbLinetypeTableRecord
  2
ACJISTGB
 70
     0
  3
__ . . __ . .
 72
    65
 73
     6
 40
9.0
 49
4.0
 74
     0
 49
-1.0
 74
     0
 49
1.0
 74
     0
 49
-1.0
 74
     0
 49
1.0
 74
     0
 49
-1.0
 74
     0
  0
LTYPE
  5
C3
330
5
100
AcDbSymbolTableRecord
100
AcDbLinetypeTableRecord
  2
ACJISTGL
 70
     0
  3
_ _ _ _ _
 72
    65
 73
     2
 40
3.0
 49
2.0
 74
     0
 49
-1.0
 74
     0
  0
LTYPE
  5
2E9
330
5
100
AcDbSymbolTableRecord
100
AcDbLinetypeTableRecord
  2
ACISOWELD
 70
     0
  3
_ _ _ _ _
 72
    65
 73
     2
 40
2.0
 49
2.0
 74
     0
 49
-1.0
 74
     0
  0
LTYPE
  5
2EA
330
5
100
AcDbSymbolTableRecord
100
AcDbLinetypeTableRecord
  2
ACISOTGB
 70
     0
  3
__ . . __ . .
 72
    65
 73
     6
 40
9.0
 49
4.0
 74
     0
 49
-1.0
 74
     0
 49
1.0
 74
     0
 49
-1.0
 74
     0
 49
1.0
 74
     0
 49
-1.0
 74
     0
  0
LTYPE
  5
2EB
330
5
100
AcDbSymbolTableRecord
100
AcDbLinetypeTableRecord
  2
ACISOTGL
 70
     0
  3
_ _ _ _ _
 72
    65
 73
     2
 40
3.0
 49
2.0
 74
     0
 49
-1.0
 74
     0
  0
ENDTAB
  0
TABLE
  2
LAYER
  5
2
102
{ACAD_XDICTIONARY
360
179
102
}
330
0
100
AcDbSymbolTable
 70
    16
  0
LAYER
  5
10
102
{ACAD_XDICTIONARY
360
18E6
102
}
330
2
100
AcDbSymbolTableRecord
100
AcDbLayerTableRecord
  2
0
 70
     0
 62
     7
  6
Continuous
370
    -3
390
F
  0
LAYER
  5
10D
102
{ACAD_XDICTIONARY
360
18E8
102
}
330
2
100
AcDbSymbolTableRecord
100
AcDbLayerTableRecord
  2
AM_0
 70
     0
 62
     7
  6
Continuous
370
    50
390
F
  0
LAYER
  5
170
102
{ACAD_XDICTIONARY
360
18EA
102
}
330
2
100
AcDbSymbolTableRecord
100
AcDbLayerTableRecord
  2
AM_5
 70
     0
 62
     3
  6
Continuous
370
    25
390
F
  0
LAYER
  5
2EC
102
{ACAD_XDICTIONARY
360
18EC
102
}
330
2
100
AcDbSymbolTableRecord
100
AcDbLayerTableRecord
  2
AM_7
 70
     0
 62
     4
  6
AM_ISO08W050
370
    25
390
F
  0
LAYER
  5
2EF
330
2
100
AcDbSymbolTableRecord
100
AcDbLayerTableRecord
  2
Defpoints
 70
     0
 62
     7
  6
Continuous
290
     0
370
    -3
390
F
  0
LAYER
  5
2F2
102
{ACAD_XDICTIONARY
360
18EE
102
}
330
2
100
AcDbSymbolTableRecord
100
AcDbLayerTableRecord
  2
AM_8
 70
     0
 62
     1
  6
Continuous
370
    25
390
F
  0
LAYER
  5
2F5
102
{ACAD_XDICTIONARY
360
18F0
102
}
330
2
100
AcDbSymbolTableRecord
100
AcDbLayerTableRecord
  2
AM_4
 70
     0
 62
     3
  6
Continuous
370
    25
390
F
  0
LAYER
  5
2F8
102
{ACAD_XDICTIONARY
360
18F2
102
}
330
2
100
AcDbSymbolTableRecord
100
AcDbLayerTableRecord
  2
AM_11
 70
     0
 62
     3
  6
AM_ISO09W050
370
    25
390
F
  0
LAYER
  5
2FB
102
{ACAD_XDICTIONARY
360
18F4
102
}
330
2
100
AcDbSymbolTableRecord
100
AcDbLayerTableRecord
  2
AM_0N
 70
     0
 62
     7
  6
Continuous
370
    50
390
F
  0
LAYER
  5
2FE
102
{ACAD_XDICTIONARY
360
18F6
102
}
330
2
100
AcDbSymbolTableRecord
100
AcDbLayerTableRecord
  2
AM_7N
 70
     0
 62
     4
  6
AM_ISO08W050
370
    25
390
F
  0
LAYER
  5
301
102
{ACAD_XDICTIONARY
360
18F8
102
}
330
2
100
AcDbSymbolTableRecord
100
AcDbLayerTableRecord
  2
AM_3N
 70
     0
 62
     6
  6
AM_ISO02W050
370
    25
390
F
  0
LAYER
  5
304
102
{ACAD_XDICTIONARY
360
18FA
102
}
330
2
100
AcDbSymbolTableRecord
100
AcDbLayerTableRecord
  2
AM_12
 70
     0
 62
     7
  6
Continuous
290
     0
370
    50
390
F
  0
LAYER
  5
307
102
{ACAD_XDICTIONARY
360
18FC
102
}
330
2
100
AcDbSymbolTableRecord
100
AcDbLayerTableRecord
  2
AM_12N
 70
     0
 62
     7
  6
Continuous
290
     0
370
    50
390
F
  0
LAYER
  5
8A4
102
{ACAD_XDICTIONARY
360
18FE
102
}
330
2
100
AcDbSymbolTableRecord
100
AcDbLayerTableRecord
  2
AM_CL
 70
     0
 62
     1
  6
Amconstr
370
    25
390
F
  0
LAYER
  5
B6A
102
{ACAD_XDICTIONARY
360
1900
102
}
330
2
100
AcDbSymbolTableRecord
100
AcDbLayerTableRecord
  2
AM_PAREF
 70
     0
 62
     4
  6
Continuous
290
     0
370
    25
390
F
  0
LAYER
  5
CE3
102
{ACAD_XDICTIONARY
360
1902
102
}
330
2
100
AcDbSymbolTableRecord
100
AcDbLayerTableRecord
  2
AM_BOR
 70
     0
 62
     7
  6
Continuous
370
    50
390
F
  0
ENDTAB
  0
TABLE
  2
STYLE
  5
3
330
0
100
AcDbSymbolTable
 70
    12
  0
STYLE
  5
11
330
3
100
AcDbSymbolTableRecord
100
AcDbTextStyleTableRecord
  2
STANDARD
 70
     0
 40
0.0
 41
1.0
 50
0.0
 71
     0
 42
1.6
  3
ISOCP.SHX
  4
EXTFONT.SHX
  0
STYLE
  5
73
330
3
100
AcDbSymbolTableRecord
100
AcDbTextStyleTableRecord
  2

 70
     1
 40
0.0
 41
1.0
 50
0.0
 71
     0
 42
0.2
  3
ltypeshp.shx
  4

  0
STYLE
  5
7B
330
3
100
AcDbSymbolTableRecord
100
AcDbTextStyleTableRecord
  2
ACANSTS
 70
     0
 40
1.0
 41
1.0
 50
0.0
 71
     0
 42
0.2
  3
romans.shx
  4

  0
STYLE
  5
86
330
3
100
AcDbSymbolTableRecord
100
AcDbTextStyleTableRecord
  2
ACANSGDT
 70
     0
 40
0.0
 41
1.0
 50
0.0
 71
     0
 42
0.2
  3
amgdtans.shx
  4

  0
STYLE
  5
AF
330
3
100
AcDbSymbolTableRecord
100
AcDbTextStyleTableRecord
  2
USER1
 70
     0
 40
0.0
 41
1.0
 50
0.0
 71
     0
 42
0.2
  3
TXT.SHX
  4

  0
STYLE
  5
B0
330
3
100
AcDbSymbolTableRecord
100
AcDbTextStyleTableRecord
  2
USER2
 70
     0
 40
0.0
 41
1.0
 50
0.0
 71
     0
 42
0.2
  3
SIMPLEX.SHX
  4

  0
STYLE
  5
B1
330
3
100
AcDbSymbolTableRecord
100
AcDbTextStyleTableRecord
  2
USER3
 70
     0
 40
0.0
 41
1.0
 50
0.0
 71
     0
 42
0.2
  3
ITALIC.SHX
  4

  0
STYLE
  5
B6
330
3
100
AcDbSymbolTableRecord
100
AcDbTextStyleTableRecord
  2
ACJISTS
 70
     0
 40
1.0
 41
1.0
 50
0.0
 71
     0
 42
0.2
  3
isocp.shx
  4
extfont.shx
  0
STYLE
  5
C1
330
3
100
AcDbSymbolTableRecord
100
AcDbTextStyleTableRecord
  2
ACJISGDT
 70
     0
 40
0.0
 41
1.0
 50
0.0
 71
     0
 42
0.2
  3
amgdt.shx
  4

  0
STYLE
  5
30A
330
3
100
AcDbSymbolTableRecord
100
AcDbTextStyleTableRecord
  2
ACISOTS
 70
     0
 40
1.0
 41
1.0
 50
0.0
 71
     0
 42
3.0
  3
isocp.shx
  4
extfont.shx
  0
STYLE
  5
30B
330
3
100
AcDbSymbolTableRecord
100
AcDbTextStyleTableRecord
  2
ACISOGDT
 70
     0
 40
0.0
 41
1.0
 50
0.0
 71
     0
 42
3.0
  3
amgdt.shx
  4

  0
STYLE
  5
D11
330
3
100
AcDbSymbolTableRecord
100
AcDbTextStyleTableRecord
  2
ｽﾀｲﾙ1
 70
     0
 40
0.0
 41
1.0
 50
0.0
 71
     0
 42
44.62462130138407
  3

  4

1001
ACAD
1000
HGPSoeiKakugothicUB
1071
    32818
  0
ENDTAB
  0
TABLE
  2
VIEW
  5
6
330
0
100
AcDbSymbolTable
 70
     6
  0
VIEW
  5
D60
330
6
100
AcDbSymbolTableRecord
100
AcDbViewTableRecord
  2
AM_VIEW1
 70
     0
 40
74.25
 10
841.8390895138696
 20
514.0009190441959
 41
113.5865019011407
 11
0.0
 21
0.0
 31
1.0
 12
0.0
 22
0.0
 32
0.0
 42
50.0
 43
0.0
 44
0.0
 50
0.0
 71
    16
281
     0
 72
     0
  0
VIEW
  5
D61
330
6
100
AcDbSymbolTableRecord
100
AcDbViewTableRecord
  2
AM_VIEW2
 70
     0
 40
74.25
 10
938.2740161841574
 20
514.0009190441959
 41
113.5865019011407
 11
0.0
 21
0.0
 31
1.0
 12
0.0
 22
0.0
 32
0.0
 42
50.0
 43
0.0
 44
0.0
 50
0.0
 71
    16
281
     0
 72
     0
  0
VIEW
  5
D62
330
6
100
AcDbSymbolTableRecord
100
AcDbViewTableRecord
  2
AM_VIEW3
 70
     0
 40
74.25000000000006
 10
841.8390895138696
 20
439.7509190441959
 41
113.5865019011407
 11
0.0
 21
0.0
 31
1.0
 12
0.0
 22
0.0
 32
0.0
 42
50.0
 43
0.0
 44
0.0
 50
0.0
 71
    16
281
     0
 72
     0
  0
VIEW
  5
D63
330
6
100
AcDbSymbolTableRecord
100
AcDbViewTableRecord
  2
AM_VIEW4
 70
     0
 40
74.25000000000006
 10
938.2740161841574
 20
439.7509190441959
 41
113.5865019011407
 11
0.0
 21
0.0
 31
1.0
 12
0.0
 22
0.0
 32
0.0
 42
50.0
 43
0.0
 44
0.0
 50
0.0
 71
    16
281
     0
 72
     0
  0
VIEW
  5
D64
330
6
100
AcDbSymbolTableRecord
100
AcDbViewTableRecord
  2
AM_VIEW5
 70
     0
 40
74.25
 10
890.0565528490135
 20
476.8759190441959
 41
113.5865019011407
 11
0.0
 21
0.0
 31
1.0
 12
0.0
 22
0.0
 32
0.0
 42
50.0
 43
0.0
 44
0.0
 50
0.0
 71
    16
281
     0
 72
     0
  0
VIEW
  5
D65
330
6
100
AcDbSymbolTableRecord
100
AcDbViewTableRecord
  2
AM_VIEW6
 70
     0
 40
148.498515
 10
890.0565528490135
 20
476.8759190441959
 41
227.1707320722435
 11
0.0
 21
0.0
 31
1.0
 12
0.0
 22
0.0
 32
0.0
 42
50.0
 43
0.0
 44
0.0
 50
0.0
 71
    16
281
     0
 72
     0
  0
ENDTAB
  0
TABLE
  2
UCS
  5
7
330
0
100
AcDbSymbolTable
 70
     0
  0
ENDTAB
  0
TABLE
  2
APPID
  5
9
330
0
100
AcDbSymbolTable
 70
    36
  0
APPID
  5
12
330
9
100
AcDbSymbolTableRecord
100
AcDbRegAppTableRecord
  2
ACAD
 70
     0
  0
APPID
  5
4E
330
9
100
AcDbSymbolTableRecord
100
AcDbRegAppTableRecord
  2
MCAD_NO_VIS
 70
     0
  0
APPID
  5
4F
330
9
100
AcDbSymbolTableRecord
100
AcDbRegAppTableRecord
  2
ACAD_TEMP_GRAPHIC
 70
     0
  0
APPID
  5
60
330
9
100
AcDbSymbolTableRecord
100
AcDbRegAppTableRecord
  2
ACATTRIBSERVICES
 70
     0
  0
APPID
  5
145
330
9
100
AcDbSymbolTableRecord
100
AcDbRegAppTableRecord
  2
AD_DRAW
 70
     0
  0
APPID
  5
163
330
9
100
AcDbSymbolTableRecord
100
AcDbRegAppTableRecord
  2
DESIGNERASSEMBLIES
 70
     0
  0
APPID
  5
169
330
9
100
AcDbSymbolTableRecord
100
AcDbRegAppTableRecord
  2
ACADM_DIM_EDIT
 70
     0
  0
APPID
  5
16A
330
9
100
AcDbSymbolTableRecord
100
AcDbRegAppTableRecord
  2
AMDT_DM_ADJ
 70
     0
  0
APPID
  5
314
330
9
100
AcDbSymbolTableRecord
100
AcDbRegAppTableRecord
  2
GENIUS_GENODEF_13
 70
     0
  0
APPID
  5
315
330
9
100
AcDbSymbolTableRecord
100
AcDbRegAppTableRecord
  2
GENIUS_GENOBJ-N-CEN_13
 70
     0
  0
APPID
  5
316
330
9
100
AcDbSymbolTableRecord
100
AcDbRegAppTableRecord
  2
GENIUS_GENOENT_13
 70
     0
  0
APPID
  5
317
330
9
100
AcDbSymbolTableRecord
100
AcDbRegAppTableRecord
  2
GENIUS_GENOREF_13
 70
     0
  0
APPID
  5
318
330
9
100
AcDbSymbolTableRecord
100
AcDbRegAppTableRecord
  2
GENIUS_GENOLIS_13
 70
     0
  0
APPID
  5
319
330
9
100
AcDbSymbolTableRecord
100
AcDbRegAppTableRecord
  2
GENIUS_GENOBJ-N-FIL_13
 70
     0
  0
APPID
  5
31A
330
9
100
AcDbSymbolTableRecord
100
AcDbRegAppTableRecord
  2
GENIUS_GENDTOL_13
 70
     0
  0
APPID
  5
31B
330
9
100
AcDbSymbolTableRecord
100
AcDbRegAppTableRecord
  2
GENIUS_GEFSH_13
 70
     0
  0
APPID
  5
31C
330
9
100
AcDbSymbolTableRecord
100
AcDbRegAppTableRecord
  2
GENIUS_GENOBJ-F-SHS_13
 70
     0
  0
APPID
  5
31D
330
9
100
AcDbSymbolTableRecord
100
AcDbRegAppTableRecord
  2
GENIUS_GENOBJ-N-HTC_13
 70
     0
  0
APPID
  5
31E
330
9
100
AcDbSymbolTableRecord
100
AcDbRegAppTableRecord
  2
GENIUS_GENHATCH_13
 70
     0
  0
APPID
  5
31F
330
9
100
AcDbSymbolTableRecord
100
AcDbRegAppTableRecord
  2
GENIUS_GENFIL_13
 70
     0
  0
APPID
  5
320
330
9
100
AcDbSymbolTableRecord
100
AcDbRegAppTableRecord
  2
GENIUS_GENOBJ-N-CHA_13
 70
     0
  0
APPID
  5
321
330
9
100
AcDbSymbolTableRecord
100
AcDbRegAppTableRecord
  2
GENIUS_GENBH_13
 70
     0
  0
APPID
  5
322
330
9
100
AcDbSymbolTableRecord
100
AcDbRegAppTableRecord
  2
GENIUS_GENOBJ-NBEHI-BHF_13
 70
     0
  0
APPID
  5
323
330
9
100
AcDbSymbolTableRecord
100
AcDbRegAppTableRecord
  2
ACAD_PSEXT
 70
     0
  0
APPID
  5
898
330
9
100
AcDbSymbolTableRecord
100
AcDbRegAppTableRecord
  2
GENIUS_GENDIMSH_14
 70
     0
  0
APPID
  5
CE4
330
9
100
AcDbSymbolTableRecord
100
AcDbRegAppTableRecord
  2
GENIUS_GENREC_14
 70
     0
  0
APPID
  5
CE5
330
9
100
AcDbSymbolTableRecord
100
AcDbRegAppTableRecord
  2
GENIUS_GENOBJ-N-REC_13
 70
     0
  0
APPID
  5
D5E
330
9
100
AcDbSymbolTableRecord
100
AcDbRegAppTableRecord
  2
GENIUS_GENOBJ-N-TIT_13
 70
     0
  0
APPID
  5
D5F
330
9
100
AcDbSymbolTableRecord
100
AcDbRegAppTableRecord
  2
GENIUS_GENTITLE_13
 70
     0
  0
APPID
  5
D66
330
9
100
AcDbSymbolTableRecord
100
AcDbRegAppTableRecord
  2
GENIUS_GENSCREG_15
 70
     0
  0
APPID
  5
D67
330
9
100
AcDbSymbolTableRecord
100
AcDbRegAppTableRecord
  2
GENIUS_GENOBJ-N-SDF_13
 70
     0
  0
APPID
  5
1120
330
9
100
AcDbSymbolTableRecord
100
AcDbRegAppTableRecord
  2
GENIUS_GENCEN_19
 70
     0
  0
APPID
  5
11B7
330
9
100
AcDbSymbolTableRecord
100
AcDbRegAppTableRecord
  2
ACAD_EXEMPT_FROM_CAD_STANDARDS
 70
     0
  0
APPID
  5
17CB
330
9
100
AcDbSymbolTableRecord
100
AcDbRegAppTableRecord
  2
ACAD_DSTYLE_DIMBREAK
 70
     0
  0
APPID
  5
17CC
330
9
100
AcDbSymbolTableRecord
100
AcDbRegAppTableRecord
  2
ACAD_DSTYLE_DIMJAG
 70
     0
  0
APPID
  5
1958
330
9
100
AcDbSymbolTableRecord
100
AcDbRegAppTableRecord
  2
ACAD_MLEADERVER
 70
     0
  0
ENDTAB
  0
TABLE
  2
DIMSTYLE
  5
A
330
0
100
AcDbSymbolTable
 70
    24
100
AcDbDimStyleTable
 71
     2
340
C8
340
8C
  0
DIMSTYLE
105
27
330
A
100
AcDbSymbolTableRecord
100
AcDbDimStyleTableRecord
  2
Standard
 70
     0
340
11
  0
DIMSTYLE
105
8C
330
A
100
AcDbSymbolTableRecord
100
AcDbDimStyleTableRecord
  2
AM_ANSI
 70
     0
  4
mm
 40
0.5
 41
0.1
 42
0.05
 43
0.5
 44
0.1
 47
0.1
 48
0.1
 78
     7
 79
     2
140
0.12
141
0.0
146
0.71
147
0.06
176
   256
177
   256
178
     2
274
     4
284
     7
340
11
371
    -1
372
    -1
  0
DIMSTYLE
105
8D
330
A
100
AcDbSymbolTableRecord
100
AcDbDimStyleTableRecord
  2
AM_ANSI$3
 70
     0
  4
mm
 40
0.5
 41
0.1
 42
0.05
 43
0.5
 44
0.1
 47
0.1
 48
0.1
 78
     7
 79
     2
140
0.12
141
0.0
146
0.71
147
0.06
176
   256
177
   256
178
     2
274
     4
284
     7
288
     1
289
     0
340
11
371
    -1
372
    -1
  0
DIMSTYLE
105
8E
330
A
100
AcDbSymbolTableRecord
100
AcDbDimStyleTableRecord
  2
AM_ANSI$4
 70
     0
  4
mm
 40
0.5
 41
0.1
 42
0.05
 43
0.5
 44
0.1
 47
0.1
 48
0.1
 78
     7
 79
     2
140
0.12
141
0.0
146
0.71
147
0.06
176
   256
177
   256
178
     2
274
     4
284
     7
288
     1
289
     0
340
11
371
    -1
372
    -1
  0
DIMSTYLE
105
8F
330
A
100
AcDbSymbolTableRecord
100
AcDbDimStyleTableRecord
  2
AM_ANSI$7
 70
     0
  4
mm
 40
0.5
 41
0.1
 42
0.05
 43
0.5
 44
0.1
 47
0.1
 48
0.1
 78
     7
 79
     2
140
0.24
141
0.0
146
0.71
147
0.06
176
   256
177
   256
178
     2
274
     4
284
     7
340
11
371
    -1
372
    -1
  0
DIMSTYLE
105
90
330
A
100
AcDbSymbolTableRecord
100
AcDbDimStyleTableRecord
  2
AM_ANSI$SF
 70
     0
  4
mm
 40
0.5
 41
0.1
 42
0.05
 43
0.5
 44
0.1
 47
0.1
 48
0.1
 75
     1
 76
     1
 78
     7
 79
     2
140
0.12
141
0.0
146
0.71
147
0.06
176
   256
177
   256
178
     2
274
     4
284
     7
340
11
371
    -1
372
    -1
  0
DIMSTYLE
105
95
330
A
100
AcDbSymbolTableRecord
100
AcDbDimStyleTableRecord
  2
AM_ANSI$SH
 70
     0
  4
mm
 40
0.5
 41
0.1
 42
0.05
 43
0.5
 44
0.1
 47
0.1
 48
0.1
 75
     1
 76
     1
 78
     7
 79
     2
140
0.12
141
0.0
146
0.71
147
0.06
173
     1
176
   256
177
   256
178
     2
274
     4
284
     7
340
11
343
91
371
    -1
372
    -1
  0
DIMSTYLE
105
C8
330
A
100
AcDbSymbolTableRecord
100
AcDbDimStyleTableRecord
  2
AM_JIS
 70
     0
  4
"
 40
0.5
 41
2.5
 42
1.0
 43
10.0
 44
1.0
 47
0.1
 48
0.1
 73
     0
 74
     0
 77
     3
 78
     8
 79
     2
140
3.5
141
0.0
143
0.0393701
146
0.71
147
1.5
172
     1
176
   256
177
   256
178
     2
271
     2
272
     3
274
     4
283
     0
284
     8
340
11
341
C9
342
C9
343
C9
344
C9
371
    -1
372
    -1
  0
DIMSTYLE
105
CF
330
A
100
AcDbSymbolTableRecord
100
AcDbDimStyleTableRecord
  2
AM_JIS$3
 70
     0
  4
"
 40
0.5
 41
2.5
 42
1.0
 43
10.0
 44
1.0
 47
0.1
 48
0.1
 73
     0
 77
     3
 78
     8
 79
     2
140
3.5
141
0.0
143
0.0393701
146
0.71
147
1.5
176
   256
177
   256
178
     2
271
     2
272
     3
274
     4
283
     0
284
     8
288
     1
289
     0
340
11
341
C9
342
C9
343
C9
344
C9
371
    -1
372
    -1
  0
DIMSTYLE
105
D0
330
A
100
AcDbSymbolTableRecord
100
AcDbDimStyleTableRecord
  2
AM_JIS$4
 70
     0
  4
"
 40
0.5
 41
2.5
 42
1.0
 43
10.0
 44
1.0
 47
0.1
 48
0.1
 73
     0
 77
     3
 78
     8
 79
     2
140
3.5
141
0.0
143
0.0393701
146
0.71
147
1.5
176
   256
177
   256
178
     2
271
     2
272
     3
274
     4
283
     0
284
     8
288
     1
289
     0
340
11
341
C9
342
C9
343
C9
344
C9
371
    -1
372
    -1
  0
DIMSTYLE
105
D1
330
A
100
AcDbSymbolTableRecord
100
AcDbDimStyleTableRecord
  2
AM_JIS$6
 70
     0
  4
"
 40
0.5
 41
2.5
 42
1.0
 43
10.0
 44
1.0
 47
0.1
 48
0.1
 73
     0
 74
     0
 78
     8
 79
     2
140
3.5
141
0.0
143
0.0393701
146
0.71
147
1.5
172
     1
176
   256
177
   256
178
     2
271
     2
272
     3
274
     4
283
     0
284
     8
340
11
341
C9
342
C9
343
C9
344
C9
371
    -1
372
    -1
  0
DIMSTYLE
105
D2
330
A
100
AcDbSymbolTableRecord
100
AcDbDimStyleTableRecord
  2
AM_JIS$7
 70
     0
  4
"
 40
0.5
 41
2.5
 42
1.0
 43
10.0
 44
1.0
 47
0.1
 48
0.1
 73
     0
 74
     0
 77
     3
 78
     8
 79
     2
140
5.0
141
0.0
143
0.0393701
146
0.71
147
1.5
172
     1
176
   256
177
   256
178
     2
271
     2
272
     3
274
     4
283
     0
284
     8
340
11
341
C9
342
C9
343
C9
344
C9
371
    -1
372
    -1
  0
DIMSTYLE
105
D3
330
A
100
AcDbSymbolTableRecord
100
AcDbDimStyleTableRecord
  2
AM_JIS$SF
 70
     0
  4
"
 40
0.5
 41
2.5
 42
1.0
 43
10.0
 44
1.0
 47
0.1
 48
0.1
 73
     0
 74
     0
 75
     1
 76
     1
 77
     3
 78
     8
 79
     2
140
3.5
141
0.0
143
0.0393701
146
0.71
147
1.5
172
     1
176
   256
177
   256
178
     2
271
     2
272
     3
274
     4
283
     0
284
     8
340
11
341
C9
342
C9
343
C9
344
C9
371
    -1
372
    -1
  0
DIMSTYLE
105
D4
330
A
100
AcDbSymbolTableRecord
100
AcDbDimStyleTableRecord
  2
AM_JIS$SH
 70
     0
  4
"
 40
0.5
 41
2.5
 42
1.0
 43
10.0
 44
1.0
 47
0.1
 48
0.1
 73
     0
 74
     0
 75
     1
 76
     1
 77
     3
 78
     8
 79
     2
140
3.5
141
0.0
143
0.0393701
144
2.0
146
0.71
147
1.5
172
     1
173
     1
176
   256
177
   256
178
     2
271
     2
272
     3
274
     4
283
     0
284
     8
340
11
341
C9
342
C9
343
91
344
C9
371
    -1
372
    -1
  0
DIMSTYLE
105
30C
330
A
100
AcDbSymbolTableRecord
100
AcDbDimStyleTableRecord
  2
ISO-25
 70
     0
 41
2.5
 42
0.625
 43
3.75
 44
1.25
 73
     0
 74
     0
 77
     1
 78
     8
140
2.5
141
2.5
143
0.03937007874016
147
0.625
171
     3
172
     1
271
     2
272
     2
274
     3
283
     0
284
     8
340
11
  0
DIMSTYLE
105
30D
330
A
100
AcDbSymbolTableRecord
100
AcDbDimStyleTableRecord
  2
AM_ISO
 70
     0
  4
"
 41
2.5
 42
1.0
 43
10.0
 44
1.0
 47
0.1
 48
0.1
 73
     0
 74
     0
 77
     1
 78
     8
 79
     2
140
3.5
141
0.0
143
0.0393701
146
0.71
147
1.5
172
     1
176
   256
177
   256
178
     2
271
     2
272
     3
274
     4
283
     0
284
     8
340
11
371
    -1
372
    -1
  0
DIMSTYLE
105
30E
330
A
100
AcDbSymbolTableRecord
100
AcDbDimStyleTableRecord
  2
AM_ISO$3
 70
     0
  4
"
 41
2.5
 42
1.0
 43
10.0
 44
1.0
 47
0.1
 48
0.1
 73
     0
 77
     1
 78
     8
 79
     2
140
3.5
141
0.0
143
0.0393701
146
0.71
147
1.5
176
   256
177
   256
178
     2
271
     2
272
     3
274
     4
283
     0
284
     8
288
     1
289
     0
340
11
371
    -1
372
    -1
  0
DIMSTYLE
105
30F
330
A
100
AcDbSymbolTableRecord
100
AcDbDimStyleTableRecord
  2
AM_ISO$4
 70
     0
  4
"
 41
2.5
 42
1.0
 43
10.0
 44
1.0
 47
0.1
 48
0.1
 73
     0
 77
     1
 78
     8
 79
     2
140
3.5
141
0.0
143
0.0393701
146
0.71
147
1.5
176
   256
177
   256
178
     2
271
     2
272
     3
274
     4
283
     0
284
     8
288
     1
289
     0
340
11
371
    -1
372
    -1
  0
DIMSTYLE
105
310
330
A
100
AcDbSymbolTableRecord
100
AcDbDimStyleTableRecord
  2
AM_ISO$6
 70
     0
  4
"
 41
2.5
 42
1.0
 43
10.0
 44
1.0
 47
0.1
 48
0.1
 73
     0
 74
     0
 78
     8
 79
     2
140
3.5
141
0.0
143
0.0393701
146
0.71
147
1.5
172
     1
176
   256
177
   256
178
     2
271
     2
272
     3
274
     4
283
     0
284
     8
340
11
371
    -1
372
    -1
  0
DIMSTYLE
105
311
330
A
100
AcDbSymbolTableRecord
100
AcDbDimStyleTableRecord
  2
AM_ISO$7
 70
     0
  4
"
 41
2.5
 42
1.0
 43
10.0
 44
1.0
 47
0.1
 48
0.1
 73
     0
 74
     0
 77
     1
 78
     8
 79
     2
140
5.0
141
0.0
143
0.0393701
146
0.71
147
1.5
172
     1
176
   256
177
   256
178
     2
271
     2
272
     3
274
     4
283
     0
284
     8
340
11
371
    -1
372
    -1
  0
DIMSTYLE
105
312
330
A
100
AcDbSymbolTableRecord
100
AcDbDimStyleTableRecord
  2
AM_ISO$SF
 70
     0
  4
"
 41
2.5
 42
1.0
 43
10.0
 44
1.0
 47
0.1
 48
0.1
 73
     0
 74
     0
 75
     1
 76
     1
 77
     1
 78
     8
 79
     2
140
3.5
141
0.0
143
0.0393701
146
0.71
147
1.5
172
     1
176
   256
177
   256
178
     2
271
     2
272
     3
274
     4
283
     0
284
     8
340
11
371
    -1
372
    -1
  0
DIMSTYLE
105
313
330
A
100
AcDbSymbolTableRecord
100
AcDbDimStyleTableRecord
  2
AM_ISO$SH
 70
     0
  4
"
 41
2.5
 42
1.0
 43
10.0
 44
1.0
 47
0.1
 48
0.1
 73
     0
 74
     0
 75
     1
 76
     1
 77
     1
 78
     8
 79
     2
140
3.5
141
0.0
143
0.0393701
144
2.0
146
0.71
147
1.5
172
     1
173
     1
176
   256
177
   256
178
     2
271
     2
272
     3
274
     4
283
     0
284
     8
340
11
343
91
371
    -1
372
    -1
  0
DIMSTYLE
105
D68
330
A
100
AcDbSymbolTableRecord
100
AcDbDimStyleTableRecord
  2
AM_JIS$0
 70
     0
  4
"
 40
0.5
 41
2.5
 42
1.0
 43
10.0
 44
1.0
 47
0.1
 48
0.1
 73
     0
 74
     0
 77
     3
 78
     8
 79
     2
140
3.5
141
0.0
143
0.0393701
146
0.71
147
1.5
172
     1
176
   256
177
   256
178
     2
271
     2
272
     3
274
     4
283
     0
284
     8
340
11
341
C9
342
C9
343
C9
344
C9
371
    -1
372
    -1
  0
ENDTAB
  0
TABLE
  2
BLOCK_RECORD
  5
1
330
0
100
AcDbSymbolTable
 70
    27
  0
BLOCK_RECORD
  5
1F
102
{ACAD_XDICTIONARY
360
99
102
}
330
1
100
AcDbSymbolTableRecord
100
AcDbBlockTableRecord
  2
*Model_Space
340
22
  0
BLOCK_RECORD
  5
1B
330
1
100
AcDbSymbolTableRecord
100
AcDbBlockTableRecord
  2
*Paper_Space
340
1E
  0
BLOCK_RECORD
  5
23
330
1
100
AcDbSymbolTableRecord
100
AcDbBlockTableRecord
  2
*Paper_Space0
340
26
  0
BLOCK_RECORD
  5
91
330
1
100
AcDbSymbolTableRecord
100
AcDbBlockTableRecord
  2
GENAXEH
340
0
  0
BLOCK_RECORD
  5
C9
330
1
100
AcDbSymbolTableRecord
100
AcDbBlockTableRecord
  2
_Open30
340
0
102
{BLKREFS
331
D57
331
D58
331
DCE
331
DCF
331
DFA
331
DFB
331
E3C
331
E3D
331
12C4
331
12C5
331
12CD
331
12CE
331
135A
331
135B
331
1545
331
1546
331
167D
331
167E
331
1883
331
1884
331
1890
331
1891
102
}
  0
BLOCK_RECORD
  5
CE6
102
{ACAD_XDICTIONARY
360
CF4
102
}
330
1
100
AcDbSymbolTableRecord
100
AcDbBlockTableRecord
  2
AA-3-BW
340
0
  0
BLOCK_RECORD
  5
CFC
330
1
100
AcDbSymbolTableRecord
100
AcDbBlockTableRecord
  2
A$C2D292097
340
0
  0
BLOCK_RECORD
  5
D12
102
{ACAD_XDICTIONARY
360
D43
102
}
330
1
100
AcDbSymbolTableRecord
100
AcDbBlockTableRecord
  2
ASO-A
340
0
  0
BLOCK_RECORD
  5
D6B
330
1
100
AcDbSymbolTableRecord
100
AcDbBlockTableRecord
  2
*D10
340
0
  0
BLOCK_RECORD
  5
E17
330
1
100
AcDbSymbolTableRecord
100
AcDbBlockTableRecord
  2
*D16
340
0
  0
BLOCK_RECORD
  5
E2D
330
1
100
AcDbSymbolTableRecord
100
AcDbBlockTableRecord
  2
*D17
340
0
  0
BLOCK_RECORD
  5
EDD
102
{ACAD_XDICTIONARY
360
EE1
102
}
330
1
100
AcDbSymbolTableRecord
100
AcDbBlockTableRecord
  2
A$C2401131E
340
0
1001
ACAD
1000
DesignCenter Data
1002
{
1070
     1
1070
     4
1002
}
  0
BLOCK_RECORD
  5
115A
330
1
100
AcDbSymbolTableRecord
100
AcDbBlockTableRecord
  2
*D20
340
0
  0
BLOCK_RECORD
  5
1A53
330
1
100
AcDbSymbolTableRecord
100
AcDbBlockTableRecord
  2
*S24
340
0
  0
BLOCK_RECORD
  5
1A5A
330
1
100
AcDbSymbolTableRecord
100
AcDbBlockTableRecord
  2
*S25
340
0
  0
BLOCK_RECORD
  5
1A61
330
1
100
AcDbSymbolTableRecord
100
AcDbBlockTableRecord
  2
*S26
340
0
  0
ENDTAB
  0
ENDSEC
  0
SECTION
  2
BLOCKS
  0
BLOCK
  5
20
330
1F
100
AcDbEntity
  8
0
100
AcDbBlockBegin
  2
*Model_Space
 70
     0
 10
0.0
 20
0.0
 30
0.0
  3
*Model_Space
  1

  0
ENDBLK
  5
21
330
1F
100
AcDbEntity
  8
0
100
AcDbBlockEnd
  0
BLOCK
  5
1C
330
1B
100
AcDbEntity
 67
     1
  8
0
100
AcDbBlockBegin
  2
*Paper_Space
 70
     0
 10
0.0
 20
0.0
 30
0.0
  3
*Paper_Space
  1

  0
ENDBLK
  5
1D
330
1B
100
AcDbEntity
 67
     1
  8
0
100
AcDbBlockEnd
  0
BLOCK
  5
24
330
23
100
AcDbEntity
 67
     1
  8
0
100
AcDbBlockBegin
  2
*Paper_Space0
 70
     0
 10
0.0
 20
0.0
 30
0.0
  3
*Paper_Space0
  1

  0
ENDBLK
  5
25
330
23
100
AcDbEntity
 67
     1
  8
0
100
AcDbBlockEnd
  0
BLOCK
  5
93
330
91
100
AcDbEntity
  8
0
100
AcDbBlockBegin
  2
GENAXEH
 70
     0
 10
0.0
 20
0.0
 30
0.0
  3
GENAXEH
  1

  0
LINE
  5
92
330
91
100
AcDbEntity
  8
0
100
AcDbLine
 10
-1.0
 20
0.0
 30
0.0
 11
1.0
 21
0.0
 31
0.0
  0
ENDBLK
  5
94
330
91
100
AcDbEntity
  8
0
100
AcDbBlockEnd
  0
BLOCK
  5
CD
330
C9
100
AcDbEntity
  8
0
100
AcDbBlockBegin
  2
_Open30
 70
     0
 10
0.0
 20
0.0
 30
0.0
  3
_Open30
  1

  0
LINE
  5
CA
330
C9
100
AcDbEntity
  8
0
  6
ByBlock
 62
     0
370
    -2
100
AcDbLine
 10
-1.0
 20
0.26794919
 30
0.0
 11
0.0
 21
0.0
 31
0.0
  0
LINE
  5
CB
330
C9
100
AcDbEntity
  8
0
  6
ByBlock
 62
     0
370
    -2
100
AcDbLine
 10
0.0
 20
0.0
 30
0.0
 11
-1.0
 21
-0.26794919
 31
0.0
  0
LINE
  5
CC
330
C9
100
AcDbEntity
  8
0
  6
ByBlock
 62
     0
370
    -2
100
AcDbLine
 10
0.0
 20
0.0
 30
0.0
 11
-1.0
 21
0.0
 31
0.0
  0
ENDBLK
  5
CE
330
C9
100
AcDbEntity
  8
0
100
AcDbBlockEnd
  0
BLOCK
  5
CF5
330
CE6
100
AcDbEntity
  8
0
100
AcDbBlockBegin
  2
AA-3-BW
 70
     0
 10
0.0
 20
0.0
 30
0.0
  3
AA-3-BW
  1

  0
LWPOLYLINE
  5
CE7
330
CE6
100
AcDbEntity
  8
AM_BOR
 62
   231
100
AcDbPolyline
 90
        4
 70
     1
 43
0.0
 10
11.31798825946299
 20
285.680442839147
 10
11.31798825946292
 20
11.31955716085312
 10
408.7322739737486
 20
11.31955716085296
 10
408.7322739737486
 20
285.680442839147
1001
GENIUS_GENREC_14
1002
{
1000
PYDIR
1011
408.7322739737486
1021
285.680442839147
1031
0.0
1002
}
1002
{
1000
PXDIR
1011
11.31798825946292
1021
11.31955716085312
1031
0.0
1002
}
1002
{
1000
PORI
1011
11.31798825946299
1021
285.680442839147
1031
0.0
1002
}
1002
{
1000
PINS
1011
11.31798825946299
1021
285.680442839147
1031
0.0
1002
}
1002
{
1000
HVAL
1000
281
1002
}
1002
{
1000
H
1070
     2
1002
}
1002
{
1000
WVAL
1000
183
1002
}
1002
{
1000
W
1070
     2
1002
}
1002
{
1000
C
1070
     1
1002
}
1001
GENIUS_GENODEF_13
1002
{
1000
HIER
1070
     0
1002
}
1002
{
1000
MANEDIT
1070
     0
1002
}
1002
{
1000
NOSEL
1070
     0
1002
}
1002
{
1000
BEHIND
1070
     0
1002
}
1002
{
1000
REACTOR
1002
}
1001
GENIUS_GENOBJ-N-REC_13
1002
{
1000
OWNER
1000
GEN
1002
}
  0
TEXT
  5
CE8
330
CE6
100
AcDbEntity
  8
AM_BOR
 60
     1
100
AcDbText
 10
420.0428571428571
 20
296.9999999999998
 30
0.0
 40
5.0
  1
!GENTITLE-MAX
100
AcDbText
  0
LINE
  5
CE9
330
CE6
100
AcDbEntity
  8
AM_BOR
100
AcDbLine
 10
0.0000000000000799
 20
297.0
 30
0.0
 11
0.0000000000000799
 21
275.7857142857142
 31
0.0
1001
GENIUS_GENREC_14
1002
{
1000
PYDIR
1011
420.0428571428571
1021
296.9999999999998
1031
0.0
1002
}
1002
{
1000
PXDIR
1011
0.0
1021
0.0
1031
0.0
1002
}
1002
{
1000
PORI
1011
0.0000000000000799
1021
297.0
1031
0.0
1002
}
1002
{
1000
PINS
1011
0.0000000000000799
1021
297.0
1031
0.0
1002
}
1002
{
1000
HVAL
1000
297
1002
}
1002
{
1000
H
1070
     2
1002
}
1002
{
1000
WVAL
1000
210
1002
}
1002
{
1000
W
1070
     2
1002
}
1002
{
1000
C
1070
     1
1002
}
1001
GENIUS_GENODEF_13
1002
{
1000
HIER
1070
     0
1002
}
1002
{
1000
MANEDIT
1070
     0
1002
}
1002
{
1000
NOSEL
1070
     0
1002
}
1002
{
1000
BEHIND
1070
     0
1002
}
1002
{
1000
REACTOR
1002
}
1001
GENIUS_GENOBJ-N-REC_13
1002
{
1000
OWNER
1000
GEN
1002
}
  0
LINE
  5
CEA
330
CE6
100
AcDbEntity
  8
AM_BOR
100
AcDbLine
 10
0.0
 20
0.0
 30
0.0
 11
21.21428571428571
 21
0.0
 31
0.0
1001
GENIUS_GENREC_14
1002
{
1000
PYDIR
1011
420.0428571428571
1021
296.9999999999998
1031
0.0
1002
}
1002
{
1000
PXDIR
1011
0.0
1021
0.0
1031
0.0
1002
}
1002
{
1000
PORI
1011
0.0000000000000799
1021
297.0
1031
0.0
1002
}
1002
{
1000
PINS
1011
0.0000000000000799
1021
297.0
1031
0.0
1002
}
1002
{
1000
HVAL
1000
297
1002
}
1002
{
1000
H
1070
     2
1002
}
1002
{
1000
WVAL
1000
210
1002
}
1002
{
1000
W
1070
     2
1002
}
1002
{
1000
C
1070
     1
1002
}
1001
GENIUS_GENODEF_13
1002
{
1000
HIER
1070
     0
1002
}
1002
{
1000
MANEDIT
1070
     0
1002
}
1002
{
1000
NOSEL
1070
     0
1002
}
1002
{
1000
BEHIND
1070
     0
1002
}
1002
{
1000
REACTOR
1002
}
1001
GENIUS_GENOBJ-N-REC_13
1002
{
1000
OWNER
1000
GEN
1002
}
  0
LINE
  5
CEB
330
CE6
100
AcDbEntity
  8
AM_BOR
100
AcDbLine
 10
420.0428571428571
 20
-0.0000000000000799
 30
0.0
 11
420.0428571428571
 21
21.21428571428563
 31
0.0
1001
GENIUS_GENREC_14
1002
{
1000
PYDIR
1011
420.0428571428571
1021
296.9999999999998
1031
0.0
1002
}
1002
{
1000
PXDIR
1011
0.0
1021
0.0
1031
0.0
1002
}
1002
{
1000
PORI
1011
0.0000000000000799
1021
297.0
1031
0.0
1002
}
1002
{
1000
PINS
1011
0.0000000000000799
1021
297.0
1031
0.0
1002
}
1002
{
1000
HVAL
1000
297
1002
}
1002
{
1000
H
1070
     2
1002
}
1002
{
1000
WVAL
1000
210
1002
}
1002
{
1000
W
1070
     2
1002
}
1002
{
1000
C
1070
     1
1002
}
1001
GENIUS_GENODEF_13
1002
{
1000
HIER
1070
     0
1002
}
1002
{
1000
MANEDIT
1070
     0
1002
}
1002
{
1000
NOSEL
1070
     0
1002
}
1002
{
1000
BEHIND
1070
     0
1002
}
1002
{
1000
REACTOR
1002
}
1001
GENIUS_GENOBJ-N-REC_13
1002
{
1000
OWNER
1000
GEN
1002
}
  0
LINE
  5
CEC
330
CE6
100
AcDbEntity
  8
AM_BOR
100
AcDbLine
 10
420.0428571428571
 20
296.9999999999998
 30
0.0
 11
398.8285714285715
 21
296.9999999999998
 31
0.0
1001
GENIUS_GENREC_14
1002
{
1000
PYDIR
1011
420.0428571428571
1021
296.9999999999998
1031
0.0
1002
}
1002
{
1000
PXDIR
1011
0.0
1021
0.0
1031
0.0
1002
}
1002
{
1000
PORI
1011
0.0000000000000799
1021
297.0
1031
0.0
1002
}
1002
{
1000
PINS
1011
0.0000000000000799
1021
297.0
1031
0.0
1002
}
1002
{
1000
HVAL
1000
297
1002
}
1002
{
1000
H
1070
     2
1002
}
1002
{
1000
WVAL
1000
210
1002
}
1002
{
1000
W
1070
     2
1002
}
1002
{
1000
C
1070
     1
1002
}
1001
GENIUS_GENODEF_13
1002
{
1000
HIER
1070
     0
1002
}
1002
{
1000
MANEDIT
1070
     0
1002
}
1002
{
1000
NOSEL
1070
     0
1002
}
1002
{
1000
BEHIND
1070
     0
1002
}
1002
{
1000
REACTOR
1002
}
1001
GENIUS_GENOBJ-N-REC_13
1002
{
1000
OWNER
1000
GEN
1002
}
  0
LINE
  5
CED
330
CE6
100
AcDbEntity
  8
AM_BOR
100
AcDbLine
 10
21.2142857142858
 20
297.0
 30
0.0
 11
0.0000000000000799
 21
297.0
 31
0.0
1001
GENIUS_GENREC_14
1002
{
1000
PYDIR
1011
420.0428571428571
1021
296.9999999999998
1031
0.0
1002
}
1002
{
1000
PXDIR
1011
0.0
1021
0.0
1031
0.0
1002
}
1002
{
1000
PORI
1011
0.0000000000000799
1021
297.0
1031
0.0
1002
}
1002
{
1000
PINS
1011
0.0000000000000799
1021
297.0
1031
0.0
1002
}
1002
{
1000
HVAL
1000
297
1002
}
1002
{
1000
H
1070
     2
1002
}
1002
{
1000
WVAL
1000
210
1002
}
1002
{
1000
W
1070
     2
1002
}
1002
{
1000
C
1070
     1
1002
}
1001
GENIUS_GENODEF_13
1002
{
1000
HIER
1070
     0
1002
}
1002
{
1000
MANEDIT
1070
     0
1002
}
1002
{
1000
NOSEL
1070
     0
1002
}
1002
{
1000
BEHIND
1070
     0
1002
}
1002
{
1000
REACTOR
1002
}
1001
GENIUS_GENOBJ-N-REC_13
1002
{
1000
OWNER
1000
GEN
1002
}
  0
LINE
  5
CEE
330
CE6
100
AcDbEntity
  8
AM_BOR
100
AcDbLine
 10
420.0428571428571
 20
275.7857142857141
 30
0.0
 11
420.0428571428571
 21
296.9999999999998
 31
0.0
1001
GENIUS_GENREC_14
1002
{
1000
PYDIR
1011
420.0428571428571
1021
296.9999999999998
1031
0.0
1002
}
1002
{
1000
PXDIR
1011
0.0
1021
0.0
1031
0.0
1002
}
1002
{
1000
PORI
1011
0.0000000000000799
1021
297.0
1031
0.0
1002
}
1002
{
1000
PINS
1011
0.0000000000000799
1021
297.0
1031
0.0
1002
}
1002
{
1000
HVAL
1000
297
1002
}
1002
{
1000
H
1070
     2
1002
}
1002
{
1000
WVAL
1000
210
1002
}
1002
{
1000
W
1070
     2
1002
}
1002
{
1000
C
1070
     1
1002
}
1001
GENIUS_GENODEF_13
1002
{
1000
HIER
1070
     0
1002
}
1002
{
1000
MANEDIT
1070
     0
1002
}
1002
{
1000
NOSEL
1070
     0
1002
}
1002
{
1000
BEHIND
1070
     0
1002
}
1002
{
1000
REACTOR
1002
}
1001
GENIUS_GENOBJ-N-REC_13
1002
{
1000
OWNER
1000
GEN
1002
}
  0
LINE
  5
CEF
330
CE6
100
AcDbEntity
  8
AM_BOR
100
AcDbLine
 10
398.8285714285715
 20
-0.0000000000000799
 30
0.0
 11
420.0428571428571
 21
-0.0000000000000799
 31
0.0
1001
GENIUS_GENREC_14
1002
{
1000
PYDIR
1011
420.0428571428571
1021
296.9999999999998
1031
0.0
1002
}
1002
{
1000
PXDIR
1011
0.0
1021
0.0
1031
0.0
1002
}
1002
{
1000
PORI
1011
0.0000000000000799
1021
297.0
1031
0.0
1002
}
1002
{
1000
PINS
1011
0.0000000000000799
1021
297.0
1031
0.0
1002
}
1002
{
1000
HVAL
1000
297
1002
}
1002
{
1000
H
1070
     2
1002
}
1002
{
1000
WVAL
1000
210
1002
}
1002
{
1000
W
1070
     2
1002
}
1002
{
1000
C
1070
     1
1002
}
1001
GENIUS_GENODEF_13
1002
{
1000
HIER
1070
     0
1002
}
1002
{
1000
MANEDIT
1070
     0
1002
}
1002
{
1000
NOSEL
1070
     0
1002
}
1002
{
1000
BEHIND
1070
     0
1002
}
1002
{
1000
REACTOR
1002
}
1001
GENIUS_GENOBJ-N-REC_13
1002
{
1000
OWNER
1000
GEN
1002
}
  0
LINE
  5
CF0
330
CE6
100
AcDbEntity
  8
AM_BOR
100
AcDbLine
 10
0.0
 20
21.21428571428571
 30
0.0
 11
0.0
 21
0.0
 31
0.0
1001
GENIUS_GENREC_14
1002
{
1000
PYDIR
1011
420.0428571428571
1021
296.9999999999998
1031
0.0
1002
}
1002
{
1000
PXDIR
1011
0.0
1021
0.0
1031
0.0
1002
}
1002
{
1000
PORI
1011
0.0000000000000799
1021
297.0
1031
0.0
1002
}
1002
{
1000
PINS
1011
0.0000000000000799
1021
297.0
1031
0.0
1002
}
1002
{
1000
HVAL
1000
297
1002
}
1002
{
1000
H
1070
     2
1002
}
1002
{
1000
WVAL
1000
210
1002
}
1002
{
1000
W
1070
     2
1002
}
1002
{
1000
C
1070
     1
1002
}
1001
GENIUS_GENODEF_13
1002
{
1000
HIER
1070
     0
1002
}
1002
{
1000
MANEDIT
1070
     0
1002
}
1002
{
1000
NOSEL
1070
     0
1002
}
1002
{
1000
BEHIND
1070
     0
1002
}
1002
{
1000
REACTOR
1002
}
1001
GENIUS_GENOBJ-N-REC_13
1002
{
1000
OWNER
1000
GEN
1002
}
  0
TEXT
  5
CF1
330
CE6
100
AcDbEntity
  8
AM_0
 60
     1
100
AcDbText
 10
408.7322739737486
 20
285.680442839147
 30
0.0
 40
5.0
  1
!GENTITLE-RU
100
AcDbText
  0
TEXT
  5
CF2
330
CE6
100
AcDbEntity
  8
AM_0
 60
     1
100
AcDbText
 10
16.00523592247285
 20
16.0074545709034
 30
0.0
 40
5.0
  1
!GENTITLE-LL
100
AcDbText
  0
TEXT
  5
CF3
330
CE6
100
AcDbEntity
  8
AM_0
 60
     1
100
AcDbText
 10
408.7322739737486
 20
11.31955716085296
 30
0.0
 40
5.0
  1
!GENTITLE-INSERT
100
AcDbText
  0
ENDBLK
  5
CF6
330
CE6
100
AcDbEntity
  8
0
100
AcDbBlockEnd
  0
BLOCK
  5
CFD
330
CFC
100
AcDbEntity
  8
0
100
AcDbBlockBegin
  2
A$C2D292097
 70
     0
 10
0.0
 20
0.0
 30
0.0
  3
A$C2D292097
  1

  0
TEXT
  5
CFE
330
CFC
100
AcDbEntity
  8
0
100
AcDbText
 10
197.1044423511698
 20
31.0035981017752
 30
0.0
 40
10.0
  1
ASOH   CO.LTD
 41
5.0
  7
ｽﾀｲﾙ1
100
AcDbText
  0
TEXT
  5
CFF
330
CFC
100
AcDbEntity
  8
0
100
AcDbText
 10
127.3589261501835
 20
61.98001452360745
 30
0.0
 40
66.93693195207612
  1
アソー株式会社
  7
ｽﾀｲﾙ1
100
AcDbText
  0
HATCH
  5
D00
330
CFC
100
AcDbEntity
  8
AM_8
100
AcDbHatch
 10
0.0
 20
0.0
 30
0.0
210
0.0
220
0.0
230
1.0
  2
SOLID
 70
     1
 71
     0
 91
        1
 92
        1
 93
       10
 72
     1
 10
26.27998696211468
 20
119.622038302041
 11
19.72254667781421
 21
94.20654351522143
 72
     1
 10
19.72254667781422
 20
94.20654351522143
 11
20.10217910550261
 21
94.65251979790156
 72
     3
 10
29.97494128357687
 20
79.68778553387966
 11
0.2402016329913202
 21
19.9985575273696
 40
0.7499999999999996
 50
-34.10238568201522
 51
52.41091053102508
 73
     0
 72
     1
 10
43.0844862433824
 20
89.53104876041368
 11
63.55518980891033
 21
40.6543652059048
 72
     3
 10
76.66473476871587
 20
50.49762843243886
 11
0.2402016329913131
 21
19.9985575273696
 40
0.7499999999999999
 50
127.589089468975
 51
243.9002512902304
 73
     1
 72
     1
 10
90.66060611817196
 20
43.43151697692579
 11
98.94218718925374
 21
72.13430932636422
 72
     1
 10
98.94218718925376
 20
72.13430932636422
 11
97.4258024259505
 21
70.16225780455534
 72
     3
 10
86.98981389832653
 20
84.43075959876276
 11
-0.2402016329912594
 21
-19.99855752736953
 40
0.7499999999999996
 50
-36.86989764584386
 51
52.41091053102518
 73
     0
 72
     1
 10
73.88026893852099
 20
74.58749637222874
 11
53.57102076277776
 21
123.0786824781806
 72
     3
 10
40.46147580297221
 20
113.2354192516466
 11
-0.2402016329912796
 21
-19.99855752736959
 40
0.7500000000000002
 50
127.5890894689749
 51
246.4437724078177
 73
     1
 97
        0
 75
     0
 76
     1
 98
        1
 10
-11.02788873631791
 20
-99.90118815091953
1001
GENIUS_GENODEF_13
1002
{
1000
HIER
1070
     0
1002
}
1002
{
1000
MANEDIT
1070
     0
1002
}
1002
{
1000
NOSEL
1070
     0
1002
}
1002
{
1000
BEHIND
1070
     0
1002
}
1002
{
1000
REACTOR
1002
}
1001
GENIUS_GENOBJ-N-HTC_13
1002
{
1000
OWNER
1000
GEN
1002
}
1001
GENIUS_GENHATCH_13
1002
{
1000
DATA
1040
0.0
1042
0.9999999999999998
1000
SOLID
1070
     0
1011
65.16661907668134
1021
74.10910423558471
1031
0.0
1002
}
1002
{
1000
UCS
1010
0.0
1020
0.0
1030
0.0
1010
1.0
1020
0.0
1030
0.0
1010
0.0
1020
1.0
1030
0.0
1002
}
  0
HATCH
  5
D01
330
CFC
100
AcDbEntity
  8
AM_8
100
AcDbHatch
 10
0.0
 20
0.0
 30
0.0
210
0.0
220
0.0
230
1.0
  2
SOLID
 70
     1
 71
     0
 91
        1
 92
        1
 93
        2
 72
     2
 10
27.87973327687144
 20
49.81037059826576
 40
18.33631541869489
 50
10.7710123686058
 51
355.3294096482469
 73
     1
 72
     2
 10
27.87973327687144
 20
49.81037059826576
 40
18.33631541869488
 50
355.3294096482469
 51
370.7710123686058
 73
     1
 97
        0
 75
     0
 76
     1
 98
        1
 10
-11.02788873631791
 20
-99.90118815091953
1001
GENIUS_GENODEF_13
1002
{
1000
HIER
1070
     0
1002
}
1002
{
1000
MANEDIT
1070
     0
1002
}
1002
{
1000
NOSEL
1070
     0
1002
}
1002
{
1000
BEHIND
1070
     0
1002
}
1002
{
1000
REACTOR
1002
}
1001
GENIUS_GENOBJ-N-HTC_13
1002
{
1000
OWNER
1000
GEN
1002
}
1001
GENIUS_GENHATCH_13
1002
{
1000
DATA
1040
0.0
1042
0.9999999999999998
1000
SOLID
1070
     0
1011
30.27624113759819
1021
49.61458016509695
1031
0.0
1002
}
1002
{
1000
UCS
1010
0.0
1020
0.0
1030
0.0
1010
1.0
1020
0.0
1030
0.0
1010
0.0
1020
1.0
1030
0.0
1002
}
  0
CIRCLE
  5
D02
330
CFC
100
AcDbEntity
  8
0
100
AcDbCircle
 10
27.87973327687145
 20
49.81037059826573
 30
0.0
 40
18.33631541869488
  0
LINE
  5
D03
330
CFC
100
AcDbEntity
  8
0
100
AcDbLine
 10
98.94218718925376
 20
72.13430932636422
 30
0.0
 11
90.66060611817196
 21
43.43151697692576
 31
0.0
  0
LINE
  5
D04
330
CFC
100
AcDbEntity
  8
0
100
AcDbLine
 10
43.0844862433824
 20
89.5310487604137
 30
0.0
 11
63.55518980891034
 21
40.6543652059048
 31
0.0
  0
ELLIPSE
  5
D05
330
CFC
100
AcDbEntity
  8
0
100
AcDbEllipse
 10
76.66473476871587
 20
50.49762843243886
 30
0.0
 11
0.2402016329913116
 21
19.99855752736953
 31
0.0
210
0.0
220
0.0
230
0.9999999999999998
 40
0.7499999999999999
 41
2.094395102393195
 42
4.360282821964076
1001
GENIUS_GENODEF_13
1002
{
1000
HIER
1070
     0
1002
}
1002
{
1000
MANEDIT
1070
     0
1002
}
1002
{
1000
NOSEL
1070
     0
1002
}
1002
{
1000
BEHIND
1070
     0
1002
}
1002
{
1000
REACTOR
1002
}
1001
GENIUS_GENOBJ-N-FIL_13
1002
{
1000
OWNER
1000
GEN
1002
}
  0
ELLIPSE
  5
D06
330
CFC
100
AcDbEntity
  8
0
100
AcDbEllipse
 10
86.98981389832653
 20
84.43075959876276
 30
0.0
 11
0.2402016329912594
 21
19.99855752736953
 31
0.0
210
0.0
220
0.0
230
1.0
 40
0.7499999999999996
 41
2.094395102393192
 42
3.926990816987234
1001
GENIUS_GENODEF_13
1002
{
1000
HIER
1070
     0
1002
}
1002
{
1000
MANEDIT
1070
     0
1002
}
1002
{
1000
NOSEL
1070
     0
1002
}
1002
{
1000
BEHIND
1070
     0
1002
}
1002
{
1000
REACTOR
1002
}
1001
GENIUS_GENOBJ-N-FIL_13
1002
{
1000
OWNER
1000
GEN
1002
}
  0
ELLIPSE
  5
D07
330
CFC
100
AcDbEntity
  8
0
100
AcDbEllipse
 10
29.97494128357687
 20
79.68778553387966
 30
0.0
 11
0.2402016329913188
 21
19.99855752736953
 31
0.0
210
0.0
220
0.0
230
0.9999999999999998
 40
0.7499999999999996
 41
-1.047197551196598
 42
0.7343684516294112
1001
GENIUS_GENODEF_13
1002
{
1000
HIER
1070
     0
1002
}
1002
{
1000
MANEDIT
1070
     0
1002
}
1002
{
1000
NOSEL
1070
     0
1002
}
1002
{
1000
BEHIND
1070
     0
1002
}
1002
{
1000
REACTOR
1002
}
1001
GENIUS_GENOBJ-N-FIL_13
1002
{
1000
OWNER
1000
GEN
1002
}
  0
ELLIPSE
  5
D08
330
CFC
100
AcDbEntity
  8
0
100
AcDbEllipse
 10
40.46147580297221
 20
113.2354192516466
 30
0.0
 11
0.2402016329912781
 21
19.99855752736952
 31
0.0
210
0.0
220
0.0
230
0.9999999999999998
 40
0.75
 41
-1.047197551196599
 42
1.254770269777095
1001
GENIUS_GENODEF_13
1002
{
1000
HIER
1070
     0
1002
}
1002
{
1000
MANEDIT
1070
     0
1002
}
1002
{
1000
NOSEL
1070
     0
1002
}
1002
{
1000
BEHIND
1070
     0
1002
}
1002
{
1000
REACTOR
1002
}
1001
GENIUS_GENOBJ-N-FIL_13
1002
{
1000
OWNER
1000
GEN
1002
}
  0
LINE
  5
D09
330
CFC
100
AcDbEntity
  8
0
100
AcDbLine
 10
73.88026893852099
 20
74.58749637222874
 30
0.0
 11
53.57102076277774
 21
123.0786824781806
 31
0.0
  0
LINE
  5
D0A
330
CFC
100
AcDbEntity
  8
0
100
AcDbLine
 10
26.27998696211472
 20
119.6220383020412
 30
0.0
 11
19.72254667781422
 21
94.20654351522143
 31
0.0
  0
LINE
  5
D0B
330
CFC
100
AcDbEntity
  8
0
100
AcDbLine
 10
19.72254667781422
 20
94.20654351522143
 30
0.0
 11
20.1021791055026
 21
94.65251979790158
 31
0.0
  0
LINE
  5
D0C
330
CFC
100
AcDbEntity
  8
0
100
AcDbLine
 10
98.94218718925372
 20
72.13430932636422
 30
0.0
 11
97.42580242595048
 21
70.16225780455531
 31
0.0
  0
ENDBLK
  5
D0D
330
CFC
100
AcDbEntity
  8
0
100
AcDbBlockEnd
  0
BLOCK
  5
D44
330
D12
100
AcDbEntity
  8
0
100
AcDbBlockBegin
  2
ASO-A
 70
     2
 10
0.0
 20
0.0
 30
0.0
  3
ASO-A
  1

  0
LINE
  5
D13
330
D12
100
AcDbEntity
  8
AM_BOR
 62
   211
100
AcDbLine
 10
-110.0
 20
0.0
 30
0.0
 11
0.0
 21
0.0
 31
0.0
1001
GENIUS_GENREC_14
1002
{
1000
PYDIR
1011
-110.0
1021
40.0
1031
0.0
1002
}
1002
{
1000
PXDIR
1011
0.0
1021
0.0
1031
0.0
1002
}
1002
{
1000
PORI
1011
-110.0
1021
0.0
1031
0.0
1002
}
1002
{
1000
PINS
1011
-110.0
1021
0.0
1031
0.0
1002
}
1002
{
1000
HVAL
1000
40
1002
}
1002
{
1000
H
1070
     2
1002
}
1002
{
1000
WVAL
1000
110
1002
}
1002
{
1000
W
1070
     2
1002
}
1002
{
1000
C
1070
     1
1002
}
1001
GENIUS_GENODEF_13
1002
{
1000
HIER
1070
     0
1002
}
1002
{
1000
MANEDIT
1070
     0
1002
}
1002
{
1000
NOSEL
1070
     0
1002
}
1002
{
1000
BEHIND
1070
     0
1002
}
1002
{
1000
REACTOR
1002
}
1001
GENIUS_GENOBJ-N-REC_13
1002
{
1000
OWNER
1000
GEN
1002
}
  0
LINE
  5
D14
330
D12
100
AcDbEntity
  8
AM_BOR
 62
   211
100
AcDbLine
 10
0.0
 20
0.0
 30
0.0
 11
0.0
 21
40.0
 31
0.0
1001
GENIUS_GENREC_14
1002
{
1000
PYDIR
1011
-110.0
1021
40.0
1031
0.0
1002
}
1002
{
1000
PXDIR
1011
0.0
1021
0.0
1031
0.0
1002
}
1002
{
1000
PORI
1011
-110.0
1021
0.0
1031
0.0
1002
}
1002
{
1000
PINS
1011
-110.0
1021
0.0
1031
0.0
1002
}
1002
{
1000
HVAL
1000
40
1002
}
1002
{
1000
H
1070
     2
1002
}
1002
{
1000
WVAL
1000
110
1002
}
1002
{
1000
W
1070
     2
1002
}
1002
{
1000
C
1070
     1
1002
}
1001
GENIUS_GENODEF_13
1002
{
1000
HIER
1070
     0
1002
}
1002
{
1000
MANEDIT
1070
     0
1002
}
1002
{
1000
NOSEL
1070
     0
1002
}
1002
{
1000
BEHIND
1070
     0
1002
}
1002
{
1000
REACTOR
1002
}
1001
GENIUS_GENOBJ-N-REC_13
1002
{
1000
OWNER
1000
GEN
1002
}
  0
LINE
  5
D15
330
D12
100
AcDbEntity
  8
AM_BOR
 62
   211
100
AcDbLine
 10
0.0
 20
40.0
 30
0.0
 11
-110.0
 21
40.00000000000001
 31
0.0
1001
GENIUS_GENREC_14
1002
{
1000
PYDIR
1011
-110.0
1021
40.0
1031
0.0
1002
}
1002
{
1000
PXDIR
1011
0.0
1021
0.0
1031
0.0
1002
}
1002
{
1000
PORI
1011
-110.0
1021
0.0
1031
0.0
1002
}
1002
{
1000
PINS
1011
-110.0
1021
0.0
1031
0.0
1002
}
1002
{
1000
HVAL
1000
40
1002
}
1002
{
1000
H
1070
     2
1002
}
1002
{
1000
WVAL
1000
110
1002
}
1002
{
1000
W
1070
     2
1002
}
1002
{
1000
C
1070
     1
1002
}
1001
GENIUS_GENODEF_13
1002
{
1000
HIER
1070
     0
1002
}
1002
{
1000
MANEDIT
1070
     0
1002
}
1002
{
1000
NOSEL
1070
     0
1002
}
1002
{
1000
BEHIND
1070
     0
1002
}
1002
{
1000
REACTOR
1002
}
1001
GENIUS_GENOBJ-N-REC_13
1002
{
1000
OWNER
1000
GEN
1002
}
  0
LINE
  5
D16
330
D12
100
AcDbEntity
  8
AM_BOR
 62
   211
100
AcDbLine
 10
-110.0
 20
40.00000000000001
 30
0.0
 11
-110.0
 21
0.0
 31
0.0
1001
GENIUS_GENREC_14
1002
{
1000
PYDIR
1011
-110.0
1021
40.0
1031
0.0
1002
}
1002
{
1000
PXDIR
1011
0.0
1021
0.0
1031
0.0
1002
}
1002
{
1000
PORI
1011
-110.0
1021
0.0
1031
0.0
1002
}
1002
{
1000
PINS
1011
-110.0
1021
0.0
1031
0.0
1002
}
1002
{
1000
HVAL
1000
40
1002
}
1002
{
1000
H
1070
     2
1002
}
1002
{
1000
WVAL
1000
110
1002
}
1002
{
1000
W
1070
     2
1002
}
1002
{
1000
C
1070
     1
1002
}
1001
GENIUS_GENODEF_13
1002
{
1000
HIER
1070
     0
1002
}
1002
{
1000
MANEDIT
1070
     0
1002
}
1002
{
1000
NOSEL
1070
     0
1002
}
1002
{
1000
BEHIND
1070
     0
1002
}
1002
{
1000
REACTOR
1002
}
1001
GENIUS_GENOBJ-N-REC_13
1002
{
1000
OWNER
1000
GEN
1002
}
  0
LINE
  5
D17
330
D12
100
AcDbEntity
  8
AM_BOR
 62
     5
100
AcDbLine
 10
-60.0
 20
9.999999999999992
 30
0.0
 11
0.0
 21
10.0
 31
0.0
1001
GENIUS_GENREC_14
1002
{
1000
PYDIR
1011
-110.0
1021
40.0
1031
0.0
1002
}
1002
{
1000
PXDIR
1011
0.0
1021
0.0
1031
0.0
1002
}
1002
{
1000
PORI
1011
-110.0
1021
0.0
1031
0.0
1002
}
1002
{
1000
PINS
1011
-110.0
1021
0.0
1031
0.0
1002
}
1002
{
1000
HVAL
1000
40
1002
}
1002
{
1000
H
1070
     2
1002
}
1002
{
1000
WVAL
1000
110
1002
}
1002
{
1000
W
1070
     2
1002
}
1002
{
1000
C
1070
     1
1002
}
  0
LINE
  5
D18
330
D12
100
AcDbEntity
  8
AM_BOR
 62
     5
100
AcDbLine
 10
-110.0
 20
19.0
 30
0.0
 11
0.0
 21
19.0
 31
0.0
1001
GENIUS_GENREC_14
1002
{
1000
PYDIR
1011
-110.0
1021
40.0
1031
0.0
1002
}
1002
{
1000
PXDIR
1011
0.0
1021
0.0
1031
0.0
1002
}
1002
{
1000
PORI
1011
-110.0
1021
0.0
1031
0.0
1002
}
1002
{
1000
PINS
1011
-110.0
1021
0.0
1031
0.0
1002
}
1002
{
1000
HVAL
1000
40
1002
}
1002
{
1000
H
1070
     2
1002
}
1002
{
1000
WVAL
1000
110
1002
}
1002
{
1000
W
1070
     2
1002
}
1002
{
1000
C
1070
     1
1002
}
1001
GENIUS_GENODEF_13
1002
{
1000
HIER
1070
     0
1002
}
1002
{
1000
MANEDIT
1070
     0
1002
}
1002
{
1000
NOSEL
1070
     0
1002
}
1002
{
1000
BEHIND
1070
     0
1002
}
1002
{
1000
REACTOR
1002
}
1001
GENIUS_GENOBJ-N-REC_13
1002
{
1000
OWNER
1000
GEN
1002
}
  0
LINE
  5
D19
330
D12
100
AcDbEntity
  8
AM_BOR
 62
     5
100
AcDbLine
 10
-110.0
 20
26.0
 30
0.0
 11
0.0
 21
26.0
 31
0.0
1001
GENIUS_GENREC_14
1002
{
1000
PYDIR
1011
-110.0
1021
40.0
1031
0.0
1002
}
1002
{
1000
PXDIR
1011
0.0
1021
0.0
1031
0.0
1002
}
1002
{
1000
PORI
1011
-110.0
1021
0.0
1031
0.0
1002
}
1002
{
1000
PINS
1011
-110.0
1021
0.0
1031
0.0
1002
}
1002
{
1000
HVAL
1000
40
1002
}
1002
{
1000
H
1070
     2
1002
}
1002
{
1000
WVAL
1000
110
1002
}
1002
{
1000
W
1070
     2
1002
}
1002
{
1000
C
1070
     1
1002
}
1001
GENIUS_GENODEF_13
1002
{
1000
HIER
1070
     0
1002
}
1002
{
1000
MANEDIT
1070
     0
1002
}
1002
{
1000
NOSEL
1070
     0
1002
}
1002
{
1000
BEHIND
1070
     0
1002
}
1002
{
1000
REACTOR
1002
}
1001
GENIUS_GENOBJ-N-REC_13
1002
{
1000
OWNER
1000
GEN
1002
}
  0
LINE
  5
D1A
330
D12
100
AcDbEntity
  8
AM_BOR
 62
     5
100
AcDbLine
 10
-110.0
 20
33.0
 30
0.0
 11
0.0
 21
33.0
 31
0.0
1001
GENIUS_GENREC_14
1002
{
1000
PYDIR
1011
-110.0
1021
40.0
1031
0.0
1002
}
1002
{
1000
PXDIR
1011
0.0
1021
0.0
1031
0.0
1002
}
1002
{
1000
PORI
1011
-110.0
1021
0.0
1031
0.0
1002
}
1002
{
1000
PINS
1011
-110.0
1021
0.0
1031
0.0
1002
}
1002
{
1000
HVAL
1000
40
1002
}
1002
{
1000
H
1070
     2
1002
}
1002
{
1000
WVAL
1000
110
1002
}
1002
{
1000
W
1070
     2
1002
}
1002
{
1000
C
1070
     1
1002
}
1001
GENIUS_GENODEF_13
1002
{
1000
HIER
1070
     0
1002
}
1002
{
1000
MANEDIT
1070
     0
1002
}
1002
{
1000
NOSEL
1070
     0
1002
}
1002
{
1000
BEHIND
1070
     0
1002
}
1002
{
1000
REACTOR
1002
}
1001
GENIUS_GENOBJ-N-REC_13
1002
{
1000
OWNER
1000
GEN
1002
}
  0
LINE
  5
D1B
330
D12
100
AcDbEntity
  8
AM_BOR
 62
     5
100
AcDbLine
 10
-85.0
 20
33.0
 30
0.0
 11
-85.0
 21
18.99999999999998
 31
0.0
1001
GENIUS_GENREC_14
1002
{
1000
PYDIR
1011
-110.0
1021
40.0
1031
0.0
1002
}
1002
{
1000
PXDIR
1011
0.0
1021
0.0
1031
0.0
1002
}
1002
{
1000
PORI
1011
-110.0
1021
0.0
1031
0.0
1002
}
1002
{
1000
PINS
1011
-110.0
1021
0.0
1031
0.0
1002
}
1002
{
1000
HVAL
1000
40
1002
}
1002
{
1000
H
1070
     2
1002
}
1002
{
1000
WVAL
1000
110
1002
}
1002
{
1000
W
1070
     2
1002
}
1002
{
1000
C
1070
     1
1002
}
1001
GENIUS_GENODEF_13
1002
{
1000
HIER
1070
     0
1002
}
1002
{
1000
MANEDIT
1070
     0
1002
}
1002
{
1000
NOSEL
1070
     0
1002
}
1002
{
1000
BEHIND
1070
     0
1002
}
1002
{
1000
REACTOR
1002
}
1001
GENIUS_GENOBJ-N-REC_13
1002
{
1000
OWNER
1000
GEN
1002
}
  0
LINE
  5
D1C
330
D12
100
AcDbEntity
  8
AM_BOR
 62
     5
100
AcDbLine
 10
-60.0
 20
40.00000000000001
 30
0.0
 11
-60.0
 21
0.0
 31
0.0
1001
GENIUS_GENREC_14
1002
{
1000
PYDIR
1011
-110.0
1021
40.0
1031
0.0
1002
}
1002
{
1000
PXDIR
1011
0.0
1021
0.0
1031
0.0
1002
}
1002
{
1000
PORI
1011
-110.0
1021
0.0
1031
0.0
1002
}
1002
{
1000
PINS
1011
-110.0
1021
0.0
1031
0.0
1002
}
1002
{
1000
HVAL
1000
40
1002
}
1002
{
1000
H
1070
     2
1002
}
1002
{
1000
WVAL
1000
110
1002
}
1002
{
1000
W
1070
     2
1002
}
1002
{
1000
C
1070
     1
1002
}
1001
GENIUS_GENODEF_13
1002
{
1000
HIER
1070
     0
1002
}
1002
{
1000
MANEDIT
1070
     0
1002
}
1002
{
1000
NOSEL
1070
     0
1002
}
1002
{
1000
BEHIND
1070
     0
1002
}
1002
{
1000
REACTOR
1002
}
1001
GENIUS_GENOBJ-N-REC_13
1002
{
1000
OWNER
1000
GEN
1002
}
  0
LINE
  5
D1D
330
D12
100
AcDbEntity
  8
AM_BOR
 62
     5
100
AcDbLine
 10
-20.0
 20
33.0
 30
0.0
 11
-20.0
 21
40.0
 31
0.0
1001
GENIUS_GENREC_14
1002
{
1000
PYDIR
1011
-110.0
1021
40.0
1031
0.0
1002
}
1002
{
1000
PXDIR
1011
0.0
1021
0.0
1031
0.0
1002
}
1002
{
1000
PORI
1011
-110.0
1021
0.0
1031
0.0
1002
}
1002
{
1000
PINS
1011
-110.0
1021
0.0
1031
0.0
1002
}
1002
{
1000
HVAL
1000
40
1002
}
1002
{
1000
H
1070
     2
1002
}
1002
{
1000
WVAL
1000
110
1002
}
1002
{
1000
W
1070
     2
1002
}
1002
{
1000
C
1070
     1
1002
}
1001
GENIUS_GENODEF_13
1002
{
1000
HIER
1070
     0
1002
}
1002
{
1000
MANEDIT
1070
     0
1002
}
1002
{
1000
NOSEL
1070
     0
1002
}
1002
{
1000
BEHIND
1070
     0
1002
}
1002
{
1000
REACTOR
1002
}
1001
GENIUS_GENOBJ-N-REC_13
1002
{
1000
OWNER
1000
GEN
1002
}
  0
LINE
  5
D1E
330
D12
100
AcDbEntity
  8
AM_BOR
 62
     5
100
AcDbLine
 10
-40.0
 20
33.0
 30
0.0
 11
-40.0
 21
40.0
 31
0.0
1001
GENIUS_GENREC_14
1002
{
1000
PYDIR
1011
-110.0
1021
40.0
1031
0.0
1002
}
1002
{
1000
PXDIR
1011
0.0
1021
0.0
1031
0.0
1002
}
1002
{
1000
PORI
1011
-110.0
1021
0.0
1031
0.0
1002
}
1002
{
1000
PINS
1011
-110.0
1021
0.0
1031
0.0
1002
}
1002
{
1000
HVAL
1000
40
1002
}
1002
{
1000
H
1070
     2
1002
}
1002
{
1000
WVAL
1000
110
1002
}
1002
{
1000
W
1070
     2
1002
}
1002
{
1000
C
1070
     1
1002
}
1001
GENIUS_GENODEF_13
1002
{
1000
HIER
1070
     0
1002
}
1002
{
1000
MANEDIT
1070
     0
1002
}
1002
{
1000
NOSEL
1070
     0
1002
}
1002
{
1000
BEHIND
1070
     0
1002
}
1002
{
1000
REACTOR
1002
}
1001
GENIUS_GENOBJ-N-REC_13
1002
{
1000
OWNER
1000
GEN
1002
}
  0
LINE
  5
D1F
330
D12
100
AcDbEntity
  8
AM_BOR
 62
     5
100
AcDbLine
 10
-80.0
 20
33.0
 30
0.0
 11
-80.0
 21
40.0
 31
0.0
1001
GENIUS_GENREC_14
1002
{
1000
PYDIR
1011
-110.0
1021
40.0
1031
0.0
1002
}
1002
{
1000
PXDIR
1011
0.0
1021
0.0
1031
0.0
1002
}
1002
{
1000
PORI
1011
-110.0
1021
0.0
1031
0.0
1002
}
1002
{
1000
PINS
1011
-110.0
1021
0.0
1031
0.0
1002
}
1002
{
1000
HVAL
1000
40
1002
}
1002
{
1000
H
1070
     2
1002
}
1002
{
1000
WVAL
1000
110
1002
}
1002
{
1000
W
1070
     2
1002
}
1002
{
1000
C
1070
     1
1002
}
1001
GENIUS_GENODEF_13
1002
{
1000
HIER
1070
     0
1002
}
1002
{
1000
MANEDIT
1070
     0
1002
}
1002
{
1000
NOSEL
1070
     0
1002
}
1002
{
1000
BEHIND
1070
     0
1002
}
1002
{
1000
REACTOR
1002
}
1001
GENIUS_GENOBJ-N-REC_13
1002
{
1000
OWNER
1000
GEN
1002
}
  0
TEXT
  5
D20
330
D12
100
AcDbEntity
  8
AM_BOR
 62
     2
100
AcDbText
 10
-57.4
 20
35.0
 30
0.0
 40
3.0
  1
単位 ｍｍ
 72
     4
 11
-50.0
 21
36.5
 31
0.0
100
AcDbText
  0
TEXT
  5
D21
330
D12
100
AcDbEntity
  8
AM_BOR
 62
     2
100
AcDbText
 10
-39.0
 20
35.0
 30
0.0
 40
3.0
  1
尺度
 41
0.9
 11
-39.0
 21
36.5
 31
0.0
100
AcDbText
 73
     2
  0
TEXT
  5
D22
330
D12
100
AcDbEntity
  8
AM_BOR
 62
     2
100
AcDbText
 10
-19.0
 20
35.0
 30
0.0
 40
3.0
  1
日付
 41
0.9
 11
-19.0
 21
36.5
 31
0.0
100
AcDbText
 73
     2
  0
TEXT
  5
D23
330
D12
100
AcDbEntity
  8
AM_BOR
 62
     2
100
AcDbText
 10
-76.79999999999999
 20
34.99999999999999
 30
0.0
 40
3.0
  1
第３角法
 72
     4
 11
-70.0
 21
36.49999999999999
 31
0.0
100
AcDbText
  0
TEXT
  5
D24
330
D12
100
AcDbEntity
  8
AM_BOR
 62
     2
100
AcDbText
 10
-59.0
 20
29.5
 30
0.0
 40
3.0
  1
材 質
 11
-59.0
 21
31.0
 31
0.0
100
AcDbText
 73
     2
  0
TEXT
  5
D25
330
D12
100
AcDbEntity
  8
AM_BOR
 62
     2
100
AcDbText
 10
-59.0
 20
22.5
 30
0.0
 40
3.0
  1
備 考
 11
-59.0
 21
24.0
 31
0.0
100
AcDbText
 73
     2
  0
TEXT
  5
D26
330
D12
100
AcDbEntity
  8
AM_BOR
 62
     2
100
AcDbText
 10
-59.0
 20
15.5
 30
0.0
 40
3.0
  1
品 名
 11
-59.0
 21
17.0
 31
0.0
100
AcDbText
 73
     2
  0
TEXT
  5
D27
330
D12
100
AcDbEntity
  8
AM_BOR
 62
     2
100
AcDbText
 10
-59.0
 20
6.499999999999992
 30
0.0
 40
3.0
  1
図 番
 11
-59.0
 21
7.999999999999992
 31
0.0
100
AcDbText
 73
     2
  0
TEXT
  5
D28
330
D12
100
AcDbEntity
  8
AM_BOR
 62
     2
100
AcDbText
 10
-109.0
 20
29.5
 30
0.0
 40
3.0
  1
承認
 11
-109.0
 21
31.0
 31
0.0
100
AcDbText
 73
     2
  0
TEXT
  5
D29
330
D12
100
AcDbEntity
  8
AM_BOR
 62
     2
100
AcDbText
 10
-109.0
 20
22.5
 30
0.0
 40
3.0
  1
設計
 11
-109.0
 21
24.0
 31
0.0
100
AcDbText
 73
     2
  0
TEXT
  5
D2A
330
D12
100
AcDbEntity
  8
AM_BOR
 62
     2
100
AcDbText
 10
-84.0
 20
22.5
 30
0.0
 40
3.0
  1
製図
 11
-84.0
 21
24.0
 31
0.0
100
AcDbText
 73
     2
  0
TEXT
  5
D2B
330
D12
100
AcDbEntity
  8
AM_BOR
 62
     2
100
AcDbText
 10
-84.0
 20
29.5
 30
0.0
 40
3.0
  1
検図
 11
-84.0
 21
31.0
 31
0.0
100
AcDbText
 73
     2
  0
ATTDEF
  5
D2C
330
D12
100
AcDbEntity
  8
AM_BOR
100
AcDbText
 10
-49.48020001333898
 20
12.75
 30
0.0
 40
3.5
  1

 11
-49.48020001333898
 21
14.5
 31
0.0
100
AcDbAttributeDefinition
  3
品名
  2
HINMEI{14}
 70
     0
 74
     2
  0
ATTDEF
  5
D2D
330
D12
100
AcDbEntity
  8
AM_BOR
100
AcDbText
 10
-49.48020001333898
 20
3.249999999999992
 30
0.0
 40
3.5
  1

 11
-49.48020001333898
 21
4.999999999999992
 31
0.0
100
AcDbAttributeDefinition
  3
図番
  2
ZUBAN{14}
 70
     0
 74
     2
  0
ATTDEF
  5
D2E
330
D12
100
AcDbEntity
  8
AM_BOR
 62
     2
100
AcDbText
 10
-11.91705654530994
 20
35.0
 30
0.0
 40
3.0
  1

 41
0.8
 11
-11.91705654530994
 21
36.5
 31
0.0
100
AcDbAttributeDefinition
  3
日付
  2
GEN-TITLE-DAT{3.5}
 70
     0
 74
     2
  0
ATTDEF
  5
D2F
330
D12
100
AcDbEntity
  8
AM_BOR
 62
     2
100
AcDbText
 10
-71.63012018472975
 20
20.00000000000001
 30
0.0
 40
3.0
  1
水 田
 72
     4
 11
-67.63012018472974
 21
21.50000000000002
 31
0.0
100
AcDbAttributeDefinition
  3
製図
  2
SEIZU
 70
     0
  0
ATTDEF
  5
D30
330
D12
100
AcDbEntity
  8
AM_BOR
 62
     2
100
AcDbText
 10
-31.91705654530995
 20
35.0
 30
0.0
 40
3.0
  1

 11
-31.91705654530995
 21
36.5
 31
0.0
100
AcDbAttributeDefinition
  3
尺度
  2
GEN-TITLE-SCA
 70
     0
 74
     2
  0
LINE
  5
D31
330
D12
100
AcDbEntity
  8
0
100
AcDbLine
 10
-106.9502221859465
 20
14.71456568209314
 30
0.0
 11
-107.7139711131768
 21
11.16237652835879
 31
0.0
  0
LINE
  5
D32
330
D12
100
AcDbEntity
  8
0
100
AcDbLine
 10
-107.7139711131768
 20
11.16237652835879
 30
0.0
 11
-107.6697551010107
 21
11.22470827233807
 31
0.0
  0
ELLIPSE
  5
D33
330
D12
100
AcDbEntity
  8
0
100
AcDbEllipse
 10
-106.5198686826232
 20
9.133166589319488
 30
0.0
 11
0.0200858413762701
 21
2.795177724472429
 31
0.0
210
0.0
220
0.0
230
1.0
 40
0.6250197778053533
 41
-1.051714224928873
 42
0.7298517778971401
1001
GENIUS_GENODEF_13
1002
{
1000
HIER
1070
     0
1002
}
1002
{
1000
MANEDIT
1070
     0
1002
}
1002
{
1000
NOSEL
1070
     0
1002
}
1002
{
1000
BEHIND
1070
     0
1002
}
1002
{
1000
REACTOR
1002
}
1001
GENIUS_GENOBJ-N-FIL_13
1002
{
1000
OWNER
1000
GEN
1002
}
  0
ELLIPSE
  5
D34
330
D12
100
AcDbEntity
  8
0
100
AcDbEllipse
 10
-105.2984958385996
 20
13.8219417489321
 30
0.0
 11
0.0200858413762916
 21
2.795177724472415
 31
0.0
210
0.0
220
0.0
230
1.0
 40
0.6250197778053527
 41
-1.051714224928867
 42
1.250253596044828
1001
GENIUS_GENODEF_13
1002
{
1000
HIER
1070
     0
1002
}
1002
{
1000
MANEDIT
1070
     0
1002
}
1002
{
1000
NOSEL
1070
     0
1002
}
1002
{
1000
BEHIND
1070
     0
1002
}
1002
{
1000
REACTOR
1002
}
1001
GENIUS_GENOBJ-N-FIL_13
1002
{
1000
OWNER
1000
GEN
1002
}
  0
LINE
  5
D35
330
D12
100
AcDbEntity
  8
0
100
AcDbLine
 10
-98.48721298302093
 20
8.077457208786752
 30
0.0
 11
-99.45177360188811
 21
4.065819878065248
 31
0.0
  0
ELLIPSE
  5
D36
330
D12
100
AcDbEntity
  8
0
100
AcDbEllipse
 10
-101.0818809708247
 20
5.053412867376919
 30
0.0
 11
0.0200858413762853
 21
2.795177724472413
 31
0.0
210
0.0
220
0.0
230
1.0
 40
0.6250197778053547
 41
2.089878428660925
 42
4.355766148231805
1001
GENIUS_GENODEF_13
1002
{
1000
HIER
1070
     0
1002
}
1002
{
1000
MANEDIT
1070
     0
1002
}
1002
{
1000
NOSEL
1070
     0
1002
}
1002
{
1000
BEHIND
1070
     0
1002
}
1002
{
1000
REACTOR
1002
}
1001
GENIUS_GENOBJ-N-FIL_13
1002
{
1000
OWNER
1000
GEN
1002
}
  0
LINE
  5
D37
330
D12
100
AcDbEntity
  8
0
100
AcDbLine
 10
-98.48721298302093
 20
8.077457208786752
 30
0.0
 11
-98.66382720839389
 21
7.801834007856294
 31
0.0
  0
ELLIPSE
  5
D38
330
D12
100
AcDbEntity
  8
0
100
AcDbEllipse
 10
-99.87931293102301
 20
9.796066964505511
 30
0.0
 11
0.0200858413762724
 21
2.795177724472415
 31
0.0
210
0.0
220
0.0
230
0.9999999999999998
 40
0.6250197778053552
 41
2.08987842866092
 42
3.922474143254961
1001
GENIUS_GENODEF_13
1002
{
1000
HIER
1070
     0
1002
}
1002
{
1000
MANEDIT
1070
     0
1002
}
1002
{
1000
NOSEL
1070
     0
1002
}
1002
{
1000
BEHIND
1070
     0
1002
}
1002
{
1000
REACTOR
1002
}
1001
GENIUS_GENOBJ-N-FIL_13
1002
{
1000
OWNER
1000
GEN
1002
}
  0
HATCH
  5
D39
330
D12
100
AcDbEntity
  8
AM_8
100
AcDbHatch
 10
0.0
 20
0.0
 30
0.0
210
0.0
220
0.0
230
1.0
  2
SOLID
 70
     1
 71
     0
 91
        1
 92
        1
 93
        2
 72
     3
 10
-106.7638987916396
 20
4.957358478318376
 11
0.0000000000000547
 21
2.56276973145977
 40
0.8333333333333941
 50
-77.14069946214277
 51
264.4007371808275
 73
     1
 72
     3
 10
-106.7638987916396
 20
4.957358478318376
 11
-0.0000000000003928
 21
2.562769731461267
 40
0.8333333333328997
 50
264.4007371808174
 51
282.8593005378472
 73
     1
 97
        0
 75
     0
 76
     1
 98
        1
 10
65.20293740923941
 20
-32.16820874956388
1001
GENIUS_GENODEF_13
1002
{
1000
HIER
1070
     0
1002
}
1002
{
1000
MANEDIT
1070
     0
1002
}
1002
{
1000
NOSEL
1070
     0
1002
}
1002
{
1000
BEHIND
1070
     0
1002
}
1002
{
1000
REACTOR
1002
}
1001
GENIUS_GENOBJ-N-HTC_13
1002
{
1000
OWNER
1000
GEN
1002
}
1001
GENIUS_GENHATCH_13
1002
{
1000
DATA
1040
0.0
1042
0.0015799698758396
1000
SOLID
1070
     0
1011
70.0136537122014
1021
-14.7540192633455
1031
0.0
1002
}
1002
{
1000
UCS
1010
0.0
1020
0.0
1030
0.0
1010
1.0
1020
0.0
1030
0.0
1010
0.0
1020
1.0
1030
0.0
1002
}
  0
ELLIPSE
  5
D3A
330
D12
100
AcDbEntity
  8
0
100
AcDbEllipse
 10
-106.7638987916396
 20
4.957358478318417
 30
0.0
 11
0.0000000000000006
 21
2.562769731459943
 31
0.0
210
0.0
220
0.0
230
1.0
 40
0.8333333333333353
 41
-1.570796326794896
 42
4.712388980384689
  0
HATCH
  5
D3B
330
D12
100
AcDbEntity
  8
AM_8
100
AcDbHatch
 10
0.0
 20
0.0
 30
0.0
210
0.0
220
0.0
230
1.0
  2
SOLID
 70
     1
 71
     0
 91
        1
 92
        1
 93
       10
 72
     1
 10
-106.9502221859465
 20
14.71456568209311
 11
-107.7139711131768
 21
11.16237652835879
 72
     1
 10
-107.7139711131768
 20
11.16237652835879
 11
-107.6697551010108
 21
11.22470827233809
 72
     3
 10
-106.5198686826232
 20
9.133166589319488
 11
0.0200858413762859
 21
2.795177724472421
 40
0.6250197778053525
 50
-29.21280058452436
 51
47.56891328106517
 73
     0
 72
     1
 10
-104.9929922696577
 20
10.5089073790986
 11
-102.6087573837903
 21
3.677672077597827
 72
     3
 10
-101.0818809708247
 20
5.053412867376919
 11
0.0200858413762844
 21
2.79517772447242
 40
0.625019777805353
 50
132.4310867189347
 51
239.202331800838
 73
     1
 72
     1
 10
-99.45177360188809
 20
4.065819878065248
 11
-98.48721298302093
 21
8.077457208786761
 72
     1
 10
-98.48721298302095
 20
8.077457208786752
 11
-98.66382720839393
 21
7.801834007856288
 72
     3
 10
-99.87931293102301
 20
9.796066964505511
 11
0.0200858413762811
 21
2.795177724472416
 40
0.6250197778053536
 50
148.2259629226598
 51
227.5689132810653
 73
     0
 72
     1
 10
-101.4061893439886
 20
8.420326174726406
 11
-103.771619425634
 21
15.19768253871121
 72
     3
 10
-105.2984958385996
 20
13.8219417489321
 11
0.02008584137625
 21
2.795177724472417
 40
0.6250197778053583
 50
-47.56891328106589
 51
62.02409398278944
 73
     1
 97
        0
 75
     0
 76
     1
 98
        1
 10
65.20293740923941
 20
-32.16820874956388
1001
GENIUS_GENODEF_13
1002
{
1000
HIER
1070
     0
1002
}
1002
{
1000
MANEDIT
1070
     0
1002
}
1002
{
1000
NOSEL
1070
     0
1002
}
1002
{
1000
BEHIND
1070
     0
1002
}
1002
{
1000
REACTOR
1002
}
1001
GENIUS_GENOBJ-N-HTC_13
1002
{
1000
OWNER
1000
GEN
1002
}
1001
GENIUS_GENHATCH_13
1002
{
1000
DATA
1040
0.0
1042
0.0015799698758396
1000
SOLID
1070
     0
1011
74.07735655451816
1021
-11.90112763631223
1031
0.0
1002
}
1002
{
1000
UCS
1010
0.0
1020
0.0
1030
0.0
1010
1.0
1020
0.0
1030
0.0
1010
0.0
1020
1.0
1030
0.0
1002
}
  0
LINE
  5
D3C
330
D12
100
AcDbEntity
  8
0
100
AcDbLine
 10
-104.9929922696577
 20
10.5089073790986
 30
0.0
 11
-102.6087573837903
 21
3.677672077597847
 31
0.0
  0
LINE
  5
D3D
330
D12
100
AcDbEntity
  8
0
100
AcDbLine
 10
-101.4061893439886
 20
8.420326174726406
 30
0.0
 11
-103.771619425634
 21
15.1976825387112
 31
0.0
  0
TEXT
  5
D3E
330
D12
100
AcDbEntity
  8
0
100
AcDbText
 10
-92.04358977334541
 20
2.736280326823534
 30
0.0
 40
1.397647058823528
  1
ASOH   CO.LTD
 41
2.222222222222219
  7
ｽﾀｲﾙ1
100
AcDbText
  0
TEXT
  5
D3F
330
D12
100
AcDbEntity
  8
0
100
AcDbText
 10
-96.37601713265375
 20
7.065690057310197
 30
0.0
 40
9.355420606948992
  1
アソー株式会社
 41
0.4444444444444381
  7
ｽﾀｲﾙ1
100
AcDbText
  0
ATTDEF
  5
D40
330
D12
100
AcDbEntity
  8
AM_BOR
 62
     2
100
AcDbText
 10
-98.50320560717072
 20
20.29902073441097
 30
0.0
 40
3.0
  1
水 田
 72
     4
 11
-94.50320560717072
 21
21.79902073441097
 31
0.0
100
AcDbAttributeDefinition
  3
設計
  2
SEIZU
 70
     0
  0
ATTDEF
  5
D41
330
D12
100
AcDbEntity
  8
AM_BOR
 62
     2
100
AcDbText
 10
-97.04186970375872
 20
27.05583171251668
 30
0.0
 40
3.0
  1
樫井
 72
     4
 11
-93.8418697037587
 21
28.55583171251668
 31
0.0
100
AcDbAttributeDefinition
  3
承認
  2
SYOUNIN
 70
     0
  0
ATTDEF
  5
D42
330
D12
100
AcDbEntity
  8
AM_BOR
 62
     2
100
AcDbText
 10
-72.04186970375871
 20
27.05583171251668
 30
0.0
 40
3.0
  1
樫井
 72
     4
 11
-68.8418697037587
 21
28.55583171251668
 31
0.0
100
AcDbAttributeDefinition
  3
承認
  2
SYOUNIN
 70
     0
  0
ENDBLK
  5
D45
330
D12
100
AcDbEntity
  8
0
100
AcDbBlockEnd
  0
BLOCK
  5
D75
330
D6B
100
AcDbEntity
  8
0
100
AcDbBlockBegin
  2
*D10
 70
     1
 10
0.0
 20
0.0
 30
0.0
  3
*D10
  1

  0
LINE
  5
188D
330
D6B
100
AcDbEntity
  8
AM_5
100
AcDbLine
 10
813.9134349680016
 20
427.6454304096504
 30
0.0
 11
813.9134349680016
 21
415.9788626091247
 31
0.0
  0
LINE
  5
188E
330
D6B
100
AcDbEntity
  8
AM_5
100
AcDbLine
 10
888.9134349680011
 20
428.4454304096506
 30
0.0
 11
888.9134349680011
 21
415.9788626091247
 31
0.0
  0
LINE
  5
188F
330
D6B
100
AcDbEntity
  8
AM_5
100
AcDbLine
 10
815.1634349680016
 20
416.4788626091247
 30
0.0
 11
887.6634349680012
 21
416.4788626091247
 31
0.0
  0
INSERT
  5
1890
330
D6B
100
AcDbEntity
  8
AM_5
100
AcDbBlockReference
  2
_Open30
 10
813.9134349680016
 20
416.4788626091247
 30
0.0
 41
1.25
 42
1.25
 43
1.25
 50
180.0
  0
INSERT
  5
1891
330
D6B
100
AcDbEntity
  8
AM_5
100
AcDbBlockReference
  2
_Open30
 10
888.9134349680011
 20
416.4788626091247
 30
0.0
 41
1.25
 42
1.25
 43
1.25
  0
MTEXT
  5
1892
330
D6B
100
AcDbEntity
  8
AM_5
 62
     2
100
AcDbMText
 10
851.4134349680015
 20
418.1038626091248
 30
0.0
 40
1.75
 41
0.0
 71
     5
 72
     1
  1
75
 73
     1
 44
1.0
1001
ACAD
1000
MTEXTBEGIN
1070
    73
1070
     1
1070
    44
1040
1.0
1070
    74
1070
     0
1000
MTEXTEND
  0
POINT
  5
1893
330
D6B
100
AcDbEntity
  8
Defpoints
 62
     0
100
AcDbPoint
 10
813.9134349680016
 20
428.1454304096504
 30
0.0
  0
POINT
  5
1894
330
D6B
100
AcDbEntity
  8
Defpoints
 62
     0
100
AcDbPoint
 10
888.9134349680011
 20
428.9454304096506
 30
0.0
  0
POINT
  5
1895
330
D6B
100
AcDbEntity
  8
Defpoints
 62
     0
100
AcDbPoint
 10
888.9134349680011
 20
416.4788626091247
 30
0.0
  0
ENDBLK
  5
D76
330
D6B
100
AcDbEntity
  8
0
100
AcDbBlockEnd
  0
BLOCK
  5
E21
330
E17
100
AcDbEntity
  8
0
100
AcDbBlockBegin
  2
*D16
 70
     1
 10
0.0
 20
0.0
 30
0.0
  3
*D16
  1

  0
LINE
  5
1357
330
E17
100
AcDbEntity
  8
AM_5
100
AcDbLine
 10
891.4134349680017
 20
460.6454304096502
 30
0.0
 11
902.4134349680018
 21
460.6454304096502
 31
0.0
  0
LINE
  5
1358
330
E17
100
AcDbEntity
  8
AM_5
100
AcDbLine
 10
890.8104349680012
 20
432.1454304096504
 30
0.0
 11
902.4134349680018
 21
432.1454304096503
 31
0.0
  0
LINE
  5
1359
330
E17
100
AcDbEntity
  8
AM_5
100
AcDbLine
 10
901.9134349680017
 20
459.3954304096501
 30
0.0
 11
901.9134349680017
 21
433.3954304096503
 31
0.0
  0
INSERT
  5
135A
330
E17
100
AcDbEntity
  8
AM_5
100
AcDbBlockReference
  2
_Open30
 10
901.9134349680017
 20
460.6454304096502
 30
0.0
 41
1.25
 42
1.25
 43
1.25
 50
90.0
  0
INSERT
  5
135B
330
E17
100
AcDbEntity
  8
AM_5
100
AcDbBlockReference
  2
_Open30
 10
901.9134349680017
 20
432.1454304096503
 30
0.0
 41
1.25
 42
1.25
 43
1.25
 50
270.0
  0
MTEXT
  5
135C
330
E17
100
AcDbEntity
  8
AM_5
 62
     2
100
AcDbMText
 10
900.288262723907
 20
446.3954304096504
 30
0.0
 40
1.75
 41
0.0
 71
     5
 72
     1
  1
28.5
 11
0.0000000000000001
 21
1.0
 31
0.0
 73
     1
 44
1.0
1001
ACAD
1000
MTEXTBEGIN
1070
    73
1070
     1
1070
    44
1040
1.0
1070
    74
1070
     0
1000
MTEXTEND
  0
POINT
  5
135D
330
E17
100
AcDbEntity
  8
Defpoints
 62
     0
100
AcDbPoint
 10
890.9134349680018
 20
460.6454304096502
 30
0.0
  0
POINT
  5
135E
330
E17
100
AcDbEntity
  8
Defpoints
 62
     0
100
AcDbPoint
 10
890.3104349680011
 20
432.1454304096504
 30
0.0
  0
POINT
  5
135F
330
E17
100
AcDbEntity
  8
Defpoints
 62
     0
100
AcDbPoint
 10
901.9134349680017
 20
432.1454304096503
 30
0.0
  0
ENDBLK
  5
E22
330
E17
100
AcDbEntity
  8
0
100
AcDbBlockEnd
  0
BLOCK
  5
E37
330
E2D
100
AcDbEntity
  8
0
100
AcDbBlockBegin
  2
*D17
 70
     1
 10
0.0
 20
0.0
 30
0.0
  3
*D17
  1

  0
LINE
  5
E39
330
E2D
100
AcDbEntity
  8
AM_5
100
AcDbLine
 10
890.9134349680018
 20
461.1454304096502
 30
0.0
 11
890.9134349680018
 21
467.6454304096502
 31
0.0
  0
LINE
  5
E3A
330
E2D
100
AcDbEntity
  8
AM_5
100
AcDbLine
 10
850.9134349680017
 20
461.6454304096502
 30
0.0
 11
850.9134349680017
 21
467.6454304096502
 31
0.0
  0
LINE
  5
E3B
330
E2D
100
AcDbEntity
  8
AM_5
100
AcDbLine
 10
889.6634349680017
 20
467.1454304096502
 30
0.0
 11
852.1634349680017
 21
467.1454304096502
 31
0.0
  0
INSERT
  5
E3C
330
E2D
100
AcDbEntity
  8
AM_5
100
AcDbBlockReference
  2
_Open30
 10
890.9134349680018
 20
467.1454304096502
 30
0.0
 41
1.25
 42
1.25
 43
1.25
  0
INSERT
  5
E3D
330
E2D
100
AcDbEntity
  8
AM_5
100
AcDbBlockReference
  2
_Open30
 10
850.9134349680017
 20
467.1454304096502
 30
0.0
 41
1.25
 42
1.25
 43
1.25
 50
180.0
  0
MTEXT
  5
E3E
330
E2D
100
AcDbEntity
  8
AM_5
 62
     2
100
AcDbMText
 10
870.9134349680017
 20
468.7704304096502
 30
0.0
 40
1.75
 41
0.0
 71
     5
 72
     1
  1
40
 73
     1
 44
1.0
1001
ACAD
1000
MTEXTBEGIN
1070
    73
1070
     1
1070
    44
1040
1.0
1070
    74
1070
     0
1000
MTEXTEND
  0
POINT
  5
E3F
330
E2D
100
AcDbEntity
  8
Defpoints
 62
     0
100
AcDbPoint
 10
890.9134349680018
 20
460.6454304096502
 30
0.0
  0
POINT
  5
E40
330
E2D
100
AcDbEntity
  8
Defpoints
 62
     0
100
AcDbPoint
 10
850.9134349680017
 20
461.1454304096502
 30
0.0
  0
POINT
  5
E41
330
E2D
100
AcDbEntity
  8
Defpoints
 62
     0
100
AcDbPoint
 10
850.9134349680017
 20
467.1454304096502
 30
0.0
  0
ENDBLK
  5
E38
330
E2D
100
AcDbEntity
  8
0
100
AcDbBlockEnd
  0
BLOCK
  5
EE2
330
EDD
100
AcDbEntity
  8
0
100
AcDbBlockBegin
  2
A$C2401131E
 70
     0
 10
0.0
 20
0.0
 30
0.0
  3
A$C2401131E
  1

  0
INSERT
  5
EDE
102
{ACAD_REACTORS
330
EE6
102
}
330
EDD
100
AcDbEntity
  8
AM_12
100
AcDbBlockReference
  2
*S24
 10
0.0
 20
0.0
 30
0.0
  0
INSERT
  5
EDF
102
{ACAD_REACTORS
330
EE7
102
}
330
EDD
100
AcDbEntity
  8
AM_12
100
AcDbBlockReference
  2
*S25
 10
0.0
 20
0.0
 30
0.0
  0
INSERT
  5
EE0
102
{ACAD_REACTORS
330
EE5
102
}
330
EDD
100
AcDbEntity
  8
AM_12
100
AcDbBlockReference
  2
*S26
 10
0.0
 20
0.0
 30
0.0
  0
ENDBLK
  5
EE3
330
EDD
100
AcDbEntity
  8
0
100
AcDbBlockEnd
  0
BLOCK
  5
1164
330
115A
100
AcDbEntity
  8
0
100
AcDbBlockBegin
  2
*D20
 70
     1
 10
0.0
 20
0.0
 30
0.0
  3
*D20
  1

  0
LINE
  5
1880
330
115A
100
AcDbEntity
  8
AM_5
100
AcDbLine
 10
884.9134349680015
 20
436.6454304096504
 30
0.0
 11
894.2440041810813
 21
436.6454304096504
 31
0.0
  0
LINE
  5
1881
330
115A
100
AcDbEntity
  8
AM_5
100
AcDbLine
 10
884.9134349680015
 20
427.6454304096504
 30
0.0
 11
894.2440041810813
 21
427.6454304096504
 31
0.0
  0
LINE
  5
1882
330
115A
100
AcDbEntity
  8
AM_5
100
AcDbLine
 10
893.7440041810813
 20
435.3954304096504
 30
0.0
 11
893.7440041810813
 21
428.8954304096504
 31
0.0
  0
INSERT
  5
1883
330
115A
100
AcDbEntity
  8
AM_5
100
AcDbBlockReference
  2
_Open30
 10
893.7440041810813
 20
436.6454304096504
 30
0.0
 41
1.25
 42
1.25
 43
1.25
 50
90.0
  0
INSERT
  5
1884
330
115A
100
AcDbEntity
  8
AM_5
100
AcDbBlockReference
  2
_Open30
 10
893.7440041810813
 20
427.6454304096504
 30
0.0
 41
1.25
 42
1.25
 43
1.25
 50
270.0
  0
MTEXT
  5
1885
330
115A
100
AcDbEntity
  8
AM_5
 62
     2
100
AcDbMText
 10
892.1190041810811
 20
432.1454304096505
 30
0.0
 40
1.75
 41
0.0
 71
     5
 72
     1
  1
%%c9
 11
0.0000000000000001
 21
1.0
 31
0.0
 73
     1
 44
1.0
1001
ACAD
1000
MTEXTBEGIN
1070
    73
1070
     1
1070
    44
1040
1.0
1070
    74
1070
     0
1000
MTEXTEND
  0
POINT
  5
1886
330
115A
100
AcDbEntity
  8
Defpoints
 62
     0
100
AcDbPoint
 10
884.4134349680016
 20
436.6454304096504
 30
0.0
  0
POINT
  5
1887
330
115A
100
AcDbEntity
  8
Defpoints
 62
     0
100
AcDbPoint
 10
884.4134349680016
 20
427.6454304096504
 30
0.0
  0
POINT
  5
1888
330
115A
100
AcDbEntity
  8
Defpoints
 62
     0
100
AcDbPoint
 10
893.7440041810813
 20
427.6454304096504
 30
0.0
  0
ENDBLK
  5
1165
330
115A
100
AcDbEntity
  8
0
100
AcDbBlockEnd
  0
BLOCK
  5
1A57
330
1A53
100
AcDbEntity
  8
0
100
AcDbBlockBegin
  2
*S24
 70
     1
 10
0.0
 20
0.0
 30
0.0
  3
*S24
  1

  0
CIRCLE
  5
1A54
330
1A53
100
AcDbEntity
  8
AM_12
 62
     4
100
AcDbCircle
 10
0.8274826143492646
 20
-15.52748261434891
 30
0.0
 40
0.7875000000000001
  0
LINE
  5
1A55
330
1A53
100
AcDbEntity
  8
AM_12
 62
     4
100
AcDbLine
 10
0.0399826143492647
 20
-16.31498261434891
 30
0.0
 11
1.614982614349264
 21
-14.73998261434891
 31
0.0
  0
LINE
  5
1A56
330
1A53
100
AcDbEntity
  8
AM_12
 62
     4
100
AcDbLine
 10
0.0399826143492647
 20
-14.73998261434891
 30
0.0
 11
1.614982614349264
 21
-16.31498261434891
 31
0.0
  0
ENDBLK
  5
1A58
330
1A53
100
AcDbEntity
  8
0
100
AcDbBlockEnd
  0
BLOCK
  5
1A5E
330
1A5A
100
AcDbEntity
  8
0
100
AcDbBlockBegin
  2
*S25
 70
     1
 10
0.0
 20
0.0
 30
0.0
  3
*S25
  1

  0
CIRCLE
  5
1A5B
330
1A5A
100
AcDbEntity
  8
AM_12
 62
     4
100
AcDbCircle
 10
2.849999999998942
 20
-7.603472947575198
 30
0.0
 40
0.7875000000000001
  0
LINE
  5
1A5C
330
1A5A
100
AcDbEntity
  8
AM_12
 62
     4
100
AcDbLine
 10
2.062499999998942
 20
-8.390972947575198
 30
0.0
 11
3.637499999998942
 21
-6.815972947575199
 31
0.0
  0
LINE
  5
1A5D
330
1A5A
100
AcDbEntity
  8
AM_12
 62
     4
100
AcDbLine
 10
2.062499999998942
 20
-6.815972947575199
 30
0.0
 11
3.637499999998942
 21
-8.390972947575198
 31
0.0
  0
ENDBLK
  5
1A5F
330
1A5A
100
AcDbEntity
  8
0
100
AcDbBlockEnd
  0
BLOCK
  5
1A65
330
1A61
100
AcDbEntity
  8
0
100
AcDbBlockBegin
  2
*S26
 70
     1
 10
0.0
 20
0.0
 30
0.0
  3
*S26
  1

  0
CIRCLE
  5
1A62
330
1A61
100
AcDbEntity
  8
AM_12
 62
     4
100
AcDbCircle
 10
-0.0117253698893762
 20
-0.0908633522240621
 30
0.0
 40
0.7875
  0
LINE
  5
1A63
330
1A61
100
AcDbEntity
  8
AM_12
 62
     4
100
AcDbLine
 10
-0.7992253698893763
 20
-0.878363352224062
 30
0.0
 11
0.7757746301106238
 21
0.696636647775938
 31
0.0
  0
LINE
  5
1A64
330
1A61
100
AcDbEntity
  8
AM_12
 62
     4
100
AcDbLine
 10
-0.7992253698893763
 20
0.696636647775938
 30
0.0
 11
0.7757746301106238
 21
-0.878363352224062
 31
0.0
  0
ENDBLK
  5
1A66
330
1A61
100
AcDbEntity
  8
0
100
AcDbBlockEnd
  0
ENDSEC
  0
SECTION
  2
ENTITIES
  0
LINE
  5
5DA
330
1F
100
AcDbEntity
  8
AM_0
100
AcDbLine
 10
844.213434968001
 20
494.0076197147937
 30
0.0
 11
843.4134349680011
 21
496.43375617236
 31
0.0
  0
ARC
  5
5DB
330
1F
100
AcDbEntity
  8
AM_0
100
AcDbCircle
 10
844.213434968001
 20
496.43375617236
 30
0.0
 40
0.8
100
AcDbArc
 50
180.0
 51
270.0
1001
GENIUS_GENODEF_13
1002
{
1000
HIER
1070
     0
1002
}
1002
{
1000
MANEDIT
1070
     0
1002
}
1002
{
1000
NOSEL
1070
     0
1002
}
1002
{
1000
BEHIND
1070
     0
1002
}
1002
{
1000
REACTOR
1002
}
1001
GENIUS_GENOBJ-N-FIL_13
1002
{
1000
OWNER
1000
GEN
1002
}
  0
LINE
  5
5DC
330
1F
100
AcDbEntity
  8
AM_0
100
AcDbLine
 10
843.4134349680011
 20
496.6337561723601
 30
0.0
 11
843.4134349680011
 21
496.43375617236
 31
0.0
  0
LINE
  5
5DD
330
1F
100
AcDbEntity
  8
AM_0
100
AcDbLine
 10
844.213434968001
 20
494.0076197147937
 30
0.0
 11
844.213434968001
 21
490.0320315215978
 31
0.0
  0
LINE
  5
5DE
330
1F
100
AcDbEntity
  8
AM_0
100
AcDbLine
 10
843.4134349680011
 20
496.43375617236
 30
0.0
 11
843.4134349680011
 21
487.1337561723597
 31
0.0
  0
LINE
  5
5DF
330
1F
100
AcDbEntity
  8
AM_0
100
AcDbLine
 10
841.2794603717854
 20
497.1337561723601
 30
0.0
 11
843.2794603717855
 21
497.1337561723601
 31
0.0
  0
ARC
  5
5E0
330
1F
100
AcDbEntity
  8
AM_0
100
AcDbCircle
 10
842.4134349680011
 20
496.6337561723601
 30
0.0
 40
1.0
100
AcDbArc
 50
0.0
 51
30.00000000000049
1001
GENIUS_GENODEF_13
1002
{
1000
HIER
1070
     0
1002
}
1002
{
1000
MANEDIT
1070
     0
1002
}
1002
{
1000
NOSEL
1070
     0
1002
}
1002
{
1000
BEHIND
1070
     0
1002
}
1002
{
1000
REACTOR
1002
}
1001
GENIUS_GENOBJ-N-FIL_13
1002
{
1000
OWNER
1000
GEN
1002
}
  0
LINE
  5
5E2
330
1F
100
AcDbEntity
  8
AM_0
100
AcDbLine
 10
848.4557938225128
 20
494.0076197147938
 30
0.0
 11
844.2134349680012
 21
494.0076197147937
 31
0.0
  0
LINE
  5
5E3
330
1F
100
AcDbEntity
  8
AM_0
100
AcDbLine
 10
858.4134349680011
 20
496.4337561723598
 30
0.0
 11
857.613434968001
 21
494.0076197147938
 31
0.0
  0
ARC
  5
5E4
330
1F
100
AcDbEntity
  8
AM_0
100
AcDbCircle
 10
857.613434968001
 20
496.43375617236
 30
0.0
 40
0.8
100
AcDbArc
 50
270.0
 51
359.9999999999935
1001
GENIUS_GENODEF_13
1002
{
1000
HIER
1070
     0
1002
}
1002
{
1000
MANEDIT
1070
     0
1002
}
1002
{
1000
NOSEL
1070
     0
1002
}
1002
{
1000
BEHIND
1070
     0
1002
}
1002
{
1000
REACTOR
1002
}
1001
GENIUS_GENOBJ-N-FIL_13
1002
{
1000
OWNER
1000
GEN
1002
}
  0
LINE
  5
5E5
330
1F
100
AcDbEntity
  8
AM_0
100
AcDbLine
 10
858.4134349680011
 20
496.6337561723611
 30
0.0
 11
858.4134349679997
 21
492.5411736045557
 31
0.0
  0
LINE
  5
5E6
330
1F
100
AcDbEntity
  8
AM_0
100
AcDbLine
 10
857.613434968001
 20
494.0076197147937
 30
0.0
 11
857.613434968001
 21
492.7447707742749
 31
0.0
  0
LINE
  5
5E7
330
1F
100
AcDbEntity
  8
AM_0
100
AcDbLine
 10
857.613434968001
 20
495.63375617236
 30
0.0
 11
844.213434968001
 21
495.63375617236
 31
0.0
  0
LINE
  5
5E8
330
1F
100
AcDbEntity
  8
AM_0
100
AcDbLine
 10
857.6134349680009
 20
494.0076197147938
 30
0.0
 11
853.3710761134891
 21
494.0076197147939
 31
0.0
  0
LINE
  5
5EF
330
1F
100
AcDbEntity
  8
AM_0
100
AcDbLine
 10
860.913434968001
 20
497.1337561723601
 30
0.0
 11
858.5474095642165
 21
497.1337561723607
 31
0.0
  0
LINE
  5
5F0
330
1F
100
AcDbEntity
  8
AM_0
100
AcDbLine
 10
860.913434968001
 20
491.9738894317387
 30
0.0
 11
860.913434968001
 21
497.1337561723601
 31
0.0
  0
LINE
  5
5F3
330
1F
100
AcDbEntity
  8
AM_0
100
AcDbLine
 10
855.663434968001
 20
486.6337561723596
 30
0.0
 11
855.663434968001
 21
487.1337561723596
 31
0.0
  0
LINE
  5
5F4
330
1F
100
AcDbEntity
  8
AM_0
100
AcDbLine
 10
855.663434968001
 20
487.6337561723596
 30
0.0
 11
855.663434968001
 21
487.1337561723596
 31
0.0
  0
LINE
  5
5F5
330
1F
100
AcDbEntity
  8
AM_0
100
AcDbLine
 10
850.913434968001
 20
486.6337561723596
 30
0.0
 11
855.663434968001
 21
486.6337561723596
 31
0.0
  0
LINE
  5
5F6
330
1F
100
AcDbEntity
  8
AM_0
100
AcDbLine
 10
850.913434968001
 20
487.6337561723596
 30
0.0
 11
855.663434968001
 21
487.6337561723596
 31
0.0
  0
LINE
  5
5F7
330
1F
100
AcDbEntity
  8
AM_0
100
AcDbLine
 10
846.1634349680011
 20
486.6337561723596
 30
0.0
 11
846.1634349680011
 21
487.1337561723596
 31
0.0
  0
LINE
  5
5F8
330
1F
100
AcDbEntity
  8
AM_0
100
AcDbLine
 10
846.1634349680011
 20
487.6337561723596
 30
0.0
 11
846.1634349680011
 21
487.1337561723596
 31
0.0
  0
HATCH
  5
5F9
330
1F
100
AcDbEntity
  8
AM_8
100
AcDbHatch
 10
0.0
 20
0.0
 30
0.0
210
0.0
220
0.0
230
1.0
  2
SOLID
 70
     1
 71
     0
 91
        1
 92
        1
 93
        4
 72
     1
 10
846.1634349680011
 20
486.6337561723596
 11
855.663434968001
 21
486.6337561723596
 72
     1
 10
855.663434968001
 20
486.6337561723596
 11
855.663434968001
 21
487.6337561723596
 72
     1
 10
855.663434968001
 20
487.6337561723596
 11
846.1634349680011
 21
487.6337561723596
 72
     1
 10
846.1634349680011
 20
487.6337561723596
 11
846.1634349680011
 21
486.6337561723596
 97
        0
 75
     0
 76
     1
 98
        1
 10
1060.188656234109
 20
323.00532569072
1001
GENIUS_GENODEF_13
1002
{
1000
HIER
1070
     0
1002
}
1002
{
1000
MANEDIT
1070
     0
1002
}
1002
{
1000
NOSEL
1070
     0
1002
}
1002
{
1000
BEHIND
1070
     0
1002
}
1002
{
1000
REACTOR
1002
}
1001
GENIUS_GENOBJ-N-HTC_13
1002
{
1000
OWNER
1000
GEN
1002
}
1001
GENIUS_GENHATCH_13
1002
{
1000
DATA
1040
45.0
1042
2.299999999999999
1000
_U
1070
     1
1011
849.1186098468974
1021
487.4101263293625
1031
0.0
1002
}
1002
{
1000
UCS
1010
0.0
1020
0.0
1030
0.0
1010
1.0
1020
0.0
1030
0.0
1010
0.0
1020
1.0
1030
0.0
1002
}
  0
LINE
  5
5FA
330
1F
100
AcDbEntity
  8
AM_0
100
AcDbLine
 10
850.913434968001
 20
486.6337561723596
 30
0.0
 11
846.1634349680011
 21
486.6337561723596
 31
0.0
  0
LINE
  5
5FB
330
1F
100
AcDbEntity
  8
AM_0
100
AcDbLine
 10
850.913434968001
 20
487.6337561723596
 30
0.0
 11
846.1634349680011
 21
487.6337561723596
 31
0.0
  0
ARC
  5
604
330
1F
100
AcDbEntity
  8
AM_0
100
AcDbCircle
 10
870.9134349680011
 20
487.1337561723595
 30
0.0
 40
20.0
100
AcDbArc
 50
349.9213418922119
 51
10.07865810778802
  0
LINE
  5
605
330
1F
100
AcDbEntity
  8
AM_0
100
AcDbLine
 10
890.6048036355162
 20
483.6337561723595
 30
0.0
 11
874.0443666396824
 21
483.6337561723595
 31
0.0
  0
ARC
  5
606
330
1F
100
AcDbEntity
  8
AM_0
100
AcDbCircle
 10
874.0443666396824
 20
418.6337561723595
 30
0.0
 40
65.0
100
AcDbArc
 50
90.0
 51
108.6586855061106
  0
LINE
  5
607
330
1F
100
AcDbEntity
  8
AM_0
100
AcDbLine
 10
890.6048036355162
 20
490.6337561723595
 30
0.0
 11
874.0443666396824
 21
490.6337561723595
 31
0.0
  0
ARC
  5
608
330
1F
100
AcDbEntity
  8
AM_0
100
AcDbCircle
 10
874.0443666396824
 20
555.6337561723593
 30
0.0
 40
65.0
100
AcDbArc
 50
251.3413144938893
 51
270.0
  0
LINE
  5
609
330
1F
100
AcDbEntity
  8
AM_0
100
AcDbLine
 10
870.9134349680011
 20
490.7092056011983
 30
0.0
 11
870.9134349680008
 21
483.5583067435207
 31
0.0
  0
LINE
  5
60A
330
1F
100
AcDbEntity
  8
AM_0
100
AcDbLine
 10
870.9134349680011
 20
483.5583067435207
 30
0.0
 11
856.1275983716544
 21
485.3837561723595
 31
0.0
  0
LINE
  5
60B
330
1F
100
AcDbEntity
  8
AM_0
100
AcDbLine
 10
870.9134349680011
 20
490.7092056011983
 30
0.0
 11
856.1275983716544
 21
488.8837561723595
 31
0.0
  0
LINE
  5
60C
330
1F
100
AcDbEntity
  8
AM_0
100
AcDbLine
 10
856.9134349680011
 20
488.7837561723595
 30
0.0
 11
856.1601005757943
 21
488.7837561723595
 31
0.0
  0
LINE
  5
60D
330
1F
100
AcDbEntity
  8
AM_0
100
AcDbLine
 10
856.9134349680011
 20
487.1337561723595
 30
0.0
 11
856.9134349680011
 21
485.4837561723595
 31
0.0
  0
LINE
  5
60E
330
1F
100
AcDbEntity
  8
AM_0
100
AcDbLine
 10
856.9134349680011
 20
485.4837561723595
 30
0.0
 11
856.1601005757943
 21
485.4837561723595
 31
0.0
  0
LINE
  5
60F
330
1F
100
AcDbEntity
  8
AM_0
100
AcDbLine
 10
856.9134349680011
 20
487.1337561723595
 30
0.0
 11
856.9134349680011
 21
488.7837561723595
 31
0.0
  0
LINE
  5
610
330
1F
100
AcDbEntity
  8
AM_0
100
AcDbLine
 10
844.913434968001
 20
488.7837561723595
 30
0.0
 11
845.6667693602078
 21
488.7837561723595
 31
0.0
  0
LINE
  5
611
330
1F
100
AcDbEntity
  8
AM_0
100
AcDbLine
 10
844.913434968001
 20
487.1337561723595
 30
0.0
 11
844.913434968001
 21
485.4837561723595
 31
0.0
  0
LINE
  5
612
330
1F
100
AcDbEntity
  8
AM_0
100
AcDbLine
 10
844.913434968001
 20
485.4837561723595
 30
0.0
 11
845.6667693602078
 21
485.4837561723595
 31
0.0
  0
LINE
  5
613
330
1F
100
AcDbEntity
  8
AM_0
100
AcDbLine
 10
844.913434968001
 20
487.1337561723595
 30
0.0
 11
844.913434968001
 21
488.7837561723595
 31
0.0
  0
CIRCLE
  5
614
330
1F
100
AcDbEntity
  8
AM_0
100
AcDbCircle
 10
850.913434968001
 20
487.1337561723596
 30
0.0
 40
5.5
  0
ARC
  5
615
330
1F
100
AcDbEntity
  8
AM_0
100
AcDbCircle
 10
850.913434968001
 20
487.1337561723595
 30
0.0
 40
7.299999999999982
100
AcDbArc
 50
15.68824833011509
 51
344.3117516698849
  0
ARC
  5
619
330
1F
100
AcDbEntity
  8
AM_0
100
AcDbCircle
 10
859.4134349680011
 20
477.6337561723593
 30
0.0
 40
1.0
100
AcDbArc
 50
180.0
 51
210.0000000000005
1001
GENIUS_GENODEF_13
1002
{
1000
HIER
1070
     0
1002
}
1002
{
1000
MANEDIT
1070
     0
1002
}
1002
{
1000
NOSEL
1070
     0
1002
}
1002
{
1000
BEHIND
1070
     0
1002
}
1002
{
1000
REACTOR
1002
}
1001
GENIUS_GENOBJ-N-FIL_13
1002
{
1000
OWNER
1000
GEN
1002
}
  0
LINE
  5
61A
330
1F
100
AcDbEntity
  8
AM_0
100
AcDbLine
 10
858.4134349680011
 20
477.6337561723593
 30
0.0
 11
858.4134349680011
 21
477.8337561723593
 31
0.0
  0
ARC
  5
61B
330
1F
100
AcDbEntity
  8
AM_0
100
AcDbCircle
 10
857.613434968001
 20
477.8337561723593
 30
0.0
 40
0.8
100
AcDbArc
 50
0.0000000000065138
 51
90.0
1001
GENIUS_GENODEF_13
1002
{
1000
HIER
1070
     0
1002
}
1002
{
1000
MANEDIT
1070
     0
1002
}
1002
{
1000
NOSEL
1070
     0
1002
}
1002
{
1000
BEHIND
1070
     0
1002
}
1002
{
1000
REACTOR
1002
}
1001
GENIUS_GENOBJ-N-FIL_13
1002
{
1000
OWNER
1000
GEN
1002
}
  0
LINE
  5
61C
330
1F
100
AcDbEntity
  8
AM_0
100
AcDbLine
 10
860.913434968001
 20
477.1337561723593
 30
0.0
 11
858.5474095642167
 21
477.1337561723593
 31
0.0
  0
LINE
  5
620
330
1F
100
AcDbEntity
  8
AM_0
100
AcDbLine
 10
860.913434968001
 20
482.2936229129807
 30
0.0
 11
860.913434968001
 21
477.1337561723593
 31
0.0
  0
LINE
  5
623
330
1F
100
AcDbEntity
  8
AM_0
100
AcDbLine
 10
858.4134349680011
 20
477.8337561723595
 30
0.0
 11
857.613434968001
 21
480.2598926299256
 31
0.0
  0
LINE
  5
624
330
1F
100
AcDbEntity
  8
AM_0
100
AcDbLine
 10
857.6134349680009
 20
480.2598926299256
 30
0.0
 11
853.3710761134891
 21
480.2598926299254
 31
0.0
  0
LINE
  5
625
330
1F
100
AcDbEntity
  8
AM_0
100
AcDbLine
 10
857.613434968001
 20
480.2598926299256
 30
0.0
 11
857.613434968001
 21
481.5227415704444
 31
0.0
  0
LINE
  5
626
330
1F
100
AcDbEntity
  8
AM_0
100
AcDbLine
 10
858.4134349680011
 20
477.8337561723595
 30
0.0
 11
858.4134349679997
 21
481.7263387401637
 31
0.0
  0
LINE
  5
62A
330
1F
100
AcDbEntity
  8
AM_0
100
AcDbLine
 10
857.613434968001
 20
478.6337561723593
 30
0.0
 11
844.213434968001
 21
478.6337561723593
 31
0.0
  0
ARC
  5
62B
330
1F
100
AcDbEntity
  8
AM_0
100
AcDbCircle
 10
842.4134349680011
 20
477.6337561723593
 30
0.0
 40
1.0
100
AcDbArc
 50
329.9999999999995
 51
0.0
1001
GENIUS_GENODEF_13
1002
{
1000
HIER
1070
     0
1002
}
1002
{
1000
MANEDIT
1070
     0
1002
}
1002
{
1000
NOSEL
1070
     0
1002
}
1002
{
1000
BEHIND
1070
     0
1002
}
1002
{
1000
REACTOR
1002
}
1001
GENIUS_GENOBJ-N-FIL_13
1002
{
1000
OWNER
1000
GEN
1002
}
  0
LINE
  5
62C
330
1F
100
AcDbEntity
  8
AM_0
100
AcDbLine
 10
843.4134349680011
 20
477.6337561723593
 30
0.0
 11
843.4134349680011
 21
477.8337561723593
 31
0.0
  0
LINE
  5
62D
330
1F
100
AcDbEntity
  8
AM_0
100
AcDbLine
 10
841.2794603717854
 20
477.1337561723593
 30
0.0
 11
843.2794603717855
 21
477.1337561723593
 31
0.0
  0
LINE
  5
633
330
1F
100
AcDbEntity
  8
AM_0
100
AcDbLine
 10
843.4134349680011
 20
477.8337561723593
 30
0.0
 11
843.4134349680011
 21
487.1337561723596
 31
0.0
  0
ARC
  5
634
330
1F
100
AcDbEntity
  8
AM_0
100
AcDbCircle
 10
844.213434968001
 20
477.8337561723593
 30
0.0
 40
0.8
100
AcDbArc
 50
90.0
 51
180.0
1001
GENIUS_GENODEF_13
1002
{
1000
HIER
1070
     0
1002
}
1002
{
1000
MANEDIT
1070
     0
1002
}
1002
{
1000
NOSEL
1070
     0
1002
}
1002
{
1000
BEHIND
1070
     0
1002
}
1002
{
1000
REACTOR
1002
}
1001
GENIUS_GENOBJ-N-FIL_13
1002
{
1000
OWNER
1000
GEN
1002
}
  0
LINE
  5
635
330
1F
100
AcDbEntity
  8
AM_0
100
AcDbLine
 10
844.213434968001
 20
480.2598926299256
 30
0.0
 11
843.4134349680011
 21
477.8337561723593
 31
0.0
  0
LINE
  5
636
330
1F
100
AcDbEntity
  8
AM_0
100
AcDbLine
 10
844.213434968001
 20
480.2598926299256
 30
0.0
 11
844.213434968001
 21
484.2354808231215
 31
0.0
  0
LINE
  5
637
330
1F
100
AcDbEntity
  8
AM_0
100
AcDbLine
 10
848.4557938225128
 20
480.2598926299255
 30
0.0
 11
844.2134349680012
 21
480.2598926299256
 31
0.0
  0
LINE
  5
651
330
1F
100
AcDbEntity
  8
AM_0
100
AcDbLine
 10
860.913434968001
 20
440.1454304096504
 30
0.0
 11
860.913434968001
 21
439.1454304096504
 31
0.0
  0
LINE
  5
656
330
1F
100
AcDbEntity
  8
AM_0
100
AcDbLine
 10
860.913434968001
 20
424.1454304096505
 30
0.0
 11
860.913434968001
 21
425.1454304096505
 31
0.0
  0
LINE
  5
6CA
330
1F
100
AcDbEntity
  8
AM_0
100
AcDbLine
 10
860.913434968001
 20
442.1454304096505
 30
0.0
 11
858.5474095642167
 21
442.1454304096505
 31
0.0
  0
LINE
  5
6CB
330
1F
100
AcDbEntity
  8
AM_0
100
AcDbLine
 10
860.913434968001
 20
440.1454304096504
 30
0.0
 11
860.913434968001
 21
439.1454304096504
 31
0.0
  0
LINE
  5
6CD
330
1F
100
AcDbEntity
  8
AM_0
100
AcDbLine
 10
858.4134349680011
 20
441.4454304096504
 30
0.0
 11
858.4134349680011
 21
441.6454304096505
 31
0.0
  0
ARC
  5
6CF
330
1F
100
AcDbEntity
  8
AM_0
100
AcDbCircle
 10
859.4134349680011
 20
441.6454304096505
 30
0.0
 40
1.0
100
AcDbArc
 50
149.9999999999966
 51
180.0
1001
GENIUS_GENODEF_13
1002
{
1000
HIER
1070
     0
1002
}
1002
{
1000
MANEDIT
1070
     0
1002
}
1002
{
1000
NOSEL
1070
     0
1002
}
1002
{
1000
BEHIND
1070
     0
1002
}
1002
{
1000
REACTOR
1002
}
1001
GENIUS_GENOBJ-N-FIL_13
1002
{
1000
OWNER
1000
GEN
1002
}
  0
LINE
  5
6D0
330
1F
100
AcDbEntity
  8
AM_0
100
AcDbLine
 10
860.913434968001
 20
432.1454304096504
 30
0.0
 11
860.913434968001
 21
442.1454304096505
 31
0.0
  0
ARC
  5
6D8
330
1F
100
AcDbEntity
  8
AM_0
100
AcDbCircle
 10
857.613434968001
 20
441.4454304096504
 30
0.0
 40
0.8
100
AcDbArc
 50
180.0
 51
269.9999999999935
1001
GENIUS_GENODEF_13
1002
{
1000
HIER
1070
     0
1002
}
1002
{
1000
MANEDIT
1070
     0
1002
}
1002
{
1000
NOSEL
1070
     0
1002
}
1002
{
1000
BEHIND
1070
     0
1002
}
1002
{
1000
REACTOR
1002
}
1001
GENIUS_GENOBJ-N-FIL_13
1002
{
1000
OWNER
1000
GEN
1002
}
  0
LINE
  5
6D9
330
1F
100
AcDbEntity
  8
AM_0
100
AcDbLine
 10
857.613434968001
 20
440.6454304096503
 30
0.0
 11
857.613434968001
 21
440.6454304096504
 31
0.0
  0
ARC
  5
6FD
330
1F
100
AcDbEntity
  8
AM_0
100
AcDbCircle
 10
857.613434968001
 20
441.4454304096504
 30
0.0
 40
0.8
100
AcDbArc
 50
270.0
 51
0.0
1001
GENIUS_GENODEF_13
1002
{
1000
HIER
1070
     0
1002
}
1002
{
1000
MANEDIT
1070
     0
1002
}
1002
{
1000
NOSEL
1070
     0
1002
}
1002
{
1000
BEHIND
1070
     0
1002
}
1002
{
1000
REACTOR
1002
}
1001
GENIUS_GENOBJ-N-FIL_13
1002
{
1000
OWNER
1000
GEN
1002
}
  0
ARC
  5
70A
330
1F
100
AcDbEntity
  8
AM_0
100
AcDbCircle
 10
859.4134349680011
 20
422.6454304096504
 30
0.0
 40
1.0
100
AcDbArc
 50
180.0
 51
210.0000000000005
1001
GENIUS_GENODEF_13
1002
{
1000
HIER
1070
     0
1002
}
1002
{
1000
MANEDIT
1070
     0
1002
}
1002
{
1000
NOSEL
1070
     0
1002
}
1002
{
1000
BEHIND
1070
     0
1002
}
1002
{
1000
REACTOR
1002
}
1001
GENIUS_GENOBJ-N-FIL_13
1002
{
1000
OWNER
1000
GEN
1002
}
  0
LINE
  5
70B
330
1F
100
AcDbEntity
  8
AM_0
100
AcDbLine
 10
858.4134349680011
 20
422.6454304096504
 30
0.0
 11
858.4134349680011
 21
422.8454304096504
 31
0.0
  0
LINE
  5
70C
330
1F
100
AcDbEntity
  8
AM_0
100
AcDbLine
 10
860.913434968001
 20
422.1454304096504
 30
0.0
 11
858.5474095642167
 21
422.1454304096504
 31
0.0
  0
LINE
  5
70D
330
1F
100
AcDbEntity
  8
AM_0
100
AcDbLine
 10
860.913434968001
 20
425.1454304096505
 30
0.0
 11
860.913434968001
 21
422.1454304096504
 31
0.0
  0
LINE
  5
70E
330
1F
100
AcDbEntity
  8
AM_0
100
AcDbLine
 10
860.913434968001
 20
424.1454304096505
 30
0.0
 11
860.913434968001
 21
432.1454304096504
 31
0.0
  0
ARC
  5
718
330
1F
100
AcDbEntity
  8
AM_0
100
AcDbCircle
 10
857.613434968001
 20
422.8454304096504
 30
0.0
 40
0.8
100
AcDbArc
 50
0.0000000000065138
 51
90.0
1001
GENIUS_GENODEF_13
1002
{
1000
HIER
1070
     0
1002
}
1002
{
1000
MANEDIT
1070
     0
1002
}
1002
{
1000
NOSEL
1070
     0
1002
}
1002
{
1000
BEHIND
1070
     0
1002
}
1002
{
1000
REACTOR
1002
}
1001
GENIUS_GENOBJ-N-FIL_13
1002
{
1000
OWNER
1000
GEN
1002
}
  0
LINE
  5
721
330
1F
100
AcDbEntity
  8
AM_0
100
AcDbLine
 10
856.8134349680011
 20
442.6454304096502
 30
0.0
 11
856.8134349680011
 21
441.4454304096504
 31
0.0
  0
LINE
  5
726
330
1F
100
AcDbEntity
  8
AM_7
100
AcDbLine
 10
850.9134349680017
 20
461.1454304096502
 30
0.0
 11
850.9134349680017
 21
422.1454304096504
 31
0.0
1001
GENIUS_GENODEF_13
1002
{
1000
HIER
1070
     0
1002
}
1002
{
1000
MANEDIT
1070
     0
1002
}
1002
{
1000
NOSEL
1070
     0
1002
}
1002
{
1000
BEHIND
1070
     0
1002
}
1002
{
1000
REACTOR
1002
}
1001
GENIUS_GENOBJ-N-CEN_13
1002
{
1000
OWNER
1000
GEN
1002
}
  0
ARC
  5
764
330
1F
100
AcDbEntity
  8
AM_0
100
AcDbCircle
 10
844.213434968001
 20
441.4454304096504
 30
0.0
 40
0.8
100
AcDbArc
 50
270.0
 51
0.0
1001
GENIUS_GENODEF_13
1002
{
1000
HIER
1070
     0
1002
}
1002
{
1000
MANEDIT
1070
     0
1002
}
1002
{
1000
NOSEL
1070
     0
1002
}
1002
{
1000
BEHIND
1070
     0
1002
}
1002
{
1000
REACTOR
1002
}
1001
GENIUS_GENOBJ-N-FIL_13
1002
{
1000
OWNER
1000
GEN
1002
}
  0
LINE
  5
765
330
1F
100
AcDbEntity
  8
AM_0
100
AcDbLine
 10
844.213434968001
 20
440.6454304096504
 30
0.0
 11
844.213434968001
 21
440.6454304096504
 31
0.0
  0
LINE
  5
766
330
1F
100
AcDbEntity
  8
AM_0
100
AcDbLine
 10
843.4134349680011
 20
441.4454304096504
 30
0.0
 11
843.4134349680011
 21
441.6454304096505
 31
0.0
  0
ARC
  5
767
330
1F
100
AcDbEntity
  8
AM_0
100
AcDbCircle
 10
844.2134349680012
 20
441.4454304096504
 30
0.0
 40
0.8
100
AcDbArc
 50
180.0
 51
269.9999999999935
1001
GENIUS_GENODEF_13
1002
{
1000
HIER
1070
     0
1002
}
1002
{
1000
MANEDIT
1070
     0
1002
}
1002
{
1000
NOSEL
1070
     0
1002
}
1002
{
1000
BEHIND
1070
     0
1002
}
1002
{
1000
REACTOR
1002
}
1001
GENIUS_GENOBJ-N-FIL_13
1002
{
1000
OWNER
1000
GEN
1002
}
  0
ARC
  5
768
330
1F
100
AcDbEntity
  8
AM_0
100
AcDbCircle
 10
842.4134349680011
 20
441.6454304096505
 30
0.0
 40
1.0
100
AcDbArc
 50
0.0
 51
30.00000000000336
1001
GENIUS_GENODEF_13
1002
{
1000
HIER
1070
     0
1002
}
1002
{
1000
MANEDIT
1070
     0
1002
}
1002
{
1000
NOSEL
1070
     0
1002
}
1002
{
1000
BEHIND
1070
     0
1002
}
1002
{
1000
REACTOR
1002
}
1001
GENIUS_GENOBJ-N-FIL_13
1002
{
1000
OWNER
1000
GEN
1002
}
  0
LINE
  5
776
330
1F
100
AcDbEntity
  8
AM_0
100
AcDbLine
 10
841.2794603717854
 20
442.1454304096504
 30
0.0
 11
843.2794603717855
 21
442.1454304096505
 31
0.0
  0
ARC
  5
779
330
1F
100
AcDbEntity
  8
AM_0
100
AcDbCircle
 10
842.4134349680011
 20
422.6454304096504
 30
0.0
 40
1.0
100
AcDbArc
 50
329.9999999999995
 51
0.0
1001
GENIUS_GENODEF_13
1002
{
1000
HIER
1070
     0
1002
}
1002
{
1000
MANEDIT
1070
     0
1002
}
1002
{
1000
NOSEL
1070
     0
1002
}
1002
{
1000
BEHIND
1070
     0
1002
}
1002
{
1000
REACTOR
1002
}
1001
GENIUS_GENOBJ-N-FIL_13
1002
{
1000
OWNER
1000
GEN
1002
}
  0
LINE
  5
77A
330
1F
100
AcDbEntity
  8
AM_0
100
AcDbLine
 10
843.4134349680011
 20
422.6454304096504
 30
0.0
 11
843.4134349680011
 21
422.8454304096504
 31
0.0
  0
ARC
  5
77B
330
1F
100
AcDbEntity
  8
AM_0
100
AcDbCircle
 10
844.2134349680012
 20
422.8454304096504
 30
0.0
 40
0.8
100
AcDbArc
 50
90.0
 51
180.0
1001
GENIUS_GENODEF_13
1002
{
1000
HIER
1070
     0
1002
}
1002
{
1000
MANEDIT
1070
     0
1002
}
1002
{
1000
NOSEL
1070
     0
1002
}
1002
{
1000
BEHIND
1070
     0
1002
}
1002
{
1000
REACTOR
1002
}
1001
GENIUS_GENOBJ-N-FIL_13
1002
{
1000
OWNER
1000
GEN
1002
}
  0
LINE
  5
782
330
1F
100
AcDbEntity
  8
AM_0
100
AcDbLine
 10
841.2794603717854
 20
422.1454304096505
 30
0.0
 11
843.2794603717855
 21
422.1454304096504
 31
0.0
  0
LINE
  5
786
330
1F
100
AcDbEntity
  8
AM_0
100
AcDbLine
 10
845.0134349680011
 20
442.6454304096502
 30
0.0
 11
845.0134349680011
 21
441.4454304096504
 31
0.0
  0
LINE
  5
78B
330
1F
100
AcDbEntity
  8
AM_0
100
AcDbLine
 10
857.613434968001
 20
423.6454304096504
 30
0.0
 11
844.2134349680012
 21
423.6454304096504
 31
0.0
  0
LINE
  5
8F2
330
1F
100
AcDbEntity
  8
AM_0
100
AcDbLine
 10
838.9134349680016
 20
438.5954304096505
 30
0.0
 11
841.2794603717854
 21
442.1454304096505
 31
0.0
  0
LINE
  5
8F5
330
1F
100
AcDbEntity
  8
AM_0
100
AcDbLine
 10
838.9134349680016
 20
425.6954304096504
 30
0.0
 11
841.2794603717854
 21
422.1454304096505
 31
0.0
  0
LINE
  5
957
330
1F
100
AcDbEntity
  8
AM_0
100
AcDbLine
 10
841.2794603717854
 20
477.1337561723593
 30
0.0
 11
841.2794603717854
 21
497.1337561723601
 31
0.0
  0
LINE
  5
9D9
330
1F
100
AcDbEntity
  8
0
100
AcDbLine
 10
823.9134349680016
 20
423.8954304096506
 30
0.0
 11
823.9134349680009
 21
432.1454304096504
 31
0.0
  0
LINE
  5
9DA
330
1F
100
AcDbEntity
  8
0
100
AcDbLine
 10
823.9134349680018
 20
423.8954304096504
 30
0.0
 11
824.4907852371914
 21
422.8954304096502
 31
0.0
  0
LINE
  5
9DB
330
1F
100
AcDbEntity
  8
AM_0
100
AcDbLine
 10
833.3360846988117
 20
422.8954304096502
 30
0.0
 11
824.4907852371916
 21
422.8954304096502
 31
0.0
  0
LINE
  5
9DC
330
1F
100
AcDbEntity
  8
0
100
AcDbLine
 10
833.9134349680016
 20
423.8954304096504
 30
0.0
 11
833.3360846988117
 21
422.8954304096502
 31
0.0
  0
LINE
  5
9DD
330
1F
100
AcDbEntity
  8
AM_0
100
AcDbLine
 10
838.4134349680017
 20
423.8954304096504
 30
0.0
 11
833.9134349680016
 21
423.8954304096504
 31
0.0
  0
LINE
  5
9DE
330
1F
100
AcDbEntity
  8
AM_0
100
AcDbLine
 10
838.4134349680017
 20
423.8954304096504
 30
0.0
 11
838.9134349680016
 21
424.3954304096504
 31
0.0
1001
GENIUS_GENFIL_13
1070
     0
1040
0.5
1040
0.5
1040
1.0
1040
0.0
1002
{
1002
}
1001
GENIUS_GENODEF_13
1002
{
1000
HIER
1070
     0
1002
}
1002
{
1000
MANEDIT
1070
     0
1002
}
1002
{
1000
NOSEL
1070
     0
1002
}
1002
{
1000
BEHIND
1070
     0
1002
}
1002
{
1000
OTHER
1070
     0
1002
}
1002
{
1000
REACTOR
1002
}
1001
GENIUS_GENOBJ-N-CHA_13
1002
{
1000
OWNER
1000
GEN
1002
}
  0
LINE
  5
9DF
330
1F
100
AcDbEntity
  8
AM_0
100
AcDbLine
 10
838.9134349680023
 20
432.1454304096504
 30
0.0
 11
838.9134349680016
 21
424.3954304096504
 31
0.0
  0
LINE
  5
9EC
330
1F
100
AcDbEntity
  8
AM_0
100
AcDbLine
 10
838.4134349680017
 20
440.3954304096505
 30
0.0
 11
833.9134349680016
 21
440.3954304096505
 31
0.0
  0
LINE
  5
9ED
330
1F
100
AcDbEntity
  8
0
100
AcDbLine
 10
833.9134349680016
 20
440.3954304096504
 30
0.0
 11
833.3360846988119
 21
441.3954304096502
 31
0.0
  0
LINE
  5
9EE
330
1F
100
AcDbEntity
  8
AM_0
100
AcDbLine
 10
833.3360846988119
 20
441.3954304096502
 30
0.0
 11
824.4907852371913
 21
441.3954304096502
 31
0.0
  0
LINE
  5
9EF
330
1F
100
AcDbEntity
  8
0
100
AcDbLine
 10
823.9134349680018
 20
440.3954304096504
 30
0.0
 11
824.4907852371913
 21
441.3954304096502
 31
0.0
  0
LINE
  5
9F0
330
1F
100
AcDbEntity
  8
0
100
AcDbLine
 10
823.9134349680016
 20
440.3954304096502
 30
0.0
 11
823.9134349680011
 21
432.1454304096504
 31
0.0
  0
LINE
  5
A03
330
1F
100
AcDbEntity
  8
AM_0
100
AcDbLine
 10
838.9134349680023
 20
432.1454304096504
 30
0.0
 11
838.9134349680016
 21
439.8954304096505
 31
0.0
  0
LINE
  5
A04
330
1F
100
AcDbEntity
  8
AM_0
100
AcDbLine
 10
838.9134349680016
 20
439.8954304096505
 30
0.0
 11
838.4134349680017
 21
440.3954304096505
 31
0.0
1001
GENIUS_GENFIL_13
1070
     0
1040
0.5
1040
0.5
1040
1.0
1040
0.0
1002
{
1002
}
1001
GENIUS_GENODEF_13
1002
{
1000
HIER
1070
     0
1002
}
1002
{
1000
MANEDIT
1070
     0
1002
}
1002
{
1000
NOSEL
1070
     0
1002
}
1002
{
1000
BEHIND
1070
     0
1002
}
1002
{
1000
OTHER
1070
     0
1002
}
1002
{
1000
REACTOR
1002
}
1001
GENIUS_GENOBJ-N-CHA_13
1002
{
1000
OWNER
1000
GEN
1002
}
  0
LINE
  5
B0F
330
1F
100
AcDbEntity
  8
AM_0
100
AcDbLine
 10
838.4134349680017
 20
478.8837561723597
 30
0.0
 11
838.4134349680017
 21
495.3837561723597
 31
0.0
  0
LINE
  5
B10
330
1F
100
AcDbEntity
  8
AM_0
100
AcDbLine
 10
833.3360846988119
 20
479.7239500074184
 30
0.0
 11
833.3360846988119
 21
478.6337561723597
 31
0.0
  0
LINE
  5
B11
330
1F
100
AcDbEntity
  8
AM_0
100
AcDbLine
 10
824.4907852371913
 20
479.7239500074184
 30
0.0
 11
824.4907852371913
 21
478.6337561723597
 31
0.0
  0
LINE
  5
B12
330
1F
100
AcDbEntity
  8
AM_0
100
AcDbLine
 10
824.4907852371913
 20
494.5435623373009
 30
0.0
 11
824.4907852371913
 21
495.6337561723596
 31
0.0
  0
LINE
  5
B13
330
1F
100
AcDbEntity
  8
AM_0
100
AcDbLine
 10
833.3360846988119
 20
494.5435623373009
 30
0.0
 11
833.3360846988119
 21
495.6337561723596
 31
0.0
  0
LINE
  5
B14
330
1F
100
AcDbEntity
  8
AM_0
100
AcDbLine
 10
833.3360846988119
 20
488.2239500074183
 30
0.0
 11
833.3360846988119
 21
486.0435623373009
 31
0.0
  0
ARC
  5
B16
330
1F
100
AcDbEntity
  8
AM_0
100
AcDbCircle
 10
832.8353008465722
 20
482.8837561723596
 30
0.0
 40
8.922741493240854
100
AcDbArc
 50
159.2598958721971
 51
200.7401041278027
  0
ARC
  5
B17
330
1F
100
AcDbEntity
  8
AM_0
100
AcDbCircle
 10
832.8353008465722
 20
491.3837561723597
 30
0.0
 40
8.922741493240854
100
AcDbArc
 50
159.2598958721971
 51
200.7401041278027
  0
ARC
  5
B18
330
1F
100
AcDbEntity
  8
AM_0
100
AcDbCircle
 10
824.9915690894312
 20
491.3837561723597
 30
0.0
 40
8.922741493240854
100
AcDbArc
 50
339.2598958721972
 51
20.74010412780284
  0
ARC
  5
B19
330
1F
100
AcDbEntity
  8
AM_0
100
AcDbCircle
 10
824.9915690894312
 20
482.8837561723596
 30
0.0
 40
8.922741493240854
100
AcDbArc
 50
339.2598958721972
 51
20.74010412780284
  0
LINE
  5
B1A
330
1F
100
AcDbEntity
  8
AM_0
100
AcDbLine
 10
833.3360846988119
 20
494.5435623373009
 30
0.0
 11
824.4907852371913
 21
494.5435623373009
 31
0.0
  0
LINE
  5
B1B
330
1F
100
AcDbEntity
  8
AM_0
100
AcDbLine
 10
833.3360846988119
 20
488.2239500074183
 30
0.0
 11
824.4907852371914
 21
488.2239500074182
 31
0.0
  0
LINE
  5
B1C
330
1F
100
AcDbEntity
  8
AM_0
100
AcDbLine
 10
833.3360846988119
 20
486.0435623373009
 30
0.0
 11
824.4907852371914
 21
486.0435623373009
 31
0.0
  0
LINE
  5
B1D
330
1F
100
AcDbEntity
  8
AM_0
100
AcDbLine
 10
833.3360846988119
 20
479.7239500074184
 30
0.0
 11
824.4907852371913
 21
479.7239500074184
 31
0.0
  0
LINE
  5
B1E
330
1F
100
AcDbEntity
  8
AM_0
100
AcDbLine
 10
833.7690974007042
 20
478.6337561723597
 30
0.0
 11
824.0577725352991
 21
478.6337561723597
 31
0.0
  0
LINE
  5
B1F
330
1F
100
AcDbEntity
  8
AM_0
100
AcDbLine
 10
824.0577725352991
 20
495.6337561723596
 30
0.0
 11
833.7690974007042
 21
495.6337561723596
 31
0.0
  0
LINE
  5
B20
330
1F
100
AcDbEntity
  8
0
100
AcDbLine
 10
833.9134349680017
 20
478.8837561723599
 30
0.0
 11
833.9134349680017
 21
487.1337561723596
 31
0.0
  0
LINE
  5
B21
330
1F
100
AcDbEntity
  8
0
100
AcDbLine
 10
833.9134349680016
 20
478.8837561723597
 30
0.0
 11
833.7690974007042
 21
478.6337561723597
 31
0.0
  0
LINE
  5
B22
330
1F
100
AcDbEntity
  8
0
100
AcDbLine
 10
833.9134349680016
 20
495.3837561723597
 30
0.0
 11
833.7690974007042
 21
495.6337561723596
 31
0.0
  0
LINE
  5
B23
330
1F
100
AcDbEntity
  8
0
100
AcDbLine
 10
833.9134349680017
 20
495.3837561723594
 30
0.0
 11
833.9134349680017
 21
487.1337561723596
 31
0.0
  0
LINE
  5
B24
330
1F
100
AcDbEntity
  8
AM_0
100
AcDbLine
 10
838.9134349680016
 20
487.1337561723597
 30
0.0
 11
838.9134349680016
 21
479.3837561723598
 31
0.0
  0
LINE
  5
B25
330
1F
100
AcDbEntity
  8
AM_0
100
AcDbLine
 10
838.4134349680017
 20
478.8837561723597
 30
0.0
 11
833.9134349680016
 21
478.8837561723597
 31
0.0
  0
LINE
  5
B26
330
1F
100
AcDbEntity
  8
0
100
AcDbLine
 10
823.9134349680016
 20
495.3837561723594
 30
0.0
 11
823.9134349680016
 21
487.1337561723596
 31
0.0
  0
LINE
  5
B27
330
1F
100
AcDbEntity
  8
0
100
AcDbLine
 10
823.9134349680018
 20
495.3837561723597
 30
0.0
 11
824.0577725352991
 21
495.6337561723596
 31
0.0
  0
LINE
  5
B28
330
1F
100
AcDbEntity
  8
0
100
AcDbLine
 10
823.9134349680018
 20
478.8837561723597
 30
0.0
 11
824.057772535299
 21
478.6337561723597
 31
0.0
  0
LINE
  5
B29
330
1F
100
AcDbEntity
  8
0
100
AcDbLine
 10
823.9134349680016
 20
478.8837561723599
 30
0.0
 11
823.9134349680016
 21
487.1337561723596
 31
0.0
  0
LINE
  5
B37
330
1F
100
AcDbEntity
  8
AM_0
100
AcDbLine
 10
838.4134349680017
 20
495.3837561723597
 30
0.0
 11
833.9134349680016
 21
495.3837561723598
 31
0.0
  0
LINE
  5
B38
330
1F
100
AcDbEntity
  8
AM_0
100
AcDbLine
 10
838.9134349680016
 20
487.1337561723597
 30
0.0
 11
838.9134349680016
 21
494.8837561723597
 31
0.0
  0
LINE
  5
B39
330
1F
100
AcDbEntity
  8
AM_0
100
AcDbLine
 10
838.9134349680016
 20
494.8837561723597
 30
0.0
 11
838.4134349680017
 21
495.3837561723597
 31
0.0
1001
GENIUS_GENFIL_13
1070
     0
1040
0.5000000000000569
1040
0.5
1040
0.5000000000000569
1040
45.0
1000
~T
1001
GENIUS_GENOREF_13
1005
B3B
  0
LINE
  5
B3A
330
1F
100
AcDbEntity
  8
AM_0
100
AcDbLine
 10
838.4134349680017
 20
478.8837561723597
 30
0.0
 11
838.9134349680016
 21
479.3837561723598
 31
0.0
1001
GENIUS_GENFIL_13
1070
     0
1040
0.5000000000000569
1040
0.5
1040
0.5000000000000569
1040
45.0
1000
~T
1001
GENIUS_GENOREF_13
1005
0
  0
POINT
  5
B3B
330
1F
100
AcDbEntity
  8
0
 60
     1
100
AcDbPoint
 10
353.8784100318624
 20
142.736608365817
 30
0.0
1001
GENIUS_GENOENT_13
1002
{
1000
MYREF
1005
B3B
1002
}
1002
{
1000
GRP
1005
0
1002
}
1001
GENIUS_GENOBJ-N-CHA_13
1002
{
1000
OWNER
1000
GEN
1002
}
1001
GENIUS_GENODEF_13
1002
{
1000
HIER
1070
     1
1002
}
1002
{
1000
MANEDIT
1070
     0
1002
}
1002
{
1000
NOSEL
1070
     0
1002
}
1002
{
1000
BEHIND
1070
     0
1002
}
1002
{
1000
OTHER
1070
     0
1002
}
1002
{
1000
REACTOR
1002
}
1001
GENIUS_GENOLIS_13
1002
{
1000
ENT
1005
B39
1002
}
  0
LINE
  5
B3C
330
1F
100
AcDbEntity
  8
AM_0
100
AcDbLine
 10
838.9134349680011
 20
493.5837561723598
 30
0.0
 11
841.2794603717848
 21
497.1337561723597
 31
0.0
  0
LINE
  5
B3D
330
1F
100
AcDbEntity
  8
AM_0
100
AcDbLine
 10
838.9134349680011
 20
480.6837561723597
 30
0.0
 11
841.2794603717848
 21
477.1337561723598
 31
0.0
  0
LINE
  5
B4C
330
1F
100
AcDbEntity
  8
AM_7
100
AcDbLine
 10
812.5164349680016
 20
487.1337561723596
 30
0.0
 11
892.3104349680011
 21
487.1337561723595
 31
0.0
1001
GENIUS_GENODEF_13
1002
{
1000
HIER
1070
     0
1002
}
1002
{
1000
MANEDIT
1070
     0
1002
}
1002
{
1000
NOSEL
1070
     0
1002
}
1002
{
1000
BEHIND
1070
     0
1002
}
1002
{
1000
OTHER
1070
     0
1002
}
1002
{
1000
REACTOR
1002
}
1001
GENIUS_GENOBJ-N-CEN_13
1002
{
1000
OWNER
1000
GEN
1002
}
  0
LINE
  5
10FE
330
1F
100
AcDbEntity
  8
AM_0
100
AcDbLine
 10
860.913434968001
 20
424.1454304096505
 30
0.0
 11
863.713434968001
 21
424.1454304096505
 31
0.0
  0
LINE
  5
10FF
330
1F
100
AcDbEntity
  8
AM_0
100
AcDbLine
 10
863.9134349680009
 20
424.3454304096505
 30
0.0
 11
863.713434968001
 21
424.1454304096505
 31
0.0
1001
GENIUS_GENFIL_13
1070
     0
1040
0.2
1040
0.2
1040
0.2000000000000455
1040
45.00000000000407
1000
~T
1001
GENIUS_GENOREF_13
1005
111E
  0
LINE
  5
1100
330
1F
100
AcDbEntity
  8
AM_0
100
AcDbLine
 10
860.913434968001
 20
440.1454304096504
 30
0.0
 11
863.713434968001
 21
440.1454304096504
 31
0.0
  0
LINE
  5
1101
330
1F
100
AcDbEntity
  8
AM_0
100
AcDbLine
 10
863.9134349680009
 20
439.9454304096505
 30
0.0
 11
863.9134349680016
 21
432.1454304096504
 31
0.0
  0
LINE
  5
1102
330
1F
100
AcDbEntity
  8
AM_0
100
AcDbLine
 10
863.9134349680009
 20
439.9454304096505
 30
0.0
 11
863.713434968001
 21
440.1454304096504
 31
0.0
1001
GENIUS_GENFIL_13
1070
     0
1040
0.2
1040
0.2
1040
0.2000000000000455
1040
45.00000000000407
1000
~T
1001
GENIUS_GENOREF_13
1005
0
  0
LINE
  5
111D
330
1F
100
AcDbEntity
  8
AM_0
100
AcDbLine
 10
863.9134349680009
 20
424.3454304096504
 30
0.0
 11
863.9134349680015
 21
432.1454304096504
 31
0.0
  0
POINT
  5
111E
330
1F
100
AcDbEntity
  8
0
 60
     1
100
AcDbPoint
 10
595.5591504044747
 20
82.83428933818418
 30
0.0
1001
GENIUS_GENODEF_13
1002
{
1000
HIER
1070
     1
1002
}
1002
{
1000
MANEDIT
1070
     0
1002
}
1002
{
1000
NOSEL
1070
     0
1002
}
1002
{
1000
BEHIND
1070
     0
1002
}
1002
{
1000
REACTOR
1002
}
1001
GENIUS_GENOBJ-N-CHA_13
1002
{
1000
OWNER
1000
GEN
1002
}
1001
GENIUS_GENOENT_13
1002
{
1000
MYREF
1005
111E
1002
}
1002
{
1000
GRP
1005
0
1002
}
1001
GENIUS_GENOLIS_13
1002
{
1000
ENT
1005
10FF
1002
}
  0
LINE
  5
11AF
330
1F
100
AcDbEntity
  8
AM_0
100
AcDbLine
 10
860.913434968001
 20
479.1337561723596
 30
0.0
 11
863.713434968001
 21
479.1337561723596
 31
0.0
  0
LINE
  5
11B0
330
1F
100
AcDbEntity
  8
AM_0
100
AcDbLine
 10
863.9134349680009
 20
479.3337561723595
 30
0.0
 11
863.713434968001
 21
479.1337561723596
 31
0.0
1001
GENIUS_GENFIL_13
1070
     0
1040
0.2
1040
0.2
1040
0.2000000000000455
1040
45.00000000000407
1000
~T
1001
GENIUS_GENOREF_13
1005
11B5
  0
LINE
  5
11B1
330
1F
100
AcDbEntity
  8
AM_0
100
AcDbLine
 10
860.913434968001
 20
495.1337561723596
 30
0.0
 11
863.713434968001
 21
495.1337561723596
 31
0.0
  0
LINE
  5
11B2
330
1F
100
AcDbEntity
  8
AM_0
100
AcDbLine
 10
863.9134349680009
 20
494.9337561723596
 30
0.0
 11
863.9134349680011
 21
491.4281160504533
 31
0.0
  0
LINE
  5
11B3
330
1F
100
AcDbEntity
  8
AM_0
100
AcDbLine
 10
863.9134349680009
 20
494.9337561723596
 30
0.0
 11
863.713434968001
 21
495.1337561723596
 31
0.0
1001
GENIUS_GENFIL_13
1070
     0
1040
0.2
1040
0.2
1040
0.2000000000000455
1040
45.00000000000407
1000
~T
  0
LINE
  5
11B4
330
1F
100
AcDbEntity
  8
AM_0
100
AcDbLine
 10
863.9134349680009
 20
479.3337561723595
 30
0.0
 11
863.9134349680011
 21
482.8393962942656
 31
0.0
  0
POINT
  5
11B5
330
1F
100
AcDbEntity
  8
0
 60
     1
100
AcDbPoint
 10
595.5591504044747
 20
153.8265226848596
 30
0.0
1001
GENIUS_GENODEF_13
1002
{
1000
HIER
1070
     1
1002
}
1002
{
1000
MANEDIT
1070
     0
1002
}
1002
{
1000
NOSEL
1070
     0
1002
}
1002
{
1000
BEHIND
1070
     0
1002
}
1002
{
1000
REACTOR
1002
}
1001
GENIUS_GENOBJ-N-CHA_13
1002
{
1000
OWNER
1000
GEN
1002
}
1001
GENIUS_GENOENT_13
1002
{
1000
MYREF
1005
11B5
1002
}
1002
{
1000
GRP
1005
0
1002
}
1001
GENIUS_GENOLIS_13
1002
{
1000
ENT
1005
11B0
1002
}
  0
LINE
  5
11BD
330
1F
100
AcDbEntity
  8
AM_0
100
AcDbLine
 10
863.713434968001
 20
495.1337561723596
 30
0.0
 11
863.713434968001
 21
491.4599932252246
 31
0.0
  0
LINE
  5
11BE
330
1F
100
AcDbEntity
  8
AM_0
100
AcDbLine
 10
863.713434968001
 20
479.1337561723596
 30
0.0
 11
863.713434968001
 21
482.8075191194943
 31
0.0
  0
LINE
  5
1307
330
1F
100
AcDbEntity
  8
AM_7
100
AcDbLine
 10
812.5164349680016
 20
432.1454304096504
 30
0.0
 11
890.3104349680011
 21
432.1454304096504
 31
0.0
1001
GENIUS_GENODEF_13
1002
{
1000
HIER
1070
     0
1002
}
1002
{
1000
MANEDIT
1070
     0
1002
}
1002
{
1000
NOSEL
1070
     0
1002
}
1002
{
1000
BEHIND
1070
     0
1002
}
1002
{
1000
OTHER
1070
     0
1002
}
1002
{
1000
REACTOR
1002
}
1001
GENIUS_GENOBJ-N-CEN_13
1002
{
1000
OWNER
1000
GEN
1002
}
  0
LINE
  5
137B
330
1F
100
AcDbEntity
  8
AM_4
100
AcDbLine
 10
823.9134349680014
 20
425.4422429096505
 30
0.0
 11
823.0293907184462
 21
426.3262871592058
 31
0.0
  0
LINE
  5
137C
330
1F
100
AcDbEntity
  8
AM_4
100
AcDbLine
 10
823.9134349680014
 20
438.8486179096505
 30
0.0
 11
823.0293907184464
 21
437.9645736600953
 31
0.0
  0
LINE
  5
137D
330
1F
100
AcDbEntity
  8
AM_0
100
AcDbLine
 10
816.0022226217645
 20
425.6894682954703
 30
0.0
 11
823.9134349680014
 21
425.4422429096505
 31
0.0
  0
LINE
  5
137E
330
1F
100
AcDbEntity
  8
AM_4
100
AcDbLine
 10
814.4339797274195
 20
426.5948937526752
 30
0.0
 11
823.0293907184462
 21
426.3262871592057
 31
0.0
  0
LINE
  5
137F
330
1F
100
AcDbEntity
  8
AM_0
100
AcDbLine
 10
813.9134349680015
 20
426.8954304096505
 30
0.0
 11
816.0022226217645
 21
425.6894682954704
 31
0.0
  0
LINE
  5
1380
330
1F
100
AcDbEntity
  8
0
100
AcDbLine
 10
813.9134349680015
 20
432.1454304096504
 30
0.0
 11
813.9134349680015
 21
426.8954304096505
 31
0.0
  0
LINE
  5
1381
330
1F
100
AcDbEntity
  8
0
100
AcDbLine
 10
813.9134349680015
 20
432.1454304096504
 30
0.0
 11
813.9134349680015
 21
437.3954304096504
 31
0.0
  0
LINE
  5
1382
330
1F
100
AcDbEntity
  8
AM_4
100
AcDbLine
 10
814.4339797274193
 20
437.6959670666257
 30
0.0
 11
823.0293907184464
 21
437.9645736600953
 31
0.0
  0
LINE
  5
1383
330
1F
100
AcDbEntity
  8
AM_0
100
AcDbLine
 10
816.0022226217645
 20
438.6013925238305
 30
0.0
 11
823.9134349680014
 21
438.8486179096505
 31
0.0
  0
LINE
  5
1384
330
1F
100
AcDbEntity
  8
AM_0
100
AcDbLine
 10
813.9134349680015
 20
437.3954304096504
 30
0.0
 11
816.0022226217645
 21
438.6013925238306
 31
0.0
  0
LINE
  5
1385
330
1F
100
AcDbEntity
  8
AM_0
100
AcDbLine
 10
823.0293907184465
 20
432.1454304096504
 30
0.0
 11
823.0293907184464
 21
438.8209915268519
 31
0.0
  0
LINE
  5
1386
330
1F
100
AcDbEntity
  8
AM_0
100
AcDbLine
 10
816.0022226217645
 20
438.6013925238305
 30
0.0
 11
816.0022226217646
 21
432.1454304096504
 31
0.0
  0
LINE
  5
1387
330
1F
100
AcDbEntity
  8
AM_0
100
AcDbLine
 10
816.0022226217646
 20
425.6894682954703
 30
0.0
 11
816.0022226217646
 21
432.1454304096503
 31
0.0
  0
LINE
  5
1388
330
1F
100
AcDbEntity
  8
AM_0
100
AcDbLine
 10
823.0293907184462
 20
432.1454304096504
 30
0.0
 11
823.0293907184462
 21
425.4698692924491
 31
0.0
  0
LINE
  5
13D6
330
1F
100
AcDbEntity
  8
AM_4
100
AcDbLine
 10
823.9134349680014
 20
480.4305686723598
 30
0.0
 11
823.0293907184462
 21
481.314612921915
 31
0.0
  0
LINE
  5
13D7
330
1F
100
AcDbEntity
  8
AM_4
100
AcDbLine
 10
823.9134349680016
 20
493.8369436723597
 30
0.0
 11
823.0293907184465
 21
492.9528994228046
 31
0.0
  0
LINE
  5
13D8
330
1F
100
AcDbEntity
  8
AM_0
100
AcDbLine
 10
816.0022226217646
 20
480.6777940581796
 30
0.0
 11
823.9134349680014
 21
480.4305686723598
 31
0.0
  0
LINE
  5
13D9
330
1F
100
AcDbEntity
  8
AM_4
100
AcDbLine
 10
814.4339797274195
 20
481.5832195153846
 30
0.0
 11
823.0293907184462
 21
481.3146129219149
 31
0.0
  0
LINE
  5
13DA
330
1F
100
AcDbEntity
  8
AM_0
100
AcDbLine
 10
813.9134349680016
 20
481.8837561723597
 30
0.0
 11
816.0022226217646
 21
480.6777940581796
 31
0.0
  0
LINE
  5
13DB
330
1F
100
AcDbEntity
  8
0
100
AcDbLine
 10
813.9134349680016
 20
487.1337561723597
 30
0.0
 11
813.9134349680016
 21
481.8837561723597
 31
0.0
  0
LINE
  5
13DC
330
1F
100
AcDbEntity
  8
0
100
AcDbLine
 10
813.9134349680016
 20
487.1337561723597
 30
0.0
 11
813.9134349680016
 21
492.3837561723598
 31
0.0
  0
LINE
  5
13DD
330
1F
100
AcDbEntity
  8
AM_4
100
AcDbLine
 10
814.4339797274195
 20
492.6842928293349
 30
0.0
 11
823.0293907184465
 21
492.9528994228046
 31
0.0
  0
LINE
  5
13DE
330
1F
100
AcDbEntity
  8
AM_0
100
AcDbLine
 10
816.0022226217646
 20
493.5897182865398
 30
0.0
 11
823.9134349680014
 21
493.8369436723597
 31
0.0
  0
LINE
  5
13DF
330
1F
100
AcDbEntity
  8
AM_0
100
AcDbLine
 10
813.9134349680016
 20
492.3837561723598
 30
0.0
 11
816.0022226217646
 21
493.5897182865399
 31
0.0
  0
LINE
  5
13E0
330
1F
100
AcDbEntity
  8
AM_0
100
AcDbLine
 10
823.0293907184465
 20
487.1337561723596
 30
0.0
 11
823.0293907184465
 21
493.8093172895611
 31
0.0
  0
LINE
  5
13E1
330
1F
100
AcDbEntity
  8
AM_0
100
AcDbLine
 10
816.0022226217646
 20
493.5897182865398
 30
0.0
 11
816.0022226217646
 21
487.1337561723596
 31
0.0
  0
LINE
  5
13E2
330
1F
100
AcDbEntity
  8
AM_0
100
AcDbLine
 10
816.0022226217646
 20
480.6777940581796
 30
0.0
 11
816.0022226217646
 21
487.1337561723596
 31
0.0
  0
LINE
  5
13E3
330
1F
100
AcDbEntity
  8
AM_0
100
AcDbLine
 10
823.0293907184462
 20
487.1337561723596
 30
0.0
 11
823.0293907184462
 21
480.4581950551583
 31
0.0
  0
LINE
  5
1633
330
1F
100
AcDbEntity
  8
0
100
AcDbLine
 10
888.9134349680016
 20
432.1454304096504
 30
0.0
 11
888.9134349680016
 21
435.4718668654588
 31
0.0
  0
LINE
  5
1634
330
1F
100
AcDbEntity
  8
0
100
AcDbLine
 10
884.4134349680016
 20
432.1454304096504
 30
0.0
 11
884.4134349680016
 21
436.6454304096504
 31
0.0
  0
LINE
  5
1635
330
1F
100
AcDbEntity
  8
0
100
AcDbLine
 10
884.4134349680016
 20
436.6454304096504
 30
0.0
 11
888.4956344616542
 21
435.9650638273749
 31
0.0
  0
LINE
  5
1636
330
1F
100
AcDbEntity
  8
0
100
AcDbLine
 10
879.9134349680016
 20
436.6454304096504
 30
0.0
 11
884.4134349680016
 21
435.8954304096504
 31
0.0
  0
LINE
  5
1637
330
1F
100
AcDbEntity
  8
0
100
AcDbLine
 10
879.9134349680016
 20
432.1454304096504
 30
0.0
 11
879.9134349680016
 21
436.6454304096504
 31
0.0
  0
LINE
  5
1638
330
1F
100
AcDbEntity
  8
0
100
AcDbLine
 10
875.4134349680017
 20
436.6454304096504
 30
0.0
 11
879.9134349680016
 21
435.8954304096504
 31
0.0
  0
LINE
  5
1639
330
1F
100
AcDbEntity
  8
0
100
AcDbLine
 10
870.9134349680017
 20
436.6454304096504
 30
0.0
 11
875.4134349680017
 21
435.8954304096504
 31
0.0
  0
LINE
  5
163A
330
1F
100
AcDbEntity
  8
0
100
AcDbLine
 10
875.4134349680017
 20
432.1454304096504
 30
0.0
 11
875.4134349680017
 21
436.6454304096504
 31
0.0
  0
LINE
  5
163B
330
1F
100
AcDbEntity
  8
0
100
AcDbLine
 10
866.4134349680017
 20
436.6454304096504
 30
0.0
 11
870.9134349680017
 21
435.8954304096504
 31
0.0
  0
LINE
  5
163C
330
1F
100
AcDbEntity
  8
0
100
AcDbLine
 10
870.9134349680017
 20
432.1454304096504
 30
0.0
 11
870.9134349680017
 21
436.6454304096504
 31
0.0
  0
LINE
  5
163D
330
1F
100
AcDbEntity
  8
0
100
AcDbLine
 10
863.9134349680016
 20
436.6454304096504
 30
0.0
 11
866.4134349680017
 21
436.6454304096504
 31
0.0
  0
ARC
  5
163E
330
1F
100
AcDbEntity
  8
0
100
AcDbCircle
 10
888.4134349680016
 20
435.4718668654588
 30
0.0
 40
0.5
100
AcDbArc
 50
0.0
 51
80.53767779197277
1001
GENIUS_GENOREF_13
1005
0
  0
LINE
  5
1644
330
1F
100
AcDbEntity
  8
0
100
AcDbLine
 10
888.9134349680016
 20
432.1454304096504
 30
0.0
 11
888.9134349680016
 21
428.8189939538419
 31
0.0
  0
LINE
  5
1645
330
1F
100
AcDbEntity
  8
0
100
AcDbLine
 10
884.4134349680016
 20
432.1454304096504
 30
0.0
 11
884.4134349680016
 21
427.6454304096504
 31
0.0
  0
LINE
  5
1646
330
1F
100
AcDbEntity
  8
0
100
AcDbLine
 10
884.4134349680016
 20
427.6454304096504
 30
0.0
 11
888.4956344616542
 21
428.3257969919259
 31
0.0
  0
LINE
  5
1647
330
1F
100
AcDbEntity
  8
0
100
AcDbLine
 10
879.9134349680016
 20
427.6454304096504
 30
0.0
 11
884.4134349680016
 21
428.3954304096504
 31
0.0
  0
LINE
  5
1648
330
1F
100
AcDbEntity
  8
0
100
AcDbLine
 10
879.9134349680016
 20
432.1454304096504
 30
0.0
 11
879.9134349680016
 21
427.6454304096504
 31
0.0
  0
LINE
  5
1649
330
1F
100
AcDbEntity
  8
0
100
AcDbLine
 10
875.4134349680017
 20
427.6454304096504
 30
0.0
 11
879.9134349680016
 21
428.3954304096504
 31
0.0
  0
LINE
  5
164A
330
1F
100
AcDbEntity
  8
0
100
AcDbLine
 10
870.9134349680017
 20
427.6454304096504
 30
0.0
 11
875.4134349680017
 21
428.3954304096504
 31
0.0
  0
LINE
  5
164B
330
1F
100
AcDbEntity
  8
0
100
AcDbLine
 10
875.4134349680017
 20
432.1454304096504
 30
0.0
 11
875.4134349680017
 21
427.6454304096504
 31
0.0
  0
LINE
  5
164C
330
1F
100
AcDbEntity
  8
0
100
AcDbLine
 10
866.4134349680017
 20
427.6454304096504
 30
0.0
 11
870.9134349680017
 21
428.3954304096504
 31
0.0
  0
LINE
  5
164D
330
1F
100
AcDbEntity
  8
0
100
AcDbLine
 10
870.9134349680017
 20
432.1454304096504
 30
0.0
 11
870.9134349680017
 21
427.6454304096504
 31
0.0
  0
LINE
  5
164E
330
1F
100
AcDbEntity
  8
0
100
AcDbLine
 10
863.9134349680016
 20
427.6454304096504
 30
0.0
 11
866.4134349680017
 21
427.6454304096504
 31
0.0
  0
ARC
  5
164F
330
1F
100
AcDbEntity
  8
0
100
AcDbCircle
 10
888.4134349680016
 20
428.8189939538419
 30
0.0
 40
0.5
100
AcDbArc
 50
279.4623222080275
 51
0.0
  0
LINE
  5
16A0
330
1F
100
AcDbEntity
  8
0
100
AcDbLine
 10
875.4134349680013
 20
482.6337561723595
 30
0.0
 11
879.9134349680015
 21
483.3837561723595
 31
0.0
  0
LINE
  5
16A1
330
1F
100
AcDbEntity
  8
0
100
AcDbLine
 10
866.4134349680013
 20
482.6337561723595
 30
0.0
 11
870.9134349680013
 21
483.3837561723595
 31
0.0
  0
LINE
  5
16A2
330
1F
100
AcDbEntity
  8
0
100
AcDbLine
 10
863.9134349680015
 20
482.6337561723595
 30
0.0
 11
866.4134349680013
 21
482.6337561723595
 31
0.0
  0
LINE
  5
16A3
330
1F
100
AcDbEntity
  8
0
100
AcDbLine
 10
870.9134349680013
 20
482.6337561723595
 30
0.0
 11
875.4134349680013
 21
483.3837561723595
 31
0.0
  0
LINE
  5
16A4
330
1F
100
AcDbEntity
  8
0
100
AcDbLine
 10
870.9134349680013
 20
483.5583067435207
 30
0.0
 11
870.9134349680013
 21
482.6337561723595
 31
0.0
  0
LINE
  5
16A5
330
1F
100
AcDbEntity
  8
0
100
AcDbLine
 10
875.4134349680013
 20
483.6337561723595
 30
0.0
 11
875.4134349680013
 21
482.6337561723595
 31
0.0
  0
LINE
  5
16A6
330
1F
100
AcDbEntity
  8
0
100
AcDbLine
 10
884.4134349680015
 20
482.6337561723595
 30
0.0
 11
888.495634461654
 21
483.314122754635
 31
0.0
  0
LINE
  5
16A7
330
1F
100
AcDbEntity
  8
0
100
AcDbLine
 10
879.9134349680015
 20
482.6337561723595
 30
0.0
 11
884.4134349680015
 21
483.3837561723595
 31
0.0
  0
LINE
  5
16A8
330
1F
100
AcDbEntity
  8
0
100
AcDbLine
 10
879.9134349680015
 20
483.6337561723595
 30
0.0
 11
879.9134349680015
 21
482.6337561723595
 31
0.0
  0
LINE
  5
16A9
330
1F
100
AcDbEntity
  8
0
100
AcDbLine
 10
884.4134349680015
 20
483.6337561723595
 30
0.0
 11
884.4134349680015
 21
482.6337561723595
 31
0.0
  0
ARC
  5
16AB
330
1F
100
AcDbEntity
  8
0
100
AcDbCircle
 10
888.4134349680014
 20
483.807319716551
 30
0.0
 40
0.5
100
AcDbArc
 50
279.4623222080272
 51
339.6883046541764
1001
GENIUS_GENOREF_13
1005
16AD
  0
LINE
  5
16AC
330
1F
100
AcDbEntity
  8
0
100
AcDbLine
 10
866.4134349680013
 20
482.6337561723595
 30
0.0
 11
866.4134349680013
 21
483.1842703594838
 31
0.0
  0
POINT
  5
16AD
330
1F
100
AcDbEntity
  8
0
 60
     1
100
AcDbPoint
 10
839.0089619828486
 20
471.6921053822487
 30
0.0
1001
GENIUS_GENODEF_13
1002
{
1000
HIER
1070
     1
1002
}
1002
{
1000
MANEDIT
1070
     0
1002
}
1002
{
1000
NOSEL
1070
     0
1002
}
1002
{
1000
BEHIND
1070
     0
1002
}
1002
{
1000
OTHER
1070
     0
1002
}
1002
{
1000
REACTOR
1002
}
1001
GENIUS_GENOLIS_13
1002
{
1000
ENT
1005
16AB
1002
}
1001
GENIUS_GENOENT_13
1002
{
1000
MYREF
1005
16AD
1002
}
1002
{
1000
GRP
1005
0
1002
}
1001
GENIUS_GENOBJ-N-FIL_13
1002
{
1000
OWNER
1000
GEN
1002
}
  0
LINE
  5
16AE
330
1F
100
AcDbEntity
  8
0
100
AcDbLine
 10
875.4134349680013
 20
491.6337561723595
 30
0.0
 11
879.9134349680015
 21
490.8837561723595
 31
0.0
  0
LINE
  5
16AF
330
1F
100
AcDbEntity
  8
0
100
AcDbLine
 10
866.4134349680013
 20
491.6337561723595
 30
0.0
 11
870.9134349680013
 21
490.8837561723595
 31
0.0
  0
LINE
  5
16B0
330
1F
100
AcDbEntity
  8
0
100
AcDbLine
 10
863.9134349680015
 20
491.6337561723595
 30
0.0
 11
866.4134349680013
 21
491.6337561723595
 31
0.0
  0
LINE
  5
16B1
330
1F
100
AcDbEntity
  8
0
100
AcDbLine
 10
870.9134349680013
 20
491.6337561723595
 30
0.0
 11
875.4134349680013
 21
490.8837561723595
 31
0.0
  0
LINE
  5
16B2
330
1F
100
AcDbEntity
  8
0
100
AcDbLine
 10
875.4134349680013
 20
490.6337561723595
 30
0.0
 11
875.4134349680013
 21
491.6337561723595
 31
0.0
  0
LINE
  5
16B3
330
1F
100
AcDbEntity
  8
0
100
AcDbLine
 10
884.4134349680015
 20
491.6337561723595
 30
0.0
 11
888.495634461654
 21
490.9533895900841
 31
0.0
  0
LINE
  5
16B4
330
1F
100
AcDbEntity
  8
0
100
AcDbLine
 10
879.9134349680015
 20
491.6337561723595
 30
0.0
 11
884.4134349680015
 21
490.8837561723595
 31
0.0
  0
LINE
  5
16B5
330
1F
100
AcDbEntity
  8
0
100
AcDbLine
 10
879.9134349680015
 20
490.6337561723595
 30
0.0
 11
879.9134349680015
 21
491.6337561723595
 31
0.0
  0
LINE
  5
16B6
330
1F
100
AcDbEntity
  8
0
100
AcDbLine
 10
884.4134349680015
 20
490.6337561723595
 30
0.0
 11
884.4134349680015
 21
491.6337561723595
 31
0.0
  0
ARC
  5
16B7
330
1F
100
AcDbEntity
  8
0
100
AcDbCircle
 10
888.4134349680014
 20
490.460192628168
 30
0.0
 40
0.5
100
AcDbArc
 50
20.31169534582306
 51
80.53767779197256
1001
GENIUS_GENOREF_13
1005
16B9
  0
LINE
  5
16B8
330
1F
100
AcDbEntity
  8
0
100
AcDbLine
 10
866.4134349680013
 20
491.6337561723595
 30
0.0
 11
866.4134349680013
 21
491.0832419852352
 31
0.0
  0
POINT
  5
16B9
330
1F
100
AcDbEntity
  8
0
 60
     1
100
AcDbPoint
 10
839.0089619828486
 20
534.583222130403
 30
0.0
1001
GENIUS_GENODEF_13
1002
{
1000
HIER
1070
     1
1002
}
1002
{
1000
MANEDIT
1070
     0
1002
}
1002
{
1000
NOSEL
1070
     0
1002
}
1002
{
1000
BEHIND
1070
     0
1002
}
1002
{
1000
OTHER
1070
     0
1002
}
1002
{
1000
REACTOR
1002
}
1001
GENIUS_GENOLIS_13
1002
{
1000
ENT
1005
16B7
1002
}
1001
GENIUS_GENOENT_13
1002
{
1000
MYREF
1005
16B9
1002
}
1002
{
1000
GRP
1005
0
1002
}
1001
GENIUS_GENOBJ-N-FIL_13
1002
{
1000
OWNER
1000
GEN
1002
}
  0
LINE
  5
16BA
330
1F
100
AcDbEntity
  8
0
100
AcDbLine
 10
870.9134349680013
 20
490.7092056011983
 30
0.0
 11
870.9134349680013
 21
491.6337561723595
 31
0.0
  0
LINE
  5
1828
330
1F
100
AcDbEntity
  8
AM_0
100
AcDbLine
 10
890.9134349680018
 20
460.6454304096502
 30
0.0
 11
890.9134349680018
 21
455.6454304096502
 31
0.0
  0
LINE
  5
1829
330
1F
100
AcDbEntity
  8
AM_0
100
AcDbLine
 10
845.4134349680018
 20
458.6454304096502
 30
0.0
 11
856.4134349680017
 21
458.6454304096502
 31
0.0
  0
LINE
  5
182A
330
1F
100
AcDbEntity
  8
AM_0
100
AcDbLine
 10
845.4134349680018
 20
458.6454304096502
 30
0.0
 11
843.6134349680017
 21
450.6454304096502
 31
0.0
  0
LINE
  5
182B
330
1F
100
AcDbEntity
  8
AM_0
100
AcDbLine
 10
843.6134349680017
 20
442.6454304096502
 30
0.0
 11
843.6134349680017
 21
450.6454304096502
 31
0.0
  0
LINE
  5
182C
330
1F
100
AcDbEntity
  8
AM_0
100
AcDbLine
 10
858.2134349680018
 20
442.6454304096502
 30
0.0
 11
843.6134349680017
 21
442.6454304096502
 31
0.0
  0
ARC
  5
182D
330
1F
100
AcDbEntity
  8
AM_0
100
AcDbCircle
 10
862.2134349680019
 20
443.5203561521516
 30
0.0
 40
4.0
100
AcDbArc
 50
112.5150954490926
 51
180.0
1001
GENIUS_GENODEF_13
1002
{
1000
HIER
1070
     0
1002
}
1002
{
1000
MANEDIT
1070
     0
1002
}
1002
{
1000
NOSEL
1070
     0
1002
}
1002
{
1000
BEHIND
1070
     0
1002
}
1002
{
1000
REACTOR
1002
}
1001
GENIUS_GENOBJ-N-FIL_13
1002
{
1000
OWNER
1000
GEN
1002
}
1001
GENIUS_GENOREF_13
1005
1877
  0
LINE
  5
182E
330
1F
100
AcDbEntity
  8
AM_0
100
AcDbLine
 10
858.2134349680018
 20
443.5203561521516
 30
0.0
 11
858.2134349680018
 21
442.6454304096502
 31
0.0
  0
ARC
  5
182F
330
1F
100
AcDbEntity
  8
AM_0
100
AcDbCircle
 10
877.9134349680017
 20
405.6454304096502
 30
0.0
 40
45.0
100
AcDbArc
 50
90.0
 51
112.5150954490926
1001
GENIUS_GENOREF_13
1005
0
  0
LINE
  5
1830
330
1F
100
AcDbEntity
  8
AM_0
100
AcDbLine
 10
885.9134349680017
 20
450.6454304096502
 30
0.0
 11
877.9134349680017
 21
450.6454304096502
 31
0.0
  0
ARC
  5
1831
330
1F
100
AcDbEntity
  8
AM_0
100
AcDbCircle
 10
885.9134349680017
 20
455.6454304096502
 30
0.0
 40
5.0
100
AcDbArc
 50
270.0
 51
0.0
1001
GENIUS_GENODEF_13
1002
{
1000
HIER
1070
     0
1002
}
1002
{
1000
MANEDIT
1070
     0
1002
}
1002
{
1000
NOSEL
1070
     0
1002
}
1002
{
1000
BEHIND
1070
     0
1002
}
1002
{
1000
REACTOR
1002
}
1001
GENIUS_GENOBJ-N-FIL_13
1002
{
1000
OWNER
1000
GEN
1002
}
1001
GENIUS_GENOREF_13
1005
1876
  0
LINE
  5
1832
330
1F
100
AcDbEntity
  8
AM_0
100
AcDbLine
 10
870.9134349680017
 20
460.6454304096502
 30
0.0
 11
890.9134349680018
 21
460.6454304096502
 31
0.0
  0
ARC
  5
1833
330
1F
100
AcDbEntity
  8
AM_0
100
AcDbCircle
 10
864.9134349680018
 20
460.6454304096502
 30
0.0
 40
6.0
100
AcDbArc
 50
270.0
 51
0.0
1001
GENIUS_GENODEF_13
1002
{
1000
HIER
1070
     0
1002
}
1002
{
1000
MANEDIT
1070
     0
1002
}
1002
{
1000
NOSEL
1070
     0
1002
}
1002
{
1000
BEHIND
1070
     0
1002
}
1002
{
1000
REACTOR
1002
}
1001
GENIUS_GENOBJ-N-FIL_13
1002
{
1000
OWNER
1000
GEN
1002
}
1001
GENIUS_GENOREF_13
1005
1875
1005
1874
  0
LINE
  5
1834
330
1F
100
AcDbEntity
  8
AM_0
100
AcDbLine
 10
870.9134349680017
 20
460.6454304096502
 30
0.0
 11
870.9134349680018
 21
460.6454304096502
 31
0.0
  0
ARC
  5
1835
330
1F
100
AcDbEntity
  8
AM_0
100
AcDbCircle
 10
864.4134349680017
 20
464.6454304096502
 30
0.0
 40
10.0
100
AcDbArc
 50
216.8698976458401
 51
270.0
1001
GENIUS_GENOREF_13
1005
1873
  0
LINE
  5
1836
330
1F
100
AcDbEntity
  8
AM_0
100
AcDbLine
 10
864.4134349680017
 20
454.6454304096502
 30
0.0
 11
864.9134349680018
 21
454.6454304096502
 31
0.0
  0
LINE
  5
1837
330
1F
100
AcDbEntity
  8
AM_0
100
AcDbLine
 10
870.9134349680018
 20
451.6454304096503
 30
0.0
 11
853.2489232280747
 21
451.6454304096503
 31
0.0
  0
LINE
  5
1838
330
1F
100
AcDbEntity
  8
AM_0
100
AcDbLine
 10
856.4134349680017
 20
458.6454304096502
 30
0.0
 11
857.9884349680016
 21
451.6454304096503
 31
0.0
  0
LINE
  5
1839
330
1F
100
AcDbEntity
  8
AM_0
100
AcDbLine
 10
870.9134349680018
 20
451.6454304096503
 30
0.0
 11
871.9134349680016
 21
450.6454304096503
 31
0.0
  0
LINE
  5
183A
330
1F
100
AcDbEntity
  8
AM_0
100
AcDbLine
 10
871.9134349680016
 20
450.6454304096503
 30
0.0
 11
877.9134349680017
 21
450.6454304096502
 31
0.0
  0
ARC
  5
183B
330
1F
100
AcDbEntity
  8
AM_0
100
AcDbCircle
 10
850.9134349680017
 20
409.0787637429831
 30
0.0
 40
50.566666666667
100
AcDbArc
 50
83.75573907576622
 51
96.24426092423377
  0
LINE
  5
183C
330
1F
100
AcDbEntity
  8
AM_0
100
AcDbLine
 10
845.4134349680018
 20
458.6454304096502
 30
0.0
 11
856.4134349680019
 21
458.6454304096502
 31
0.0
  0
LINE
  5
183D
330
1F
100
AcDbEntity
  8
AM_0
100
AcDbLine
 10
844.9134349680017
 20
458.6454304096502
 30
0.0
 11
846.5634349680016
 21
458.6454304096502
 31
0.0
  0
LINE
  5
183E
330
1F
100
AcDbEntity
  8
AM_0
100
AcDbLine
 10
845.4134349680019
 20
459.3454304096503
 30
0.0
 11
844.9134349680017
 21
459.3454304096501
 31
0.0
  0
LINE
  5
183F
330
1F
100
AcDbEntity
  8
AM_0
100
AcDbLine
 10
844.9134349680017
 20
459.3454304096501
 30
0.0
 11
844.9134349680017
 21
458.6454304096502
 31
0.0
  0
LINE
  5
1840
330
1F
100
AcDbEntity
  8
AM_0
100
AcDbLine
 10
855.2634349680017
 20
458.6454304096502
 30
0.0
 11
856.9134349680016
 21
458.6454304096502
 31
0.0
  0
LINE
  5
1841
330
1F
100
AcDbEntity
  8
AM_0
100
AcDbLine
 10
856.9134349680016
 20
459.3454304096503
 30
0.0
 11
856.4134349680013
 21
459.3454304096503
 31
0.0
  0
LINE
  5
1842
330
1F
100
AcDbEntity
  8
AM_0
100
AcDbLine
 10
856.9134349680016
 20
458.6454304096502
 30
0.0
 11
856.9134349680016
 21
459.3454304096503
 31
0.0
  0
MTEXT
  5
1843
330
1F
100
AcDbEntity
  8
AM_0
100
AcDbMText
 10
900.6816560854678
 20
488.3385244174653
 30
0.0
 40
1.6
 41
40.27229753499568
 71
     1
 72
     5
  1
{\fMS Gothic|b0|i0|c128|p49;エースボールRV　ストレート　BH-7209}
 73
     1
 44
1.0
1001
ACAD
1000
ACAD_MTEXT_COLUMN_INFO_BEGIN
1070
    75
1070
     2
1070
    79
1070
     0
1070
    76
1070
     1
1070
    78
1070
     0
1070
    48
1040
40.27229753499568
1070
    49
1040
7.5
1070
    50
1070
     1
1040
0.0
1000
ACAD_MTEXT_COLUMN_INFO_END
1000
MTEXTBEGIN
1070
    73
1070
     1
1070
    44
1040
1.0
1070
    74
1070
     0
1000
MTEXTEND
  0
LINE
  5
1844
330
1F
100
AcDbEntity
  8
AM_0
100
AcDbLine
 10
923.3479165995618
 20
459.8316913687613
 30
0.0
 11
923.3479165995618
 21
451.4591694505391
 31
0.0
  0
LINE
  5
1845
330
1F
100
AcDbEntity
  8
AM_0
100
AcDbLine
 10
916.3479165995617
 20
451.4591694505391
 30
0.0
 11
916.3479165995617
 21
459.8316913687613
 31
0.0
  0
LINE
  5
1846
330
1F
100
AcDbEntity
  8
AM_0
100
AcDbLine
 10
925.3479165995617
 20
458.6454304096502
 30
0.0
 11
923.3479165995618
 21
458.6454304096502
 31
0.0
  0
LINE
  5
1847
330
1F
100
AcDbEntity
  8
AM_0
100
AcDbLine
 10
925.3479165995617
 20
458.6454304096502
 30
0.0
 11
927.1479165995618
 21
450.6454304096502
 31
0.0
  0
LINE
  5
1848
330
1F
100
AcDbEntity
  8
AM_0
100
AcDbLine
 10
927.1479165995618
 20
450.6454304096502
 30
0.0
 11
927.1479165995618
 21
442.6454304096502
 31
0.0
  0
LINE
  5
1849
330
1F
100
AcDbEntity
  8
AM_0
100
AcDbLine
 10
927.1479165995618
 20
442.6454304096502
 30
0.0
 11
919.8479165995617
 21
442.6454304096502
 31
0.0
  0
LINE
  5
184A
330
1F
100
AcDbEntity
  8
AM_0
100
AcDbLine
 10
926.7642374847621
 20
443.5203561521516
 30
0.0
 11
923.2804556356711
 21
451.2083508263473
 31
0.0
  0
LINE
  5
184B
330
1F
100
AcDbEntity
  8
AM_0
100
AcDbLine
 10
926.7642374847621
 20
443.5203561521516
 30
0.0
 11
926.7642374847621
 21
442.6454304096502
 31
0.0
  0
LINE
  5
184C
330
1F
100
AcDbEntity
  8
AM_0
100
AcDbLine
 10
923.3479165995618
 20
451.6454304096503
 30
0.0
 11
926.7642374847621
 21
451.6454304096503
 31
0.0
  0
ARC
  5
184D
330
1F
100
AcDbEntity
  8
AM_0
100
AcDbCircle
 10
919.8479165995617
 20
465.6454304096501
 30
0.0
 40
15.0
100
AcDbArc
 50
258.0594560393951
 51
281.9405439606049
1001
GENIUS_GENOREF_13
1005
0
  0
ARC
  5
184E
330
1F
100
AcDbEntity
  8
AM_0
100
AcDbCircle
 10
919.8479165995617
 20
445.6454304096502
 30
0.0
 40
15.0
100
AcDbArc
 50
78.05945603939507
 51
101.9405439606049
1001
GENIUS_GENOREF_13
1005
0
  0
ARC
  5
184F
330
1F
100
AcDbEntity
  8
AM_0
100
AcDbCircle
 10
922.8479165995619
 20
459.8316913687613
 30
0.0
 40
0.5
100
AcDbArc
 50
0.0
 51
78.05945603938869
1001
GENIUS_GENODEF_13
1002
{
1000
HIER
1070
     0
1002
}
1002
{
1000
MANEDIT
1070
     0
1002
}
1002
{
1000
NOSEL
1070
     0
1002
}
1002
{
1000
BEHIND
1070
     0
1002
}
1002
{
1000
REACTOR
1002
}
1001
GENIUS_GENOBJ-N-FIL_13
1002
{
1000
OWNER
1000
GEN
1002
}
1001
GENIUS_GENOREF_13
1005
0
  0
ARC
  5
1850
330
1F
100
AcDbEntity
  8
AM_0
100
AcDbCircle
 10
916.8479165995618
 20
459.8316913687613
 30
0.0
 40
0.5
100
AcDbArc
 50
101.9405439606113
 51
180.0
1001
GENIUS_GENODEF_13
1002
{
1000
HIER
1070
     0
1002
}
1002
{
1000
MANEDIT
1070
     0
1002
}
1002
{
1000
NOSEL
1070
     0
1002
}
1002
{
1000
BEHIND
1070
     0
1002
}
1002
{
1000
REACTOR
1002
}
1001
GENIUS_GENOBJ-N-FIL_13
1002
{
1000
OWNER
1000
GEN
1002
}
1001
GENIUS_GENOREF_13
1005
0
  0
ARC
  5
1851
330
1F
100
AcDbEntity
  8
AM_0
100
AcDbCircle
 10
916.8479165995618
 20
451.4591694505391
 30
0.0
 40
0.5
100
AcDbArc
 50
180.0
 51
258.0594560393887
1001
GENIUS_GENODEF_13
1002
{
1000
HIER
1070
     0
1002
}
1002
{
1000
MANEDIT
1070
     0
1002
}
1002
{
1000
NOSEL
1070
     0
1002
}
1002
{
1000
BEHIND
1070
     0
1002
}
1002
{
1000
REACTOR
1002
}
1001
GENIUS_GENOBJ-N-FIL_13
1002
{
1000
OWNER
1000
GEN
1002
}
1001
GENIUS_GENOREF_13
1005
1879
  0
ARC
  5
1852
330
1F
100
AcDbEntity
  8
AM_0
100
AcDbCircle
 10
922.8479165995619
 20
451.4591694505391
 30
0.0
 40
0.5
100
AcDbArc
 50
281.9405439606113
 51
0.0
1001
GENIUS_GENODEF_13
1002
{
1000
HIER
1070
     0
1002
}
1002
{
1000
MANEDIT
1070
     0
1002
}
1002
{
1000
NOSEL
1070
     0
1002
}
1002
{
1000
BEHIND
1070
     0
1002
}
1002
{
1000
REACTOR
1002
}
1001
GENIUS_GENOBJ-N-FIL_13
1002
{
1000
OWNER
1000
GEN
1002
}
1001
GENIUS_GENOREF_13
1005
1878
  0
LINE
  5
1853
330
1F
100
AcDbEntity
  8
AM_0
100
AcDbLine
 10
916.3479165995616
 20
451.6454304096503
 30
0.0
 11
912.9315957143612
 21
451.6454304096503
 31
0.0
  0
LINE
  5
1854
330
1F
100
AcDbEntity
  8
AM_0
100
AcDbLine
 10
914.3479165995616
 20
458.6454304096502
 30
0.0
 11
912.5479165995615
 21
450.6454304096502
 31
0.0
  0
LINE
  5
1855
330
1F
100
AcDbEntity
  8
AM_0
100
AcDbLine
 10
914.3479165995616
 20
458.6454304096502
 30
0.0
 11
916.3479165995616
 21
458.6454304096502
 31
0.0
  0
LINE
  5
1856
330
1F
100
AcDbEntity
  8
AM_0
100
AcDbLine
 10
912.9315957143612
 20
443.5203561521516
 30
0.0
 11
916.4153775634522
 21
451.2083508263473
 31
0.0
  0
LINE
  5
1857
330
1F
100
AcDbEntity
  8
AM_0
100
AcDbLine
 10
912.5479165995615
 20
450.6454304096502
 30
0.0
 11
912.5479165995615
 21
442.6454304096502
 31
0.0
  0
LINE
  5
1858
330
1F
100
AcDbEntity
  8
AM_0
100
AcDbLine
 10
912.5479165995615
 20
442.6454304096502
 30
0.0
 11
919.8479165995616
 21
442.6454304096502
 31
0.0
  0
LINE
  5
1859
330
1F
100
AcDbEntity
  8
AM_0
100
AcDbLine
 10
912.9315957143612
 20
443.5203561521516
 30
0.0
 11
912.9315957143612
 21
442.6454304096502
 31
0.0
  0
LINE
  5
185A
330
1F
100
AcDbEntity
  8
AM_7
100
AcDbLine
 10
919.8479165995617
 20
463.1127809551464
 30
0.0
 11
919.8479165995617
 21
420.5658303637219
 31
0.0
1001
GENIUS_GENODEF_13
1002
{
1000
HIER
1070
     0
1002
}
1002
{
1000
MANEDIT
1070
     0
1002
}
1002
{
1000
NOSEL
1070
     0
1002
}
1002
{
1000
BEHIND
1070
     0
1002
}
1002
{
1000
REACTOR
1002
}
1001
GENIUS_GENOBJ-N-CEN_13
1002
{
1000
OWNER
1000
GEN
1002
}
  0
LINE
  5
185B
330
1F
100
AcDbEntity
  8
AM_0
100
AcDbLine
 10
925.747916599561
 20
442.6454304096502
 30
0.0
 11
925.747916599561
 21
440.2194628594247
 31
0.0
  0
LINE
  5
185C
330
1F
100
AcDbEntity
  8
AM_0
100
AcDbLine
 10
927.1479165995618
 20
442.6454304096502
 30
0.0
 11
912.5479165995617
 21
442.6454304096502
 31
0.0
  0
LINE
  5
185D
330
1F
100
AcDbEntity
  8
AM_0
100
AcDbLine
 10
927.1479165995618
 20
443.5203561521516
 30
0.0
 11
927.1479165995618
 21
442.6454304096502
 31
0.0
  0
LINE
  5
185E
330
1F
100
AcDbEntity
  8
AM_0
100
AcDbLine
 10
913.9479165995624
 20
442.6454304096502
 30
0.0
 11
913.9479165995624
 21
440.2194628594247
 31
0.0
  0
LINE
  5
185F
330
1F
100
AcDbEntity
  8
AM_7
100
AcDbLine
 10
931.8513225860492
 20
432.1454304096504
 30
0.0
 11
907.8445106130743
 21
432.1454304096504
 31
0.0
  0
LINE
  5
1860
330
1F
100
AcDbEntity
  8
AM_0
100
AcDbLine
 10
914.3479165995618
 20
458.6454304096502
 30
0.0
 11
916.3479165995617
 21
458.6454304096502
 31
0.0
  0
LINE
  5
1861
330
1F
100
AcDbEntity
  8
AM_0
100
AcDbLine
 10
923.3479165995618
 20
458.6454304096502
 30
0.0
 11
925.3479165995617
 21
458.6454304096502
 31
0.0
  0
ARC
  5
1862
330
1F
100
AcDbEntity
  8
AM_0
100
AcDbCircle
 10
919.8479165995617
 20
409.0787637429831
 30
0.0
 40
50.566666666667
100
AcDbArc
 50
83.75573907576622
 51
86.03106733778206
  0
ARC
  5
1863
330
1F
100
AcDbEntity
  8
AM_0
100
AcDbCircle
 10
919.8479165995617
 20
409.0787637429831
 30
0.0
 40
50.566666666667
100
AcDbArc
 50
93.96893266221795
 51
96.24426092423377
  0
LINE
  5
1864
330
1F
100
AcDbEntity
  8
AM_0
100
AcDbLine
 10
914.3479165995618
 20
458.6454304096502
 30
0.0
 11
916.3479165995617
 21
458.6454304096502
 31
0.0
  0
LINE
  5
1865
330
1F
100
AcDbEntity
  8
AM_0
100
AcDbLine
 10
923.3479165995618
 20
458.6454304096502
 30
0.0
 11
925.3479165995617
 21
458.6454304096502
 31
0.0
  0
LINE
  5
1866
330
1F
100
AcDbEntity
  8
AM_0
100
AcDbLine
 10
913.8479165995615
 20
458.6454304096502
 30
0.0
 11
915.4979165995616
 21
458.6454304096502
 31
0.0
  0
LINE
  5
1867
330
1F
100
AcDbEntity
  8
AM_0
100
AcDbLine
 10
914.347916599562
 20
459.3454304096503
 30
0.0
 11
913.8479165995615
 21
459.3454304096501
 31
0.0
  0
LINE
  5
1868
330
1F
100
AcDbEntity
  8
AM_0
100
AcDbLine
 10
913.8479165995615
 20
459.3454304096501
 30
0.0
 11
913.8479165995615
 21
458.6454304096502
 31
0.0
  0
LINE
  5
1869
330
1F
100
AcDbEntity
  8
AM_0
100
AcDbLine
 10
924.1979165995617
 20
458.6454304096502
 30
0.0
 11
925.8479165995616
 21
458.6454304096502
 31
0.0
  0
LINE
  5
186A
330
1F
100
AcDbEntity
  8
AM_0
100
AcDbLine
 10
925.8479165995616
 20
459.3454304096503
 30
0.0
 11
925.3479165995614
 21
459.3454304096503
 31
0.0
  0
LINE
  5
186B
330
1F
100
AcDbEntity
  8
AM_0
100
AcDbLine
 10
925.8479165995616
 20
458.6454304096502
 30
0.0
 11
925.8479165995616
 21
459.3454304096503
 31
0.0
  0
CIRCLE
  5
186E
330
1F
100
AcDbEntity
  8
AM_0
100
AcDbCircle
 10
919.8479165995617
 20
432.1454304096504
 30
0.0
 40
4.5
  0
CIRCLE
  5
186F
330
1F
100
AcDbEntity
  8
AM_0
100
AcDbCircle
 10
919.8479165995617
 20
432.1454304096504
 30
0.0
 40
10.0
  0
CIRCLE
  5
1870
330
1F
100
AcDbEntity
  8
AM_0
100
AcDbCircle
 10
919.8479165995617
 20
432.1454304096504
 30
0.0
 40
8.0
  0
CIRCLE
  5
1872
330
1F
100
AcDbEntity
  8
AM_0
100
AcDbCircle
 10
919.8479165995617
 20
432.1454304096504
 30
0.0
 40
3.0
  0
POINT
  5
1873
330
1F
100
AcDbEntity
  8
0
 60
     1
100
AcDbPoint
 10
634.329939362031
 20
334.4172982950792
 30
0.0
1001
GENIUS_GENOBJ-N-FIL_13
1002
{
1000
OWNER
1000
GEN
1002
}
1001
GENIUS_GENOENT_13
1002
{
1000
MYREF
1005
1873
1002
}
1002
{
1000
GRP
1005
0
1002
}
1001
GENIUS_GENOLIS_13
1002
{
1000
ENT
1005
0
1005
1835
1002
}
1001
GENIUS_GENODEF_13
1002
{
1000
HIER
1070
     1
1002
}
1002
{
1000
MANEDIT
1070
     1
1002
}
1002
{
1000
NOSEL
1070
     0
1002
}
1002
{
1000
BEHIND
1070
     0
1002
}
1002
{
1000
REACTOR
1002
}
  0
POINT
  5
1874
330
1F
100
AcDbEntity
  8
0
 60
     1
100
AcDbPoint
 10
634.329939362031
 20
334.4172982950792
 30
0.0
1001
GENIUS_GENOBJ-N-FIL_13
1002
{
1000
OWNER
1000
GEN
1002
}
1001
GENIUS_GENOENT_13
1002
{
1000
MYREF
1005
1874
1002
}
1002
{
1000
GRP
1005
0
1002
}
1001
GENIUS_GENOLIS_13
1002
{
1000
ENT
1005
0
1005
1833
1002
}
1001
GENIUS_GENODEF_13
1002
{
1000
HIER
1070
     1
1002
}
1002
{
1000
MANEDIT
1070
     1
1002
}
1002
{
1000
NOSEL
1070
     0
1002
}
1002
{
1000
BEHIND
1070
     0
1002
}
1002
{
1000
REACTOR
1002
}
  0
POINT
  5
1875
330
1F
100
AcDbEntity
  8
0
 60
     1
100
AcDbPoint
 10
634.329939362031
 20
334.4172982950792
 30
0.0
1001
GENIUS_GENOBJ-N-FIL_13
1002
{
1000
OWNER
1000
GEN
1002
}
1001
GENIUS_GENOENT_13
1002
{
1000
MYREF
1005
1875
1002
}
1002
{
1000
GRP
1005
0
1002
}
1001
GENIUS_GENOLIS_13
1002
{
1000
ENT
1005
0
1005
1833
1002
}
1001
GENIUS_GENODEF_13
1002
{
1000
HIER
1070
     1
1002
}
1002
{
1000
MANEDIT
1070
     1
1002
}
1002
{
1000
NOSEL
1070
     0
1002
}
1002
{
1000
BEHIND
1070
     0
1002
}
1002
{
1000
REACTOR
1002
}
  0
POINT
  5
1876
330
1F
100
AcDbEntity
  8
0
 60
     1
100
AcDbPoint
 10
634.329939362031
 20
334.4172982950792
 30
0.0
1001
GENIUS_GENODEF_13
1002
{
1000
HIER
1070
     1
1002
}
1002
{
1000
MANEDIT
1070
     0
1002
}
1002
{
1000
NOSEL
1070
     0
1002
}
1002
{
1000
BEHIND
1070
     0
1002
}
1002
{
1000
REACTOR
1002
}
1001
GENIUS_GENOBJ-N-FIL_13
1002
{
1000
OWNER
1000
GEN
1002
}
1001
GENIUS_GENOENT_13
1002
{
1000
MYREF
1005
1876
1002
}
1002
{
1000
GRP
1005
0
1002
}
1001
GENIUS_GENOLIS_13
1002
{
1000
ENT
1005
0
1005
1831
1002
}
  0
POINT
  5
1877
330
1F
100
AcDbEntity
  8
0
 60
     1
100
AcDbPoint
 10
634.329939362031
 20
334.4172982950792
 30
0.0
1001
GENIUS_GENOBJ-N-FIL_13
1002
{
1000
OWNER
1000
GEN
1002
}
1001
GENIUS_GENOENT_13
1002
{
1000
MYREF
1005
1877
1002
}
1002
{
1000
GRP
1005
0
1002
}
1001
GENIUS_GENOLIS_13
1002
{
1000
ENT
1005
0
1005
182D
1002
}
1001
GENIUS_GENODEF_13
1002
{
1000
HIER
1070
     1
1002
}
1002
{
1000
MANEDIT
1070
     1
1002
}
1002
{
1000
NOSEL
1070
     0
1002
}
1002
{
1000
BEHIND
1070
     0
1002
}
1002
{
1000
REACTOR
1002
}
  0
POINT
  5
1878
330
1F
100
AcDbEntity
  8
0
 60
     1
100
AcDbPoint
 10
681.6493858146132
 20
339.9461812103453
 30
0.0
1001
GENIUS_GENOBJ-N-FIL_13
1002
{
1000
OWNER
1000
GEN
1002
}
1001
GENIUS_GENOENT_13
1002
{
1000
MYREF
1005
1878
1002
}
1002
{
1000
GRP
1005
0
1002
}
1001
GENIUS_GENOLIS_13
1002
{
1000
ENT
1005
0
1005
1852
1002
}
1001
GENIUS_GENODEF_13
1002
{
1000
HIER
1070
     1
1002
}
1002
{
1000
MANEDIT
1070
     1
1002
}
1002
{
1000
NOSEL
1070
     0
1002
}
1002
{
1000
BEHIND
1070
     0
1002
}
1002
{
1000
REACTOR
1002
}
  0
POINT
  5
1879
330
1F
100
AcDbEntity
  8
0
 60
     1
100
AcDbPoint
 10
681.6493858146132
 20
339.9461812103453
 30
0.0
1001
GENIUS_GENOBJ-N-FIL_13
1002
{
1000
OWNER
1000
GEN
1002
}
1001
GENIUS_GENOENT_13
1002
{
1000
MYREF
1005
1879
1002
}
1002
{
1000
GRP
1005
0
1002
}
1001
GENIUS_GENOLIS_13
1002
{
1000
ENT
1005
0
1005
1851
1002
}
1001
GENIUS_GENODEF_13
1002
{
1000
HIER
1070
     1
1002
}
1002
{
1000
MANEDIT
1070
     1
1002
}
1002
{
1000
NOSEL
1070
     0
1002
}
1002
{
1000
BEHIND
1070
     0
1002
}
1002
{
1000
REACTOR
1002
}
  0
LINE
  5
1889
330
1F
100
AcDbEntity
  8
AM_0
100
AcDbLine
 10
866.4134349680017
 20
436.6454304096504
 30
0.0
 11
866.4134349680017
 21
427.6454304096504
 31
0.0
  0
LINE
  5
188A
330
1F
100
AcDbEntity
  8
AM_0
100
AcDbLine
 10
858.5474095642167
 20
442.1454304096505
 30
0.0
 11
858.5474095642167
 21
422.1454304096502
 31
0.0
  0
LINE
  5
188B
330
1F
100
AcDbEntity
  8
AM_0
100
AcDbLine
 10
841.2128117688618
 20
442.0454304096502
 30
0.0
 11
841.2128117688618
 21
422.2454304096507
 31
0.0
  0
LINE
  5
188C
330
1F
100
AcDbEntity
  8
AM_0
100
AcDbLine
 10
843.2794603717855
 20
442.1454304096505
 30
0.0
 11
843.2794603717848
 21
422.1454304096504
 31
0.0
  0
LINE
  5
1897
330
1F
100
AcDbEntity
  8
AM_0
100
AcDbLine
 10
833.9134349680014
 20
440.3954304096505
 30
0.0
 11
833.9134349680014
 21
423.8954304096504
 31
0.0
  0
LINE
  5
1898
330
1F
100
AcDbEntity
  8
AM_0
100
AcDbLine
 10
838.4134349680017
 20
440.3954304096505
 30
0.0
 11
838.4134349680017
 21
423.8954304096504
 31
0.0
  0
ARC
  5
18AD
330
1F
100
AcDbEntity
  8
AM_0
100
AcDbCircle
 10
827.2643607023718
 20
439.5066463418176
 30
0.0
 40
3.350925734370444
100
AcDbArc
 50
147.0148820804272
 51
212.9851179195728
  0
LINE
  5
18AE
330
1F
100
AcDbEntity
  8
AM_0
100
AcDbLine
 10
824.4535639688342
 20
437.6823314019016
 30
0.0
 11
824.4535639688342
 21
435.7940602894823
 31
0.0
  0
ARC
  5
18AF
330
1F
100
AcDbEntity
  8
AM_0
100
AcDbCircle
 10
830.562509233631
 20
439.5066463418176
 30
0.0
 40
3.350925734370444
100
AcDbArc
 50
327.0148820804272
 51
32.9851179195728
  0
LINE
  5
18B0
330
1F
100
AcDbEntity
  8
AM_0
100
AcDbLine
 10
833.3733059671684
 20
437.6823314019016
 30
0.0
 11
833.3733059671684
 21
435.7940602894823
 31
0.0
  0
ARC
  5
18B1
330
1F
100
AcDbEntity
  8
AM_0
100
AcDbCircle
 10
827.2643607023718
 20
424.7842144774821
 30
0.0
 40
3.350925734370444
100
AcDbArc
 50
147.0148820804272
 51
212.9851179195728
  0
ARC
  5
18B2
330
1F
100
AcDbEntity
  8
AM_0
100
AcDbCircle
 10
830.562509233631
 20
424.7842144774821
 30
0.0
 40
3.350925734370444
100
AcDbArc
 50
327.0148820804272
 51
32.9851179195728
  0
ARC
  5
18B3
330
1F
100
AcDbEntity
  8
AM_0
100
AcDbCircle
 10
836.5069444042285
 20
432.1454304096499
 30
0.0
 40
12.59350943622749
100
AcDbArc
 50
163.1586242409302
 51
196.8413757590698
  0
LINE
  5
18B4
330
1F
100
AcDbEntity
  8
AM_0
100
AcDbLine
 10
824.4535639688342
 20
437.6823314019016
 30
0.0
 11
833.3733059671684
 21
437.6823314019016
 31
0.0
  0
LINE
  5
18B5
330
1F
100
AcDbEntity
  8
AM_0
100
AcDbLine
 10
824.4535639688342
 20
435.7940602894823
 30
0.0
 11
833.3733059671684
 21
435.7940602894823
 31
0.0
  0
LINE
  5
18B6
330
1F
100
AcDbEntity
  8
AM_0
100
AcDbLine
 10
824.4535639688342
 20
426.608529417397
 30
0.0
 11
833.3733059671684
 21
426.608529417397
 31
0.0
  0
LINE
  5
18B7
330
1F
100
AcDbEntity
  8
AM_0
100
AcDbLine
 10
824.4535639688342
 20
428.4968005298165
 30
0.0
 11
833.3733059671684
 21
428.4968005298164
 31
0.0
  0
ARC
  5
18B8
330
1F
100
AcDbEntity
  8
AM_0
100
AcDbCircle
 10
821.3199255317743
 20
432.1454304096499
 30
0.0
 40
12.59350943622749
100
AcDbArc
 50
343.1586242409302
 51
16.84137575906983
  0
LINE
  5
18B9
330
1F
100
AcDbEntity
  8
AM_0
100
AcDbLine
 10
824.4535639688345
 20
428.4968005298165
 30
0.0
 11
824.4535639688345
 21
426.6085294173986
 31
0.0
  0
LINE
  5
18BA
330
1F
100
AcDbEntity
  8
AM_0
100
AcDbLine
 10
833.3733059671683
 20
428.4968005298164
 30
0.0
 11
833.3733059671684
 21
426.608529417398
 31
0.0
  0
ARC
  5
18D4
330
1F
100
AcDbEntity
  8
AM_0
100
AcDbCircle
 10
850.9134349680017
 20
445.3260882250618
 30
0.0
 40
7.061834399100165
100
AcDbArc
 50
213.3344638150098
 51
326.6655361849903
  0
LINE
  5
18D5
330
1F
100
AcDbEntity
  8
AM_0
100
AcDbLine
 10
850.9134349680012
 20
437.1454304096504
 30
0.0
 11
843.4134349680009
 21
437.1454304096504
 31
0.0
  0
LINE
  5
18D6
330
1F
100
AcDbEntity
  8
AM_0
100
AcDbLine
 10
844.2134349680026
 20
440.6454304096504
 30
0.0
 11
844.2134349680024
 21
437.9454304096519
 31
0.0
  0
LINE
  5
18D7
330
1F
100
AcDbEntity
  8
AM_0
100
AcDbLine
 10
843.4134349680011
 20
437.1454304096505
 30
0.0
 11
844.2134349680024
 21
437.9454304096519
 31
0.0
  0
LINE
  5
18D8
330
1F
100
AcDbEntity
  8
AM_0
100
AcDbLine
 10
844.2134349680024
 20
437.9454304096519
 30
0.0
 11
850.9134349680019
 21
437.9454304096519
 31
0.0
  0
LINE
  5
18D9
330
1F
100
AcDbEntity
  8
AM_0
100
AcDbLine
 10
850.9134349680024
 20
437.1454304096504
 30
0.0
 11
858.4134349680025
 21
437.1454304096503
 31
0.0
  0
LINE
  5
18DA
330
1F
100
AcDbEntity
  8
AM_0
100
AcDbLine
 10
857.613434968001
 20
440.6454304096503
 30
0.0
 11
857.613434968001
 21
437.9454304096518
 31
0.0
  0
LINE
  5
18DB
330
1F
100
AcDbEntity
  8
AM_0
100
AcDbLine
 10
858.4134349680025
 20
437.1454304096503
 30
0.0
 11
857.613434968001
 21
437.9454304096518
 31
0.0
  0
LINE
  5
18DC
330
1F
100
AcDbEntity
  8
AM_0
100
AcDbLine
 10
857.613434968001
 20
437.9454304096518
 30
0.0
 11
850.9134349680017
 21
437.9454304096519
 31
0.0
  0
LINE
  5
18DD
330
1F
100
AcDbEntity
  8
AM_0
100
AcDbLine
 10
850.9134349680012
 20
427.1454304096504
 30
0.0
 11
843.4134349680009
 21
427.1454304096504
 31
0.0
  0
LINE
  5
18DE
330
1F
100
AcDbEntity
  8
AM_0
100
AcDbLine
 10
844.2134349680026
 20
423.6454304096504
 30
0.0
 11
844.2134349680024
 21
426.3454304096488
 31
0.0
  0
LINE
  5
18DF
330
1F
100
AcDbEntity
  8
AM_0
100
AcDbLine
 10
843.4134349680011
 20
427.1454304096503
 30
0.0
 11
844.2134349680024
 21
426.3454304096488
 31
0.0
  0
LINE
  5
18E0
330
1F
100
AcDbEntity
  8
AM_0
100
AcDbLine
 10
844.2134349680024
 20
426.3454304096488
 30
0.0
 11
850.9134349680019
 21
426.3454304096489
 31
0.0
  0
LINE
  5
18E1
330
1F
100
AcDbEntity
  8
AM_0
100
AcDbLine
 10
850.9134349680024
 20
427.1454304096504
 30
0.0
 11
858.4134349680025
 21
427.1454304096505
 31
0.0
  0
LINE
  5
18E2
330
1F
100
AcDbEntity
  8
AM_0
100
AcDbLine
 10
857.613434968001
 20
423.6454304096505
 30
0.0
 11
857.613434968001
 21
426.3454304096489
 31
0.0
  0
LINE
  5
18E3
330
1F
100
AcDbEntity
  8
AM_0
100
AcDbLine
 10
858.4134349680025
 20
427.1454304096504
 30
0.0
 11
857.613434968001
 21
426.3454304096489
 31
0.0
  0
LINE
  5
18E4
330
1F
100
AcDbEntity
  8
AM_0
100
AcDbLine
 10
857.613434968001
 20
426.3454304096489
 30
0.0
 11
850.9134349680017
 21
426.3454304096489
 31
0.0
  0
LINE
  5
19A3
330
1F
100
AcDbEntity
  8
AM_7
100
AcDbLine
 10
850.9134349680008
 20
497.03075617236
 30
0.0
 11
850.913434968001
 21
477.2367561723592
 31
0.0
1001
GENIUS_GENODEF_13
1002
{
1000
HIER
1070
     0
1002
}
1002
{
1000
MANEDIT
1070
     0
1002
}
1002
{
1000
NOSEL
1070
     0
1002
}
1002
{
1000
BEHIND
1070
     0
1002
}
1002
{
1000
OTHER
1070
     0
1002
}
1002
{
1000
REACTOR
1002
}
1001
GENIUS_GENOBJ-N-CEN_13
1002
{
1000
OWNER
1000
GEN
1002
}
1001
GENIUS_GENCEN_19
1002
{
1040
1.397
1002
}
  0
LINE
  5
19A4
330
1F
100
AcDbEntity
  8
AM_0
100
AcDbLine
 10
858.4134349680011
 20
496.6337561723608
 30
0.0
 11
858.4134349680011
 21
496.4337561723607
 31
0.0
  0
ARC
  5
19A5
330
1F
100
AcDbEntity
  8
AM_0
100
AcDbCircle
 10
859.4134349680011
 20
496.6337561723608
 30
0.0
 40
1.0
100
AcDbArc
 50
150.0000000000061
 51
180.000000000005
1001
GENIUS_GENODEF_13
1002
{
1000
HIER
1070
     0
1002
}
1002
{
1000
MANEDIT
1070
     0
1002
}
1002
{
1000
NOSEL
1070
     0
1002
}
1002
{
1000
BEHIND
1070
     0
1002
}
1002
{
1000
REACTOR
1002
}
1001
GENIUS_GENOBJ-N-FIL_13
1002
{
1000
OWNER
1000
GEN
1002
}
  0
LINE
  5
19AD
330
1F
100
AcDbEntity
  8
AM_0
100
AcDbLine
 10
863.713434968001
 20
440.1454304096504
 30
0.0
 11
863.713434968001
 21
424.1454304096505
 31
0.0
  0
LINE
  5
19AE
330
1F
100
AcDbEntity
  8
AM_0
100
AcDbLine
 10
824.4907852371914
 20
488.2239500074182
 30
0.0
 11
824.4907852371914
 21
486.043562337301
 31
0.0
  0
ENDSEC
  0
SECTION
  2
OBJECTS
  0
DICTIONARY
  5
C
330
0
100
AcDbDictionary
281
     1
  3
ACAD_COLOR
350
113
  3
ACAD_GROUP
350
D
  3
ACAD_LAYOUT
350
1A
  3
ACAD_MATERIAL
350
112
  3
ACAD_MLEADERSTYLE
350
177A
  3
ACAD_MLINESTYLE
350
17
  3
ACAD_PLOTSETTINGS
350
19
  3
ACAD_PLOTSTYLENAME
350
E
  3
ACAD_SCALELIST
350
1768
  3
ACAD_TABLESTYLE
350
CB4
  3
ACAD_VISUALSTYLE
350
CA3
  3
ACDB_RECOMPOSE_DATA
350
1A6B
  3
AcDbVariableDictionary
350
9E
  3
AcmDictionary
350
63
  3
AMG
350
49
  3
AMGSNAPSETTINGS
350
F0
  3
DWGPROPS
350
1A6C
  0
DICTIONARY
  5
F91
330
8
100
AcDbDictionary
280
     1
281
     1
  0
DICTIONARY
  5
179
330
2
100
AcDbDictionary
280
     1
281
     1
  3
ACAD_LAYERSTATES
360
17CD
  3
AMLAYER_GROUPCOLORS
360
17A
  0
DICTIONARY
  5
18E6
330
10
100
AcDbDictionary
280
     1
281
     1
  3
ADSK_XREC_LAYER_RECONCILED
360
18E7
  0
DICTIONARY
  5
18E8
330
10D
100
AcDbDictionary
280
     1
281
     1
  3
ADSK_XREC_LAYER_RECONCILED
360
18E9
  0
DICTIONARY
  5
18EA
330
170
100
AcDbDictionary
280
     1
281
     1
  3
ADSK_XREC_LAYER_RECONCILED
360
18EB
  0
DICTIONARY
  5
18EC
330
2EC
100
AcDbDictionary
280
     1
281
     1
  3
ADSK_XREC_LAYER_RECONCILED
360
18ED
  0
DICTIONARY
  5
18EE
330
2F2
100
AcDbDictionary
280
     1
281
     1
  3
ADSK_XREC_LAYER_RECONCILED
360
18EF
  0
DICTIONARY
  5
18F0
330
2F5
100
AcDbDictionary
280
     1
281
     1
  3
ADSK_XREC_LAYER_RECONCILED
360
18F1
  0
DICTIONARY
  5
18F2
330
2F8
100
AcDbDictionary
280
     1
281
     1
  3
ADSK_XREC_LAYER_RECONCILED
360
18F3
  0
DICTIONARY
  5
18F4
330
2FB
100
AcDbDictionary
280
     1
281
     1
  3
ADSK_XREC_LAYER_RECONCILED
360
18F5
  0
DICTIONARY
  5
18F6
330
2FE
100
AcDbDictionary
280
     1
281
     1
  3
ADSK_XREC_LAYER_RECONCILED
360
18F7
  0
DICTIONARY
  5
18F8
330
301
100
AcDbDictionary
280
     1
281
     1
  3
ADSK_XREC_LAYER_RECONCILED
360
18F9
  0
DICTIONARY
  5
18FA
330
304
100
AcDbDictionary
280
     1
281
     1
  3
ADSK_XREC_LAYER_RECONCILED
360
18FB
  0
DICTIONARY
  5
18FC
330
307
100
AcDbDictionary
280
     1
281
     1
  3
ADSK_XREC_LAYER_RECONCILED
360
18FD
  0
DICTIONARY
  5
18FE
330
8A4
100
AcDbDictionary
280
     1
281
     1
  3
ADSK_XREC_LAYER_RECONCILED
360
18FF
  0
DICTIONARY
  5
1900
330
B6A
100
AcDbDictionary
280
     1
281
     1
  3
ADSK_XREC_LAYER_RECONCILED
360
1901
  0
DICTIONARY
  5
1902
330
CE3
100
AcDbDictionary
280
     1
281
     1
  3
ADSK_XREC_LAYER_RECONCILED
360
1903
  0
DICTIONARY
  5
99
330
1F
100
AcDbDictionary
280
     1
281
     1
  3
ACAD_SORTENTS
360
112E
  0
DICTIONARY
  5
CF4
330
CE6
100
AcDbDictionary
280
     1
281
     1
  0
DICTIONARY
  5
D43
330
D12
100
AcDbDictionary
280
     1
281
     1
  0
DICTIONARY
  5
EE1
330
EDD
100
AcDbDictionary
280
     1
281
     1
  0
DICTIONARY
  5
113
102
{ACAD_REACTORS
330
C
102
}
330
C
100
AcDbDictionary
281
     1
  0
DICTIONARY
  5
D
102
{ACAD_REACTORS
330
C
102
}
330
C
100
AcDbDictionary
281
     1
  0
DICTIONARY
  5
1A
102
{ACAD_REACTORS
330
C
102
}
330
C
100
AcDbDictionary
281
     1
  3
Layout1
350
1E
  3
Layout2
350
26
  3
Model
350
22
  0
DICTIONARY
  5
112
102
{ACAD_REACTORS
330
C
102
}
330
C
100
AcDbDictionary
281
     1
  3
ByBlock
350
CA2
  3
ByLayer
350
CA1
  3
Global
350
324
  0
DICTIONARY
  5
177A
102
{ACAD_REACTORS
330
C
102
}
330
C
100
AcDbDictionary
281
     1
  3
Standard
350
177B
  0
DICTIONARY
  5
17
102
{ACAD_REACTORS
330
C
102
}
330
C
100
AcDbDictionary
281
     1
  3
Standard
350
18
  0
DICTIONARY
  5
19
102
{ACAD_REACTORS
330
C
102
}
330
C
100
AcDbDictionary
281
     1
  0
ACDBDICTIONARYWDFLT
  5
E
102
{ACAD_REACTORS
330
C
102
}
330
C
100
AcDbDictionary
281
     1
  3
Normal
350
F
100
AcDbDictionaryWithDefault
340
F
  0
DICTIONARY
  5
1768
102
{ACAD_REACTORS
330
C
102
}
330
C
100
AcDbDictionary
281
     1
  3
A0
350
1769
  3
A1
350
176A
  3
A2
350
176B
  3
A3
350
176C
  3
A4
350
176D
  3
A5
350
176E
  3
A6
350
176F
  3
A7
350
1770
  3
A8
350
1771
  3
A9
350
1772
  3
B0
350
1773
  3
B1
350
1774
  3
B2
350
1775
  3
B3
350
1776
  3
B4
350
1777
  3
B5
350
1778
  3
B6
350
1779
  0
DICTIONARY
  5
CB4
102
{ACAD_REACTORS
330
C
102
}
330
C
100
AcDbDictionary
281
     1
  3
Standard
350
CB5
  0
DICTIONARY
  5
CA3
102
{ACAD_REACTORS
330
C
102
}
330
C
100
AcDbDictionary
281
     1
  3
2dWireframe
350
CA9
  3
3D Hidden
350
CAB
  3
3dWireframe
350
CAA
  3
Basic
350
CA8
  3
Brighten
350
CAF
  3
ColorChange
350
CB3
  3
Conceptual
350
CAC
  3
Dim
350
CAE
  3
EdgeColorOff
350
1767
  3
Facepattern
350
CB2
  3
Flat
350
CA4
  3
FlatWithEdges
350
CA5
  3
Gouraud
350
CA6
  3
GouraudWithEdges
350
CA7
  3
Hidden
350
175F
  3
JitterOff
350
1765
  3
Linepattern
350
CB1
  3
OverhangOff
350
1766
  3
Realistic
350
CAD
  3
Shaded
350
1764
  3
Shaded with edges
350
1763
  3
Shades of Gray
350
1760
  3
Sketchy
350
1761
  3
Thicken
350
CB0
  3
Wireframe
350
175E
  3
X-Ray
350
1762
  0
XRECORD
  5
1A6B
102
{ACAD_REACTORS
330
C
102
}
330
C
100
AcDbXrecord
280
     1
 90
        1
330
CB5
330
1843
  0
DICTIONARY
  5
9E
102
{ACAD_REACTORS
330
C
102
}
330
C
100
AcDbDictionary
281
     1
  3
CANNOSCALE
350
195A
  3
CMLEADERSTYLE
350
1959
  3
CTABLESTYLE
350
ED6
  3
DIMASSOC
350
A0
  3
INDEXCTL
350
9F
  3
SORTENTS
350
1A68
  3
XCLIPFRAME
350
1A69
  0
DICTIONARY
  5
63
102
{ACAD_REACTORS
330
C
102
}
330
C
100
AcDbDictionary
281
     1
  3
AcmBOM
350
E9D
  3
AcmStdDictionary
350
69
  3
AMDTSECTSYM_ARROWCOLOR
350
CD7
  0
DICTIONARY
  5
49
102
{ACAD_REACTORS
330
C
102
}
330
C
100
AcDbDictionary
281
     1
  0
DICTIONARY
  5
F0
102
{ACAD_REACTORS
330
C
102
}
330
C
100
AcDbDictionary
281
     1
  0
XRECORD
  5
1A6C
102
{ACAD_REACTORS
330
C
102
}
330
C
100
AcDbXrecord
280
     1
  1
DWGPROPS COOKIE
  2

  3

  4

  6

  7

  8
user
  9

300
AmdtFileType=84
301
=
302
=
303
=
304
=
305
=
306
=
307
=
308
=
309
=
 40
0.2240736689814815
 41
2454412.59715985
 42
2455693.784478623
  1

 90
        1
  0
DICTIONARY
  5
17CD
102
{ACAD_REACTORS
330
179
102
}
330
179
100
AcDbDictionary
281
     1
  0
DICTIONARY
  5
17A
102
{ACAD_REACTORS
330
179
102
}
330
179
100
AcDbDictionary
280
     1
281
     1
  0
XRECORD
  5
18E7
102
{ACAD_REACTORS
330
18E6
102
}
330
18E6
100
AcDbXrecord
280
     1
290
     1
  0
XRECORD
  5
18E9
102
{ACAD_REACTORS
330
18E8
102
}
330
18E8
100
AcDbXrecord
280
     1
290
     1
  0
XRECORD
  5
18EB
102
{ACAD_REACTORS
330
18EA
102
}
330
18EA
100
AcDbXrecord
280
     1
290
     1
  0
XRECORD
  5
18ED
102
{ACAD_REACTORS
330
18EC
102
}
330
18EC
100
AcDbXrecord
280
     1
290
     1
  0
XRECORD
  5
18EF
102
{ACAD_REACTORS
330
18EE
102
}
330
18EE
100
AcDbXrecord
280
     1
290
     1
  0
XRECORD
  5
18F1
102
{ACAD_REACTORS
330
18F0
102
}
330
18F0
100
AcDbXrecord
280
     1
290
     1
  0
XRECORD
  5
18F3
102
{ACAD_REACTORS
330
18F2
102
}
330
18F2
100
AcDbXrecord
280
     1
290
     1
  0
XRECORD
  5
18F5
102
{ACAD_REACTORS
330
18F4
102
}
330
18F4
100
AcDbXrecord
280
     1
290
     1
  0
XRECORD
  5
18F7
102
{ACAD_REACTORS
330
18F6
102
}
330
18F6
100
AcDbXrecord
280
     1
290
     1
  0
XRECORD
  5
18F9
102
{ACAD_REACTORS
330
18F8
102
}
330
18F8
100
AcDbXrecord
280
     1
290
     1
  0
XRECORD
  5
18FB
102
{ACAD_REACTORS
330
18FA
102
}
330
18FA
100
AcDbXrecord
280
     1
290
     1
  0
XRECORD
  5
18FD
102
{ACAD_REACTORS
330
18FC
102
}
330
18FC
100
AcDbXrecord
280
     1
290
     1
  0
XRECORD
  5
18FF
102
{ACAD_REACTORS
330
18FE
102
}
330
18FE
100
AcDbXrecord
280
     1
290
     1
  0
XRECORD
  5
1901
102
{ACAD_REACTORS
330
1900
102
}
330
1900
100
AcDbXrecord
280
     1
290
     1
  0
XRECORD
  5
1903
102
{ACAD_REACTORS
330
1902
102
}
330
1902
100
AcDbXrecord
280
     1
290
     1
  0
SORTENTSTABLE
  5
112E
102
{ACAD_REACTORS
330
99
102
}
330
99
100
AcDbSortentsTable
330
1F
331
6FD
  5
70A
331
5E7
  5
5E8
331
70D
  5
70E
331
626
  5
62A
331
5EF
  5
5F0
331
5F7
  5
5F8
331
636
  5
637
331
B38
  5
B39
331
1648
  5
1649
331
13DB
  5
13DC
331
18DB
  5
18DC
331
188C
  5
1897
331
184D
  5
184E
331
13E3
  5
1633
331
10FF
  5
1100
331
8F2
  5
8F5
331
B11
  5
B12
331
18E3
  5
18E4
331
1855
  5
1856
331
185D
  5
185E
331
16A0
  5
16A1
331
137C
  5
137D
331
1865
  5
1866
331
182E
  5
182F
331
656
  5
6CA
331
607
  5
608
331
60F
  5
610
331
B19
  5
B1A
331
77B
  5
782
331
B21
  5
B22
331
9DA
  5
9DB
331
16A8
  5
16A9
331
1384
  5
1385
331
11BE
  5
1307
331
78B
  5
8F2
331
B29
  5
B37
331
18B4
  5
18B5
331
1836
  5
1837
331
16B0
  5
16B1
331
183E
  5
183F
331
16B8
  5
16BA
331
1639
  5
163A
331
18D4
  5
18D5
331
1846
  5
1847
331
5E0
  5
5E2
331
5E8
  5
5EF
331
70E
  5
718
331
5F0
  5
5F3
331
637
  5
651
331
B39
  5
B3A
331
764
  5
765
331
1649
  5
164A
331
13DC
  5
13DD
331
18DC
  5
18DD
331
184E
  5
184F
331
1100
  5
1101
331
B12
  5
B13
331
18E4
  5
19A3
331
1856
  5
1857
331
11AF
  5
11B0
331
185E
  5
185F
331
16A1
  5
16A2
331
137D
  5
137E
331
18AD
  5
18AE
331
1866
  5
1867
331
182F
  5
1830
331
5F8
  5
5F9
331
6CF
  5
6D0
331
608
  5
609
331
610
  5
611
331
B1A
  5
B1B
331
B22
  5
B23
331
9DB
  5
9DC
331
16A9
  5
16AB
331
1385
  5
1386
331
18B5
  5
18B6
331
186E
  5
186F
331
1837
  5
1838
331
16B1
  5
16B2
331
183F
  5
1840
331
163A
  5
163B
331
18D5
  5
18D6
331
1847
  5
1848
331
620
  5
623
331
B3A
  5
B3C
331
A03
  5
A04
331
765
  5
766
331
164A
  5
164B
331
13DD
  5
13DE
331
18DD
  5
18DE
331
184F
  5
1850
331
1101
  5
1102
331
B13
  5
B14
331
1857
  5
1858
331
11B0
  5
11B1
331
185F
  5
1860
331
1828
  5
1829
331
16A2
  5
16A3
331
137E
  5
137F
331
18AE
  5
18AF
331
1867
  5
1868
331
5F9
  5
5FA
331
6D0
  5
6D8
331
609
  5
60A
331
6D8
  5
6D9
331
611
  5
612
331
5DA
  5
5DB
331
B1B
  5
B1C
331
B23
  5
B24
331
9DC
  5
9DD
331
1830
  5
1831
331
1386
  5
1387
331
9EC
  5
9ED
331
18B6
  5
18B7
331
186F
  5
1870
331
1838
  5
1839
331
16B2
  5
16B3
331
1633
  5
1634
331
1840
  5
1841
331
16BA
  5
1828
331
163B
  5
163C
331
13D6
  5
13D7
331
18D6
  5
18D7
331
619
  5
61A
331
5E2
  5
5E3
331
718
  5
721
331
726
  5
764
331
A04
  5
B0F
331
766
  5
767
331
1848
  5
1849
331
164B
  5
164C
331
13DE
  5
13DF
331
1307
  5
137A
331
18DE
  5
18DF
331
1850
  5
1851
331
1102
  5
111D
331
8F5
  5
957
331
B14
  5
B16
331
776
  5
779
331
1897
  5
1898
331
1858
  5
1859
331
11B1
  5
11B2
331
19A3
  5
19A4
331
1860
  5
1861
331
1829
  5
182A
331
16A3
  5
16A4
331
137F
  5
1380
331
18AF
  5
18B0
331
651
  5
656
331
5FA
  5
5FB
331
60A
  5
60B
331
6D9
  5
6FD
331
612
  5
613
331
5DB
  5
5DC
331
B1C
  5
B1D
331
B24
  5
B25
331
9DD
  5
9DE
331
786
  5
78B
331
1868
  5
1869
331
1831
  5
1832
331
16AB
  5
16AC
331
1387
  5
1388
331
9ED
  5
9EE
331
18B7
  5
18B8
331
1870
  5
1872
331
1839
  5
183A
331
16B3
  5
16B4
331
1634
  5
1635
331
1841
  5
1842
331
163C
  5
163D
331
13D7
  5
13D8
331
18D7
  5
18D8
331
1644
  5
1645
331
61A
  5
61B
331
5E3
  5
5E4
331
62A
  5
62B
331
5F3
  5
5F4
331
B3C
  5
B3D
331
B4C
  5
D6A
331
767
  5
768
331
1849
  5
184A
331
164C
  5
164D
331
13DF
  5
13E0
331
18DF
  5
18E0
331
1851
  5
1852
331
1898
  5
18AD
331
1859
  5
185A
331
11B2
  5
11B3
331
19A4
  5
19A5
331
1861
  5
1862
331
182A
  5
182B
331
16A4
  5
16A5
331
5FB
  5
604
331
6CA
  5
6CB
331
60B
  5
60C
331
613
  5
614
331
5DC
  5
5DD
331
B1D
  5
B1E
331
1380
  5
1381
331
B25
  5
B26
331
9DE
  5
9DF
331
18B0
  5
18B1
331
1869
  5
186A
331
1832
  5
1833
331
16AC
  5
16AE
331
1388
  5
13D5
331
9EE
  5
9EF
331
18B8
  5
18B9
331
183A
  5
183B
331
16B4
  5
16B5
331
1635
  5
1636
331
1842
  5
1843
331
163D
  5
163E
331
1645
  5
1646
331
61B
  5
61C
331
5E4
  5
5E5
331
70A
  5
70B
331
623
  5
624
331
62B
  5
62C
331
5F4
  5
5F5
331
633
  5
634
331
B3D
  5
B4C
331
13D8
  5
13D9
331
768
  5
776
331
18D8
  5
18D9
331
1889
  5
188A
331
184A
  5
184B
331
164D
  5
164E
331
13E0
  5
13E1
331
18E0
  5
18E1
331
1852
  5
1853
331
B16
  5
B17
331
185A
  5
185B
331
11B3
  5
11B4
331
19A5
  5
19AC
331
1862
  5
1863
331
182B
  5
182C
331
16A5
  5
16A6
331
6CB
  5
6CD
331
604
  5
605
331
60C
  5
60D
331
614
  5
615
331
5DD
  5
5DE
331
B1E
  5
B1F
331
957
  5
9D9
331
1381
  5
1382
331
B26
  5
B27
331
9DF
  5
9EC
331
18B1
  5
18B2
331
186A
  5
186B
331
1833
  5
1834
331
9EF
  5
9F0
331
18B9
  5
18BA
331
1872
  5
1889
331
183B
  5
183C
331
16B5
  5
16B6
331
1636
  5
1637
331
1843
  5
1844
331
163E
  5
1644
331
1646
  5
1647
331
61C
  5
620
331
5E5
  5
5E6
331
70B
  5
70C
331
624
  5
625
331
62C
  5
62D
331
5F5
  5
5F6
331
634
  5
635
331
721
  5
726
331
13D9
  5
13DA
331
18D9
  5
18DA
331
188A
  5
188B
331
184B
  5
184C
331
164E
  5
164F
331
13E1
  5
13E2
331
B0F
  5
B10
331
18E1
  5
18E2
331
1853
  5
1854
331
B17
  5
B18
331
185B
  5
185C
331
111D
  5
11AF
331
11B4
  5
11BD
331
1863
  5
1864
331
182C
  5
182D
331
16A6
  5
16A7
331
605
  5
606
331
60D
  5
60E
331
615
  5
619
331
5DE
  5
5DF
331
779
  5
77A
331
B1F
  5
B20
331
1382
  5
1383
331
B27
  5
B28
331
18B2
  5
18B3
331
186B
  5
186E
331
1834
  5
1835
331
16AE
  5
16AF
331
18BA
  5
18D4
331
183C
  5
183D
331
16B6
  5
16B7
331
1637
  5
1638
331
B37
  5
B38
331
1844
  5
1845
331
1647
  5
1648
331
5E6
  5
5E7
331
70C
  5
70D
331
625
  5
626
331
62D
  5
633
331
5F6
  5
5F7
331
635
  5
636
331
9F0
  5
A03
331
13DA
  5
13DB
331
18DA
  5
18DB
331
188B
  5
188C
331
184C
  5
184D
331
164F
  5
16A0
331
13E2
  5
13E3
331
B10
  5
B11
331
10FE
  5
10FF
331
18E2
  5
18E3
331
1854
  5
1855
331
185C
  5
185D
331
137B
  5
137C
331
1864
  5
1865
331
182D
  5
182E
331
16A7
  5
16A8
331
6CD
  5
6CF
331
606
  5
607
331
60E
  5
60F
331
5DF
  5
5E0
331
B18
  5
B19
331
77A
  5
77B
331
B20
  5
B21
331
9D9
  5
9DA
331
782
  5
786
331
1383
  5
1384
331
11BD
  5
11BE
331
B28
  5
B29
331
18B3
  5
18B4
331
1835
  5
1836
331
16AF
  5
16B0
331
183D
  5
183E
331
16B7
  5
16B8
331
1638
  5
1639
331
1845
  5
1846
  0
LAYOUT
  5
1E
102
{ACAD_XDICTIONARY
360
1A6D
102
}
102
{ACAD_REACTORS
330
1A
102
}
330
1A
100
AcDbPlotSettings
  1

  2

  4

  6

 40
0.0
 41
0.0
 42
0.0
 43
0.0
 44
0.0
 45
0.0
 46
0.0
 47
0.0
 48
0.0
 49
0.0
140
0.0
141
0.0
142
1.0
143
1.0
 70
   688
 72
     0
 73
     0
 74
     5
  7
IMAGIO.ctb
 75
    16
147
1.0
148
0.0
149
0.0
100
AcDbLayout
  1
Layout1
 70
     1
 71
     1
 10
0.0
 20
0.0
 11
12.0
 21
9.0
 12
0.0
 22
0.0
 32
0.0
 14
1.000000000000000E+20
 24
1.000000000000000E+20
 34
1.000000000000000E+20
 15
-1.000000000000000E+20
 25
-1.000000000000000E+20
 35
-1.000000000000000E+20
146
0.0
 13
0.0
 23
0.0
 33
0.0
 16
1.0
 26
0.0
 36
0.0
 17
0.0
 27
1.0
 37
0.0
 76
     0
330
1B
  0
LAYOUT
  5
26
102
{ACAD_XDICTIONARY
360
1A70
102
}
102
{ACAD_REACTORS
330
1A
102
}
330
1A
100
AcDbPlotSettings
  1

  2

  4

  6

 40
0.0
 41
0.0
 42
0.0
 43
0.0
 44
0.0
 45
0.0
 46
0.0
 47
0.0
 48
0.0
 49
0.0
140
0.0
141
0.0
142
1.0
143
1.0
 70
   688
 72
     0
 73
     0
 74
     5
  7
IMAGIO.ctb
 75
    16
147
1.0
148
0.0
149
0.0
100
AcDbLayout
  1
Layout2
 70
     1
 71
     2
 10
0.0
 20
0.0
 11
12.0
 21
9.0
 12
0.0
 22
0.0
 32
0.0
 14
0.0
 24
0.0
 34
0.0
 15
0.0
 25
0.0
 35
0.0
146
0.0
 13
0.0
 23
0.0
 33
0.0
 16
1.0
 26
0.0
 36
0.0
 17
0.0
 27
1.0
 37
0.0
 76
     0
330
23
  0
LAYOUT
  5
22
102
{ACAD_XDICTIONARY
360
190B
102
}
102
{ACAD_REACTORS
330
1A
102
}
330
1A
100
AcDbPlotSettings
  1

  2
RICOH imagio Neo 450 RPCS
  4
A3
  6

 40
5.873749732971191
 41
5.873747825622558
 42
5.873748779296875
 43
5.873748779296875
 44
296.9259948730469
 45
419.9466552734374
 46
-5.910751819610652
 47
-5.921849237169567
 48
0.0
 49
0.0
140
0.0
141
0.0
142
1.0
143
0.5
 70
 11956
 72
     1
 73
     1
 74
     2
  7
IMAGIO.ctb
 75
    27
147
2.0
148
-785.0458385632992
149
-402.6259190441958
100
AcDbLayout
  1
Model
 70
     1
 71
     0
 10
0.0
 20
0.0
 11
12.0
 21
9.0
 12
0.0
 22
0.0
 32
0.0
 14
0.0
 24
0.0
 34
0.0
 15
0.0
 25
0.0
 35
0.0
146
0.0
 13
0.0
 23
0.0
 33
0.0
 16
1.0
 26
0.0
 36
0.0
 17
0.0
 27
1.0
 37
0.0
 76
     0
330
1F
331
15EF
1001
ACAD_PSEXT
1000
RICOH imagio Neo 450 RPCS
1000
RICOH imagio Neo 450 RPCS
1000
192.168.1.150@
1000
RPCS Driver (Windows 2000/XP/Server 2003)
1070
     0
  0
MATERIAL
  5
CA2
102
{ACAD_XDICTIONARY
360
1A76
102
}
102
{ACAD_REACTORS
330
112
102
}
330
112
100
AcDbMaterial
  1
ByBlock
 73
     1
 78
     1
172
     1
176
     1
270
     1
274
     1
  0
MATERIAL
  5
CA1
102
{ACAD_XDICTIONARY
360
1A74
102
}
102
{ACAD_REACTORS
330
112
102
}
330
112
100
AcDbMaterial
  1
ByLayer
 73
     1
 78
     1
172
     1
176
     1
270
     1
274
     1
  0
MATERIAL
  5
324
102
{ACAD_XDICTIONARY
360
1A72
102
}
102
{ACAD_REACTORS
330
112
102
}
330
112
100
AcDbMaterial
  1
Global
 73
     1
 78
     1
172
     1
176
     1
270
     1
274
     1
  0
MLEADERSTYLE
  5
177B
102
{ACAD_REACTORS
330
177A
102
}
330
177A
100
AcDbMLeaderStyle
170
     2
171
     1
172
     0
 90
        2
 40
0.0
 41
0.0
173
     1
 91
-1056964608
340
14
 92
       -2
290
     1
 42
2.0
291
     1
 43
0.36
  3
Standard
 44
4.0
300

342
11
174
     1
178
     6
175
     1
176
     0
 93
-1056964608
 45
4.0
292
     0
297
     0
 46
4.0
 94
-1056964608
 47
1.0
 49
1.0
140
1.0
293
     1
141
0.0
294
     1
177
     0
142
1.0
295
     0
296
     0
143
0.125
1001
ACAD_MLEADERVER
1070
     2
  0
MLINESTYLE
  5
18
102
{ACAD_REACTORS
330
17
102
}
330
17
100
AcDbMlineStyle
  2
STANDARD
 70
     0
  3

 62
   256
 51
90.0
 52
90.0
 71
     2
 49
0.5
 62
   256
  6
BYLAYER
 49
-0.5
 62
   256
  6
BYLAYER
  0
ACDBPLACEHOLDER
  5
F
102
{ACAD_REACTORS
330
E
102
}
330
E
  0
SCALE
  5
1769
102
{ACAD_REACTORS
330
1768
102
}
330
1768
100
AcDbScale
 70
     0
300
1:1
140
1.0
141
1.0
290
     1
  0
SCALE
  5
176A
102
{ACAD_REACTORS
330
1768
102
}
330
1768
100
AcDbScale
 70
     0
300
1:2
140
1.0
141
2.0
290
     0
  0
SCALE
  5
176B
102
{ACAD_REACTORS
330
1768
102
}
330
1768
100
AcDbScale
 70
     0
300
1:4
140
1.0
141
4.0
290
     0
  0
SCALE
  5
176C
102
{ACAD_REACTORS
330
1768
102
}
330
1768
100
AcDbScale
 70
     0
300
1:5
140
1.0
141
5.0
290
     0
  0
SCALE
  5
176D
102
{ACAD_REACTORS
330
1768
102
}
330
1768
100
AcDbScale
 70
     0
300
1:8
140
1.0
141
8.0
290
     0
  0
SCALE
  5
176E
102
{ACAD_REACTORS
330
1768
102
}
330
1768
100
AcDbScale
 70
     0
300
1:10
140
1.0
141
10.0
290
     0
  0
SCALE
  5
176F
102
{ACAD_REACTORS
330
1768
102
}
330
1768
100
AcDbScale
 70
     0
300
1:16
140
1.0
141
16.0
290
     0
  0
SCALE
  5
1770
102
{ACAD_REACTORS
330
1768
102
}
330
1768
100
AcDbScale
 70
     0
300
1:20
140
1.0
141
20.0
290
     0
  0
SCALE
  5
1771
102
{ACAD_REACTORS
330
1768
102
}
330
1768
100
AcDbScale
 70
     0
300
1:30
140
1.0
141
30.0
290
     0
  0
SCALE
  5
1772
102
{ACAD_REACTORS
330
1768
102
}
330
1768
100
AcDbScale
 70
     0
300
1:40
140
1.0
141
40.0
290
     0
  0
SCALE
  5
1773
102
{ACAD_REACTORS
330
1768
102
}
330
1768
100
AcDbScale
 70
     0
300
1:50
140
1.0
141
50.0
290
     0
  0
SCALE
  5
1774
102
{ACAD_REACTORS
330
1768
102
}
330
1768
100
AcDbScale
 70
     0
300
1:100
140
1.0
141
100.0
290
     0
  0
SCALE
  5
1775
102
{ACAD_REACTORS
330
1768
102
}
330
1768
100
AcDbScale
 70
     0
300
2:1
140
2.0
141
1.0
290
     0
  0
SCALE
  5
1776
102
{ACAD_REACTORS
330
1768
102
}
330
1768
100
AcDbScale
 70
     0
300
4:1
140
4.0
141
1.0
290
     0
  0
SCALE
  5
1777
102
{ACAD_REACTORS
330
1768
102
}
330
1768
100
AcDbScale
 70
     0
300
8:1
140
8.0
141
1.0
290
     0
  0
SCALE
  5
1778
102
{ACAD_REACTORS
330
1768
102
}
330
1768
100
AcDbScale
 70
     0
300
10:1
140
10.0
141
1.0
290
     0
  0
SCALE
  5
1779
102
{ACAD_REACTORS
330
1768
102
}
330
1768
100
AcDbScale
 70
     0
300
100:1
140
100.0
141
1.0
290
     0
  0
TABLESTYLE
  5
CB5
102
{ACAD_XDICTIONARY
360
190D
102
}
102
{ACAD_REACTORS
330
CB4
102
}
330
CB4
100
AcDbTableStyle
  3
Standard
 70
     0
 71
     0
 40
1.5
 41
1.5
280
     0
281
     0
  7
STANDARD
140
4.5
170
     2
 62
     0
 63
     7
283
     0
274
    -2
284
     1
 64
     0
275
    -2
285
     1
 65
     0
276
    -2
286
     1
 66
     0
277
    -2
287
     1
 67
     0
278
    -2
288
     1
 68
     0
279
    -2
289
     1
 69
     0
  7
STANDARD
140
6.0
170
     5
 62
     0
 63
     7
283
     0
274
    -2
284
     1
 64
     0
275
    -2
285
     1
 65
     0
276
    -2
286
     1
 66
     0
277
    -2
287
     1
 67
     0
278
    -2
288
     1
 68
     0
279
    -2
289
     1
 69
     0
  7
STANDARD
140
4.5
170
     5
 62
     0
 63
     7
283
     0
274
    -2
284
     1
 64
     0
275
    -2
285
     1
 65
     0
276
    -2
286
     1
 66
     0
277
    -2
287
     1
 67
     0
278
    -2
288
     1
 68
     0
279
    -2
289
     1
 69
     0
  0
VISUALSTYLE
  5
CA9
102
{ACAD_XDICTIONARY
360
1A82
102
}
102
{ACAD_REACTORS
330
CA3
102
}
330
CA3
100
AcDbVisualStyle
  2
2dWireframe
 70
     4
 71
     0
 72
     2
 73
     0
 90
        0
 40
-0.6
 41
-30.0
 62
     5
 63
     7
 74
     1
 91
        4
 64
     7
 65
   257
 75
     1
175
     1
 42
1.0
 92
        0
 66
   257
 43
1.0
 76
     1
 77
     6
 78
     2
 67
     7
 79
     5
170
     0
171
     0
290
     0
174
     0
 93
        1
 44
0.0
173
     0
291
     0
 45
0.0
1001
ACAD
1000
AcDbSavedByObjectVersion
1070
     0
  0
VISUALSTYLE
  5
CAB
102
{ACAD_XDICTIONARY
360
1A86
102
}
102
{ACAD_REACTORS
330
CA3
102
}
330
CA3
100
AcDbVisualStyle
  2
3D Hidden
 70
     6
 71
     1
 72
     2
 73
     2
 90
        0
 40
-0.6
 41
-30.0
 62
     5
 63
     7
 74
     2
 91
        2
 64
     7
 65
   257
 75
     2
175
     1
 42
40.0
 92
        0
 66
   257
 43
1.0
 76
     1
 77
     6
 78
     2
 67
     7
 79
     3
170
     0
171
     0
290
     0
174
     0
 93
        1
 44
0.0
173
     0
291
     0
 45
0.0
1001
ACAD
1000
AcDbSavedByObjectVersion
1070
     0
  0
VISUALSTYLE
  5
CAA
102
{ACAD_XDICTIONARY
360
1A84
102
}
102
{ACAD_REACTORS
330
CA3
102
}
330
CA3
100
AcDbVisualStyle
  2
3dWireframe
 70
     5
 71
     0
 72
     2
 73
     0
 90
        0
 40
-0.6
 41
-30.0
 62
     5
 63
     7
 74
     1
 91
        4
 64
     7
 65
   257
 75
     1
175
     1
 42
1.0
 92
        0
 66
   257
 43
1.0
 76
     1
 77
     6
 78
     2
 67
     7
 79
     5
170
     0
171
     0
290
     0
174
     0
 93
        1
 44
0.0
173
     0
291
     0
 45
0.0
1001
ACAD
1000
AcDbSavedByObjectVersion
1070
     0
  0
VISUALSTYLE
  5
CA8
102
{ACAD_XDICTIONARY
360
1A80
102
}
102
{ACAD_REACTORS
330
CA3
102
}
330
CA3
100
AcDbVisualStyle
  2
Basic
 70
     7
 71
     1
 72
     0
 73
     1
 90
        0
 40
-0.6
 41
-30.0
 62
     5
 63
     7
 74
     0
 91
        4
 64
     7
 65
   257
 75
     1
175
     1
 42
1.0
 92
        8
 66
     7
 43
1.0
 76
     1
 77
     6
 78
     2
 67
     7
 79
     5
170
     0
171
     0
290
     0
174
     0
 93
        1
 44
0.0
173
     0
291
     1
 45
0.0
1001
ACAD
1000
AcDbSavedByObjectVersion
1070
     0
  0
VISUALSTYLE
  5
CAF
102
{ACAD_XDICTIONARY
360
1A8E
102
}
102
{ACAD_REACTORS
330
CA3
102
}
330
CA3
100
AcDbVisualStyle
  2
Brighten
 70
    12
 71
     2
 72
     2
 73
     0
 90
        0
 40
-0.6
 41
-30.0
 62
     5
 63
     7
 74
     1
 91
        4
 64
     7
 65
   257
 75
     1
175
     1
 42
1.0
 92
        8
 66
     7
 43
1.0
 76
     1
 77
     6
 78
     2
 67
     7
 79
     5
170
     0
171
     0
290
     0
174
     0
 93
        1
 44
50.0
173
     0
291
     1
 45
0.0
1001
ACAD
1000
AcDbSavedByObjectVersion
1070
     0
  0
VISUALSTYLE
  5
CB3
102
{ACAD_XDICTIONARY
360
1A96
102
}
102
{ACAD_REACTORS
330
CA3
102
}
330
CA3
100
AcDbVisualStyle
  2
ColorChange
 70
    16
 71
     2
 72
     2
 73
     3
 90
        0
 40
-0.6
 41
-30.0
 62
     5
 63
     8
 74
     1
 91
        4
 64
     7
 65
   257
 75
     1
175
     1
 42
1.0
 92
        8
 66
     8
 43
1.0
 76
     1
 77
     6
 78
     2
 67
     7
 79
     5
170
     0
171
     0
290
     0
174
     0
 93
        1
 44
0.0
173
     0
291
     1
 45
0.0
1001
ACAD
1000
AcDbSavedByObjectVersion
1070
     0
  0
VISUALSTYLE
  5
CAC
102
{ACAD_XDICTIONARY
360
1A88
102
}
102
{ACAD_REACTORS
330
CA3
102
}
330
CA3
100
AcDbVisualStyle
  2
Conceptual
 70
     9
 71
     3
 72
     2
 73
     0
 90
        0
 40
-0.6
 41
-30.0
 62
     5
 63
     7
 74
     2
 91
        2
 64
     7
 65
   257
 75
     1
175
     1
 42
40.0
 92
        8
 66
     7
 43
1.0
 76
     1
 77
     6
 78
     2
 67
     7
 79
     3
170
     0
171
     0
290
     0
174
     0
 93
        1
 44
0.0
173
     0
291
     0
 45
0.0
1001
ACAD
1000
AcDbSavedByObjectVersion
1070
     0
  0
VISUALSTYLE
  5
CAE
102
{ACAD_XDICTIONARY
360
1A8C
102
}
102
{ACAD_REACTORS
330
CA3
102
}
330
CA3
100
AcDbVisualStyle
  2
Dim
 70
    11
 71
     2
 72
     2
 73
     0
 90
        0
 40
-0.6
 41
-30.0
 62
     5
 63
     7
 74
     1
 91
        4
 64
     7
 65
   257
 75
     1
175
     1
 42
1.0
 92
        8
 66
     7
 43
1.0
 76
     1
 77
     6
 78
     2
 67
     7
 79
     5
170
     0
171
     0
290
     0
174
     0
 93
        1
 44
-50.0
173
     0
291
     1
 45
0.0
1001
ACAD
1000
AcDbSavedByObjectVersion
1070
     0
  0
VISUALSTYLE
  5
1767
102
{ACAD_XDICTIONARY
360
1AAB
102
}
102
{ACAD_REACTORS
330
CA3
102
}
330
CA3
100
AcDbVisualStyle
  2
EdgeColorOff
 70
    22
 71
     2
 72
     2
 73
     0
 90
        0
 40
-0.6
 41
-30.0
 62
     5
 63
     7
 74
     1
 91
        4
 64
     7
 65
   257
 75
     1
175
     1
 42
1.0
 92
        8
 66
     7
 43
1.0
 76
     1
 77
     6
 78
     2
 67
     7
 79
     5
170
     0
171
     0
290
     0
174
     0
 93
        1
 44
0.0
173
     0
291
     1
 45
0.0
1001
ACAD
1000
AcDbSavedByObjectVersion
1070
     0
  0
VISUALSTYLE
  5
CB2
102
{ACAD_XDICTIONARY
360
1A94
102
}
102
{ACAD_REACTORS
330
CA3
102
}
330
CA3
100
AcDbVisualStyle
  2
Facepattern
 70
    15
 71
     2
 72
     2
 73
     0
 90
        0
 40
-0.6
 41
-30.0
 62
     5
 63
     7
 74
     1
 91
        4
 64
     7
 65
   257
 75
     1
175
     1
 42
1.0
 92
        8
 66
     7
 43
1.0
 76
     1
 77
     6
 78
     2
 67
     7
 79
     5
170
     0
171
     0
290
     0
174
     0
 93
        1
 44
0.0
173
     0
291
     1
 45
0.0
1001
ACAD
1000
AcDbSavedByObjectVersion
1070
     0
  0
VISUALSTYLE
  5
CA4
102
{ACAD_XDICTIONARY
360
1A78
102
}
102
{ACAD_REACTORS
330
CA3
102
}
330
CA3
100
AcDbVisualStyle
  2
Flat
 70
     0
 71
     2
 72
     1
 73
     1
 90
        2
 40
-0.6
 41
30.0
 62
     5
 63
     7
 74
     0
 91
        4
 64
     7
 65
   257
 75
     1
175
     1
 42
1.0
 92
        8
 66
     7
 43
1.0
 76
     1
 77
     6
 78
     2
 67
     7
 79
     5
170
     0
171
     0
290
     0
174
     0
 93
       13
 44
0.0
173
     0
291
     1
 45
0.0
1001
ACAD
1000
AcDbSavedByObjectVersion
1070
     0
  0
VISUALSTYLE
  5
CA5
102
{ACAD_XDICTIONARY
360
1A7A
102
}
102
{ACAD_REACTORS
330
CA3
102
}
330
CA3
100
AcDbVisualStyle
  2
FlatWithEdges
 70
     1
 71
     2
 72
     1
 73
     1
 90
        2
 40
-0.6
 41
30.0
 62
     5
 63
     7
 74
     1
 91
        4
 64
     7
 65
   257
 75
     1
175
     1
 42
1.0
 92
        0
 66
   257
 43
1.0
 76
     1
 77
     6
 78
     2
 67
     7
 79
     5
170
     0
171
     0
290
     0
174
     0
 93
       13
 44
0.0
173
     0
291
     1
 45
0.0
1001
ACAD
1000
AcDbSavedByObjectVersion
1070
     0
  0
VISUALSTYLE
  5
CA6
102
{ACAD_XDICTIONARY
360
1A7C
102
}
102
{ACAD_REACTORS
330
CA3
102
}
330
CA3
100
AcDbVisualStyle
  2
Gouraud
 70
     2
 71
     2
 72
     2
 73
     1
 90
        2
 40
-0.6
 41
30.0
 62
     5
 63
     7
 74
     0
 91
        4
 64
     7
 65
   257
 75
     1
175
     1
 42
1.0
 92
        0
 66
     7
 43
1.0
 76
     1
 77
     6
 78
     2
 67
     7
 79
     5
170
     0
171
     0
290
     0
174
     0
 93
       13
 44
0.0
173
     0
291
     1
 45
0.0
1001
ACAD
1000
AcDbSavedByObjectVersion
1070
     0
  0
VISUALSTYLE
  5
CA7
102
{ACAD_XDICTIONARY
360
1A7E
102
}
102
{ACAD_REACTORS
330
CA3
102
}
330
CA3
100
AcDbVisualStyle
  2
GouraudWithEdges
 70
     3
 71
     2
 72
     2
 73
     1
 90
        2
 40
-0.6
 41
30.0
 62
     5
 63
     7
 74
     1
 91
        4
 64
     7
 65
   257
 75
     1
175
     1
 42
1.0
 92
        0
 66
   257
 43
1.0
 76
     1
 77
     6
 78
     2
 67
     7
 79
     5
170
     0
171
     0
290
     0
174
     0
 93
       13
 44
0.0
173
     0
291
     1
 45
0.0
1001
ACAD
1000
AcDbSavedByObjectVersion
1070
     0
  0
VISUALSTYLE
  5
175F
102
{ACAD_XDICTIONARY
360
1A9B
102
}
102
{ACAD_REACTORS
330
CA3
102
}
330
CA3
100
AcDbVisualStyle
  2
Hidden
 70
     6
 71
     1
 72
     2
 73
     2
 90
        0
 40
-0.6
 41
-30.0
 62
     5
 63
     7
 74
     2
 91
        2
 64
     7
 65
   257
 75
     2
175
     1
 42
40.0
 92
        0
 66
   257
 43
1.0
 76
     1
 77
     6
 78
     2
 67
     7
 79
     3
170
     0
171
     0
290
     0
174
     0
 93
        1
 44
0.0
173
     0
291
     0
 45
0.0
1001
ACAD
1000
AcDbSavedByObjectVersion
1070
     0
  0
VISUALSTYLE
  5
1765
102
{ACAD_XDICTIONARY
360
1AA7
102
}
102
{ACAD_REACTORS
330
CA3
102
}
330
CA3
100
AcDbVisualStyle
  2
JitterOff
 70
    20
 71
     2
 72
     2
 73
     0
 90
        0
 40
-0.6
 41
-30.0
 62
     5
 63
     7
 74
     1
 91
        4
 64
     7
 65
   257
 75
     1
175
     1
 42
1.0
 92
       10
 66
     7
 43
1.0
 76
     1
 77
     6
 78
     2
 67
     7
 79
     5
170
     0
171
     0
290
     0
174
     0
 93
        1
 44
0.0
173
     0
291
     1
 45
0.0
1001
ACAD
1000
AcDbSavedByObjectVersion
1070
     0
  0
VISUALSTYLE
  5
CB1
102
{ACAD_XDICTIONARY
360
1A92
102
}
102
{ACAD_REACTORS
330
CA3
102
}
330
CA3
100
AcDbVisualStyle
  2
Linepattern
 70
    14
 71
     2
 72
     2
 73
     0
 90
        0
 40
-0.6
 41
-30.0
 62
     5
 63
     7
 74
     1
 91
        4
 64
     7
 65
   257
 75
     7
175
     7
 42
1.0
 92
        8
 66
     7
 43
1.0
 76
     1
 77
     6
 78
     2
 67
     7
 79
     5
170
     0
171
     0
290
     0
174
     0
 93
        1
 44
0.0
173
     0
291
     1
 45
0.0
1001
ACAD
1000
AcDbSavedByObjectVersion
1070
     0
  0
VISUALSTYLE
  5
1766
102
{ACAD_XDICTIONARY
360
1AA9
102
}
102
{ACAD_REACTORS
330
CA3
102
}
330
CA3
100
AcDbVisualStyle
  2
OverhangOff
 70
    21
 71
     2
 72
     2
 73
     0
 90
        0
 40
-0.6
 41
-30.0
 62
     5
 63
     7
 74
     1
 91
        4
 64
     7
 65
   257
 75
     1
175
     1
 42
1.0
 92
        9
 66
     7
 43
1.0
 76
     1
 77
     6
 78
     2
 67
     7
 79
     5
170
     0
171
     0
290
     0
174
     0
 93
        1
 44
0.0
173
     0
291
     1
 45
0.0
1001
ACAD
1000
AcDbSavedByObjectVersion
1070
     0
  0
VISUALSTYLE
  5
CAD
102
{ACAD_XDICTIONARY
360
1A8A
102
}
102
{ACAD_REACTORS
330
CA3
102
}
330
CA3
100
AcDbVisualStyle
  2
Realistic
 70
     8
 71
     2
 72
     2
 73
     0
 90
        0
 40
-0.6
 41
-30.0
 62
     5
 63
     7
 74
     1
 91
        0
 64
     7
 65
   257
 75
     1
175
     1
 42
1.0
 92
        8
 66
     8
 43
1.0
 76
     1
 77
     6
 78
     2
 67
     7
 79
     5
170
     0
171
     0
290
     0
174
     0
 93
       13
 44
0.0
173
     0
291
     0
 45
0.0
1001
ACAD
1000
AcDbSavedByObjectVersion
1070
     0
  0
VISUALSTYLE
  5
1764
102
{ACAD_XDICTIONARY
360
1AA5
102
}
102
{ACAD_REACTORS
330
CA3
102
}
330
CA3
100
AcDbVisualStyle
  2
Shaded
 70
    27
 71
     2
 72
     2
 73
     1
 90
        2
 40
-0.6
 41
30.0
 62
     5
 63
     7
 74
     0
 91
        4
 64
     7
 65
   257
 75
     1
175
     1
 42
1.0
 92
        8
 66
   257
 43
1.0
 76
     1
 77
     6
 78
     2
 67
     8
 79
     3
170
     0
171
     0
290
     0
174
     0
 93
        5
 44
0.0
173
     0
291
     0
 45
0.0
1001
ACAD
1000
AcDbSavedByObjectVersion
1070
     0
  0
VISUALSTYLE
  5
1763
102
{ACAD_XDICTIONARY
360
1AA3
102
}
102
{ACAD_REACTORS
330
CA3
102
}
330
CA3
100
AcDbVisualStyle
  2
Shaded with edges
 70
    26
 71
     2
 72
     2
 73
     1
 90
        2
 40
-0.6
 41
30.0
 62
     5
 63
     7
 74
     1
 91
       10
 64
     7
 65
   257
 75
     2
175
     1
 42
1.0
 92
        8
 66
   257
 43
1.0
 76
     1
 77
     6
 78
     2
 67
     7
 79
     3
170
     0
171
     0
290
     0
174
     0
 93
        5
 44
0.0
173
     0
291
     0
 45
0.0
1001
ACAD
1000
AcDbSavedByObjectVersion
1070
     0
  0
VISUALSTYLE
  5
1760
102
{ACAD_XDICTIONARY
360
1A9D
102
}
102
{ACAD_REACTORS
330
CA3
102
}
330
CA3
100
AcDbVisualStyle
  2
Shades of Gray
 70
    23
 71
     2
 72
     2
 73
     3
 90
        0
 40
-0.6
 41
-30.0
 62
     5
 63
     7
 74
     2
 91
        2
 64
     7
 65
     7
 75
     1
175
     1
 42
40.0
 92
        8
 66
     7
 43
1.0
 76
     1
 77
     6
 78
     2
 67
     7
 79
     3
170
     0
171
     0
290
     0
174
     0
 93
        1
 44
0.0
173
     0
291
     0
 45
0.0
1001
ACAD
1000
AcDbSavedByObjectVersion
1070
     0
  0
VISUALSTYLE
  5
1761
102
{ACAD_XDICTIONARY
360
1A9F
102
}
102
{ACAD_REACTORS
330
CA3
102
}
330
CA3
100
AcDbVisualStyle
  2
Sketchy
 70
    24
 71
     1
 72
     2
 73
     2
 90
        0
 40
-0.6
 41
-30.0
 62
     5
 63
     7
 74
     2
 91
        2
 64
     7
 65
     7
 75
     1
175
     1
 42
40.0
 92
       11
 66
     7
 43
1.0
 76
     1
 77
     6
 78
     2
 67
     7
 79
     6
170
     0
171
     0
290
     0
174
     0
 93
        1
 44
0.0
173
     0
291
     0
 45
0.0
1001
ACAD
1000
AcDbSavedByObjectVersion
1070
     0
  0
VISUALSTYLE
  5
CB0
102
{ACAD_XDICTIONARY
360
1A90
102
}
102
{ACAD_REACTORS
330
CA3
102
}
330
CA3
100
AcDbVisualStyle
  2
Thicken
 70
    13
 71
     2
 72
     2
 73
     0
 90
        0
 40
-0.6
 41
-30.0
 62
     5
 63
     7
 74
     1
 91
        4
 64
     7
 65
   257
 75
     1
175
     1
 42
1.0
 92
       12
 66
     7
 43
1.0
 76
     1
 77
     6
 78
     2
 67
     7
 79
     5
170
     0
171
     0
290
     0
174
     0
 93
        1
 44
0.0
173
     0
291
     1
 45
0.0
1001
ACAD
1000
AcDbSavedByObjectVersion
1070
     0
  0
VISUALSTYLE
  5
175E
102
{ACAD_XDICTIONARY
360
1A99
102
}
102
{ACAD_REACTORS
330
CA3
102
}
330
CA3
100
AcDbVisualStyle
  2
Wireframe
 70
     5
 71
     0
 72
     2
 73
     0
 90
        0
 40
-0.6
 41
-30.0
 62
     5
 63
     7
 74
     1
 91
        4
 64
     7
 65
   257
 75
     1
175
     1
 42
1.0
 92
        0
 66
   257
 43
1.0
 76
     1
 77
     6
 78
     2
 67
     7
 79
     3
170
     0
171
     0
290
     0
174
     0
 93
        1
 44
0.0
173
     0
291
     0
 45
0.0
1001
ACAD
1000
AcDbSavedByObjectVersion
1070
     0
  0
VISUALSTYLE
  5
1762
102
{ACAD_XDICTIONARY
360
1AA1
102
}
102
{ACAD_REACTORS
330
CA3
102
}
330
CA3
100
AcDbVisualStyle
  2
X-Ray
 70
    25
 71
     2
 72
     2
 73
     1
 90
        1
 40
0.5
 41
-30.0
 62
     5
 63
     7
 74
     1
 91
        0
 64
     7
 65
   257
 75
     1
175
     1
 42
1.0
 92
        8
 66
     7
 43
1.0
 76
     1
 77
     6
 78
     2
 67
     7
 79
     3
170
     0
171
     0
290
     0
174
     0
 93
       13
 44
0.0
173
     0
291
     0
 45
0.0
1001
ACAD
1000
AcDbSavedByObjectVersion
1070
     0
  0
DICTIONARYVAR
  5
195A
102
{ACAD_REACTORS
330
9E
102
}
330
9E
100
DictionaryVariables
280
     0
  1
1:1
  0
DICTIONARYVAR
  5
1959
102
{ACAD_REACTORS
330
9E
102
}
330
9E
100
DictionaryVariables
280
     0
  1
STANDARD
  0
DICTIONARYVAR
  5
ED6
102
{ACAD_REACTORS
330
9E
102
}
330
9E
100
DictionaryVariables
280
     0
  1
STANDARD
  0
DICTIONARYVAR
  5
A0
102
{ACAD_REACTORS
330
9E
102
}
330
9E
100
DictionaryVariables
280
     0
  1
1
  0
DICTIONARYVAR
  5
9F
102
{ACAD_REACTORS
330
9E
102
}
330
9E
100
DictionaryVariables
280
     0
  1
0
  0
DICTIONARYVAR
  5
1A68
102
{ACAD_REACTORS
330
9E
102
}
330
9E
100
DictionaryVariables
280
     0
  1
127
  0
DICTIONARYVAR
  5
1A69
102
{ACAD_REACTORS
330
9E
102
}
330
9E
100
DictionaryVariables
280
     0
  1
0
  0
DICTIONARY
  5
E9D
102
{ACAD_REACTORS
330
63
102
}
330
63
100
AcDbDictionary
281
     1
  0
DICTIONARY
  5
69
102
{ACAD_REACTORS
330
63
102
}
330
63
100
AcDbDictionary
281
     1
  0
XRECORD
  5
CD7
102
{ACAD_REACTORS
330
63
102
}
330
63
100
AcDbXrecord
280
     1
 90
-1023410169
  0
DICTIONARY
  5
1A6D
330
1E
100
AcDbDictionary
280
     1
281
     1
  3
ACAD_XREC_ROUNDTRIP
360
1A6E
  0
DICTIONARY
  5
1A70
330
26
100
AcDbDictionary
280
     1
281
     1
  3
ACAD_XREC_ROUNDTRIP
360
1A71
  0
DICTIONARY
  5
190B
330
22
100
AcDbDictionary
280
     1
281
     1
  3
ACAD_XREC_ROUNDTRIP
360
1A6F
  3
ADSK_XREC_LAYOUTTHUMBNAIL
360
190C
  0
DICTIONARY
  5
1A76
330
CA2
100
AcDbDictionary
280
     1
281
     1
  3
ACAD_XREC_ROUNDTRIP
360
1A77
  0
DICTIONARY
  5
1A74
330
CA1
100
AcDbDictionary
280
     1
281
     1
  3
ACAD_XREC_ROUNDTRIP
360
1A75
  0
DICTIONARY
  5
1A72
330
324
100
AcDbDictionary
280
     1
281
     1
  3
ACAD_XREC_ROUNDTRIP
360
1A73
  0
DICTIONARY
  5
190D
330
CB5
100
AcDbDictionary
280
     1
281
     1
  3
ACAD_ROUNDTRIP_2008_TABLESTYLE_CELLSTYLEMAP
360
1A6A
  3
ACAD_XREC_ROUNDTRIP
360
1A98
  0
DICTIONARY
  5
1A82
330
CA9
100
AcDbDictionary
280
     1
281
     1
  3
ACAD_XREC_ROUNDTRIP
360
1A83
  0
DICTIONARY
  5
1A86
330
CAB
100
AcDbDictionary
280
     1
281
     1
  3
ACAD_XREC_ROUNDTRIP
360
1A87
  0
DICTIONARY
  5
1A84
330
CAA
100
AcDbDictionary
280
     1
281
     1
  3
ACAD_XREC_ROUNDTRIP
360
1A85
  0
DICTIONARY
  5
1A80
330
CA8
100
AcDbDictionary
280
     1
281
     1
  3
ACAD_XREC_ROUNDTRIP
360
1A81
  0
DICTIONARY
  5
1A8E
330
CAF
100
AcDbDictionary
280
     1
281
     1
  3
ACAD_XREC_ROUNDTRIP
360
1A8F
  0
DICTIONARY
  5
1A96
330
CB3
100
AcDbDictionary
280
     1
281
     1
  3
ACAD_XREC_ROUNDTRIP
360
1A97
  0
DICTIONARY
  5
1A88
330
CAC
100
AcDbDictionary
280
     1
281
     1
  3
ACAD_XREC_ROUNDTRIP
360
1A89
  0
DICTIONARY
  5
1A8C
330
CAE
100
AcDbDictionary
280
     1
281
     1
  3
ACAD_XREC_ROUNDTRIP
360
1A8D
  0
DICTIONARY
  5
1AAB
330
1767
100
AcDbDictionary
280
     1
281
     1
  3
ACAD_XREC_ROUNDTRIP
360
1AAC
  0
DICTIONARY
  5
1A94
330
CB2
100
AcDbDictionary
280
     1
281
     1
  3
ACAD_XREC_ROUNDTRIP
360
1A95
  0
DICTIONARY
  5
1A78
330
CA4
100
AcDbDictionary
280
     1
281
     1
  3
ACAD_XREC_ROUNDTRIP
360
1A79
  0
DICTIONARY
  5
1A7A
330
CA5
100
AcDbDictionary
280
     1
281
     1
  3
ACAD_XREC_ROUNDTRIP
360
1A7B
  0
DICTIONARY
  5
1A7C
330
CA6
100
AcDbDictionary
280
     1
281
     1
  3
ACAD_XREC_ROUNDTRIP
360
1A7D
  0
DICTIONARY
  5
1A7E
330
CA7
100
AcDbDictionary
280
     1
281
     1
  3
ACAD_XREC_ROUNDTRIP
360
1A7F
  0
DICTIONARY
  5
1A9B
330
175F
100
AcDbDictionary
280
     1
281
     1
  3
ACAD_XREC_ROUNDTRIP
360
1A9C
  0
DICTIONARY
  5
1AA7
330
1765
100
AcDbDictionary
280
     1
281
     1
  3
ACAD_XREC_ROUNDTRIP
360
1AA8
  0
DICTIONARY
  5
1A92
330
CB1
100
AcDbDictionary
280
     1
281
     1
  3
ACAD_XREC_ROUNDTRIP
360
1A93
  0
DICTIONARY
  5
1AA9
330
1766
100
AcDbDictionary
280
     1
281
     1
  3
ACAD_XREC_ROUNDTRIP
360
1AAA
  0
DICTIONARY
  5
1A8A
330
CAD
100
AcDbDictionary
280
     1
281
     1
  3
ACAD_XREC_ROUNDTRIP
360
1A8B
  0
DICTIONARY
  5
1AA5
330
1764
100
AcDbDictionary
280
     1
281
     1
  3
ACAD_XREC_ROUNDTRIP
360
1AA6
  0
DICTIONARY
  5
1AA3
330
1763
100
AcDbDictionary
280
     1
281
     1
  3
ACAD_XREC_ROUNDTRIP
360
1AA4
  0
DICTIONARY
  5
1A9D
330
1760
100
AcDbDictionary
280
     1
281
     1
  3
ACAD_XREC_ROUNDTRIP
360
1A9E
  0
DICTIONARY
  5
1A9F
330
1761
100
AcDbDictionary
280
     1
281
     1
  3
ACAD_XREC_ROUNDTRIP
360
1AA0
  0
DICTIONARY
  5
1A90
330
CB0
100
AcDbDictionary
280
     1
281
     1
  3
ACAD_XREC_ROUNDTRIP
360
1A91
  0
DICTIONARY
  5
1A99
330
175E
100
AcDbDictionary
280
     1
281
     1
  3
ACAD_XREC_ROUNDTRIP
360
1A9A
  0
DICTIONARY
  5
1AA1
330
1762
100
AcDbDictionary
280
     1
281
     1
  3
ACAD_XREC_ROUNDTRIP
360
1AA2
  0
XRECORD
  5
1A6E
102
{ACAD_REACTORS
330
1A6D
102
}
330
1A6D
100
AcDbXrecord
280
     1
102
SHADEPLOT
 70
     0
102
SHADEPLOTRESLEVEL
 70
     2
102
SHADEPLOTCUSTOMDPI
 70
   300
  0
XRECORD
  5
1A71
102
{ACAD_REACTORS
330
1A70
102
}
330
1A70
100
AcDbXrecord
280
     1
102
SHADEPLOT
 70
     0
102
SHADEPLOTRESLEVEL
 70
     2
102
SHADEPLOTCUSTOMDPI
 70
   300
  0
XRECORD
  5
1A6F
102
{ACAD_REACTORS
330
190B
102
}
330
190B
100
AcDbXrecord
280
     1
102
SHADEPLOT
 70
     0
102
SHADEPLOTRESLEVEL
 70
     2
102
SHADEPLOTCUSTOMDPI
 70
   180
  0
XRECORD
  5
190C
102
{ACAD_REACTORS
330
190B
102
}
330
190B
100
AcDbXrecord
280
     1
310
28000000000100007B0000000100080000000000007B0000000000000000000000010000000000000000000000000000FFFFFF000000000000000000000000000000000000000000000000000000000000000000330000006600000099000000CC000000FF00000000330000333300006633000099330000CC330000FF3300
310
0000660000336600006666000099660000CC660000FF66000000990000339900006699000099990000CC990000FF99000000CC000033CC000066CC000099CC0000CCCC0000FFCC000000FF000033FF000066FF000099FF0000CCFF0000FFFF000000003300330033006600330099003300CC003300FF003300003333003333
310
33006633330099333300CC333300FF33330000663300336633006666330099663300CC663300FF66330000993300339933006699330099993300CC993300FF99330000CC330033CC330066CC330099CC3300CCCC3300FFCC330000FF330033FF330066FF330099FF3300CCFF3300FFFF330000006600330066006600660099
310
006600CC006600FF00660000336600333366006633660099336600CC336600FF33660000666600336666006666660099666600CC666600FF66660000996600339966006699660099996600CC996600FF99660000CC660033CC660066CC660099CC6600CCCC6600FFCC660000FF660033FF660066FF660099FF6600CCFF6600
310
FFFF660000009900330099006600990099009900CC009900FF00990000339900333399006633990099339900CC339900FF33990000669900336699006666990099669900CC669900FF66990000999900339999006699990099999900CC999900FF99990000CC990033CC990066CC990099CC9900CCCC9900FFCC990000FF99
310
0033FF990066FF990099FF9900CCFF9900FFFF99000000CC003300CC006600CC009900CC00CC00CC00FF00CC000033CC003333CC006633CC009933CC00CC33CC00FF33CC000066CC003366CC006666CC009966CC00CC66CC00FF66CC000099CC003399CC006699CC009999CC00CC99CC00FF99CC0000CCCC0033CCCC0066CC
310
CC0099CCCC00CCCCCC00FFCCCC0000FFCC0033FFCC0066FFCC0099FFCC00CCFFCC00FFFFCC000000FF003300FF006600FF009900FF00CC00FF00FF00FF000033FF003333FF006633FF009933FF00CC33FF00FF33FF000066FF003366FF006666FF009966FF00CC66FF00FF66FF000099FF003399FF006699FF009999FF00CC
310
99FF00FF99FF0000CCFF0033CCFF0066CCFF0099CCFF00CCCCFF00FFCCFF0000FFFF0033FFFF0066FFFF0099FFFF00CCFFFF00FFFFFF00000000000D0D0D001A1A1A00282828003535350043434300505050005D5D5D006B6B6B00787878008686860093939300A1A1A100AEAEAE00BBBBBB00C9C9C900D6D6D600E4E4E400
310
F1F1F100FFFFFF000000000000000000000000000000000000000000000000000000000000000000000000000000000000000000000000000000000000000000000000000000000000000000000000000000000000000000000000000000000000000000000000000000000000002800000000000000000000000000000000
310
00000000000000000000000000000000000000000000000000000000000000000000000000000000000000000000000000000000000000000000000000000000280000000000000000000000000000000000000000000000000000000000000000000000000000000000000000000000000000000000000000000000000000
310
00000000000000000000000000000000000000000000000000000000000000000000000000000000000000000000000000000000000000000000000000000000000000000000000000000000000000000000000000000000000000000000000000000000000000000000000000000000282828282828282828282828282828
310
28282828282828282828282828282828282828282828282828282828282828282828282828282828282828282828282828282828282828282828282828282828282828000000000000000000000000000000000000000000000000000000000000000000000000000000000000000000000000000000000000000000000000
310
00000000000000000000000000000000000000000000000000000000000000000000000000000000000000000000000000000000000000000000000000000000000000000000000000000000000000000000000000000000000000000000000000000000000000000000000000000000000028000000000000000000000000
310
000000000000000000000000000000000000000000000000000000DCDC0000000000000000000000000000000000000000000000000000000000000000000000000000002800000000000000000000000000000000000000000000000000000000000000000000000000000000000000000000000000000000000000000000
310
00000000000000000000000000000000000000000000000000000000000000000000000000000000000000000000000000000000000000000000000000000000000000000000000000000000000000000000000000000000000000000000000000000000000000000000000000000000000000002800000000000000000000
310
00000000000000000000000000000000000000000000000000000000DCDCDC000000000000000000000000000000000000000000000000000000000000000000000000000000280000000000000000000000000000000000000000000000000000000000000000000000000000000000000000000000000000000000000000
310
00000000000000000000000000000000000000000000000000000000000000000000000000000000000000000000000000000000000000000000000000000000000000000000000000000000000000000000000000000000000000000000000000000000000000000000000000000000000000000000280000000000000000
310
000000000000000000000000000000000000000000000000000000000000DCDCDC00000000000000000000000000000000000000000000000000000000000000000000000000000028000000000000000000000000000000000000000000000000000000000000000000000000000000000000000000000000000000000000
310
00000000000000000000000000000000000000000000000000000000000000000000000000000000000000000000000000000000000000000000000000000000000000000000000000000000000000000000000000000000000000000000000000000000000000000000000000000000000000000000000028000000000000
310
0000000000000000000000000000000000000000000000000000000000000000000000000000000000000000000000000000000000000000000000000000000000000000000000000000280000000000000000000000000000000000000000000000000000000000000000002D000000000000000000000000000000000000
310
00000000000000000000000000000000000000000000000000000000000000000000000000000000000000000000000000000000000000000000000000000000000000000000000000000000000000000000000000000000000000000000000000000000000000000000000000000000000000000000000000002800000000
310
00000000000000000000000000000000000000000000000000000000000000000000000000000000000000000000000000000000000000000000000000000000000000000000000000000000280000000000000000000000000000000000000000000000000000000000000000002D00000000000000000000000000000000
310
00000000000000000000000000000000000000000000000000000000000000000000000000000000000000000000000000000000000000000000000000000000000000000000000000000000000000000000000000000000000000000000000000000000000000000000000000000000000000000000000000000000280000
310
0000000000000000000000000000000000000000000000000000F5F5F500000000000000002D00000000000000F5F5F5F5000000000000000000000000000000000000000000000000000000000028000000000000000000000000000000000000000000000000000000000000F5F5F5F5F5F5000000000000000000000000
310
00000000000000000000000000000000000000000000000000000000000000000000000000000000000000000000000000000000000000000000000000000000000000000000000000000000000000000000000000000000000000000000000000000000000000000000000000000000000000000000000000000000000028
310
00000000000000000000F5F5F5F5F5F5F5F5F5F5F500000000000000F500F5F5000000000000002D00000000000000F50000F500000000000000000000000000000000000000000000000000000000002800000000000000000000000000000000000000000000000000000000F5F50000002D0000F5F50000000000000000
310
00000000000000000000000000000000000000000000000000000000000000000000000000000000000000000000000000000000000000000000000000000000000000000000000000000000000000000000000000000000000000000000000000000000000000000000000000000000000000000000000000000000000000
310
0028000000000000000000F5F5000000000000000000F5F5F5F5F5F5F5F5F500F5F5F5F5F5F5F5F5F5F5F5F5F5F5F5F5F5F50000F5F5F5F50000000000000000000000000000000000000000000000000000280000000000000000000000000000000000000000000000000000F5F500000000F5F500000000F5F500000000
310
00000000000000000000000000000000000000000000000000000000000000000000000000000000000000000000000000000000000000000000000000000000000000000000000000000000000000000000000000000000000000000000000000000000000000000000000000000000000000000000000000000000000000
310
00000028000000000028000000F500000000000000000000F500000000F5F5F5F500F5F5000000000000002D000000000000F5F50000F50000F500000000000000000000000000000000000000000000000000002800000000000000000000000000000000000000000000000000F50000F5F5F5F5002DF5F5F5F50000F500
310
00000000000000000000000000000000000000000000000000000000000000000000000000000000000000000000000000000000000000000000000000000000000000000000000000000000000000000000000000000000000000000000000000000000000000000000000000000000000000000000000000000000000000
310
00000000002800F5F5F5F5F5F5F5F5F5F5000000000000000000F500000000F5F500F500F5F5000000000000002D000000000000F5F50000F50000F5000000000000000000000000000000000000000000000000000028000000000000000000000000000000000000000000000000F50000F5F5F50000002D0000F5F5F500
310
00F50000000000000000000000000000000000000000000000000000000000000000000000000000000000000000000000000000000000000000000000000000000000000000000000000000000000000000000000000000000000000000000000000000000000000000000000000000000000000000000000000000000000
310
00000000000000F5F5F5282828282828F5F5F5F5F5F5F5F5F5F5F5F5F500000000F5F500F500F5F5F5F5F5F5F5F5F5F5F5F5F5F5F5F5F5F50000F50000F5000000000000000000000000000000000000000000000000000028000000000000000000000000000000000000000000000000F500F5F500000000002D00000000
310
F5F50000F50000000000000000000000000000000000000000000000000000000000000000000000000000000000000000000000000000000000000000000000000000000000000000000000000000000000000000000000000000000000000000000000000000000000000000000000000000000000000000000000000000
310
000000000000000000F500F5000000280000F5F5F5000000000000000000F500000000F5F500F500F500000000000000002D00000000000000F50000F50000F5F5F5F5F50000F5F5F50000F5F5F50000F5F5F50000F5F5F52828282828282828280000000000000000000000000000000000F50000F500000000F5F5F5F500
310
00000000F500F5000000000000000000000000000000000000000000000000000000000000000000000000000000000000000000000000000000000000000000000000000000000000000000000000000000000000000000000000000000000000000000000000000000000000000000000000000000000000000000000000
310
0000000000000000000000F500F5000000280000F5F5F5F5F5F5F5F5F5F5F5F5F500000000F5F500F500F500000000000000002D00000000000000F50000F50000F50000F500F5F5F50000F5F5F50000F5F5F50000F5F5F50000F5F5F50000000028280000000000000000000000000000000000F500F500000000F5F5F5F5
310
F5F500000000F50000F5000000000000000000000000000000000000000000000000000000000000000000000000000000000000000000000000000000000000000000000000000000000000000000000000000000000000000000000000000000000000000000000000000000000000000000000000000000000000000000
310
00000000000000000000000000F500F5000000280000F5F5F5000000000000000000F500000000F5F500F500F500000000000000002D00000000000000F50000F50000F50000F5000000F500000000F500000000F500000000F500000000F500000000280000000000000000000000000000000000F50000F5000000F5F528
310
282828F5F500000000F500F500000000000000000000000000000000000000000000000000000000000000000000000000000000000000000000000000000000000000000000000000000000000000000000000000000000000000000000000000000000000000000000000000000000000000000000000000000000000000
310
000000000000000000000000000000F500F5000000280000F5F5F5000000000000000000F500000000F5F500F500F500000000000000002D00000000000000F50000F50000F50000F5000000F500000000F500000000F500000000F500000000F500000000280000000000000000000000000000000000F500F5000000F5F5
310
2800002D0028F5F5000000F500F50000000000000000000000000000000000000000000000000000000000000000000000000000000000000000000000000000000000000000000000000000000000000000000000000000000000000000000000000000000000000000000000000000000000000000000000000000000000
310
0000000000000000000000000000000000F500F5000000280000F5F500000000000000000000F500000000F5F500F500F500000000000000002D00000000000000F50000F50000F50000F5000000F500000000F500000000F500000000F500000000F50000DCDC280000000000000000000000000000000000F500F5000000
310
F5F52800002D002800F5000000F500F5000000000000000000000000000000000000000000000000000000000000000000000000000000000000000000000000000000000000000000000000000000000000000000000000000000000000000000000000000000000000000000000000000000000000000000000000000000
310
00000000000000000000000000000000002D2DF52DF52D2D2D282D2DF5F52D2D2D2D2D2D2D2D2D2DF52D2D2D2DF52D2DF52DF52D2D2D2D2D2D2D2D2D2D2D2D2D2D2D2DF52D2D2D2D2D2D2D2DF52D2D2DF52D2D2D2DF52D2D2D2DF52D2D2D2DF52D2D2D2DF52D28DCDC282828282828282828282800000000002D2DF52DF52D
310
2D2DF5282D2D2D2D2D2D28F52D2D2DF52DF52D2D2D00000000000000000000000000000000000000000000000000000000000000000000000000000000000000000000000000000000000000000000000000000000000000000000000000000000000000000000000000000000000000000000000000000000000000000000
310
000000000000000000000000000000000000000000F500F5000000280000F5F5F5000000000000000000F500000000F5F500F500F500000000000000002D00000000000000F50000F50000F50000F5000000F500000000F500000000F500000000F500000000F50000DCDC280000000000000000280000000000000000F500
310
F5000000F5F52800002D0028F5F5000000F500F50000000000000000000000000000000000000000000000000000000000000000000000000000000000000000000000000000000000000000000000000000000000000000000000000000000000000000000000000000000000000000000000000000000000000000000000
310
0000000000000000000000000000000000000000000000F500F5000000280000F5F5F5000000000000000000F500000000F5F500F500F500000000000000002D00000000000000F50000F50000F50000F5000000F500000000F500000000F500000000F500000000F500000000280000000000000000280000000000000000
310
F500F500000000F52800002D0028F5F5000000F500F5000000000000000000000000000000000000000000000000000000000000000000000000000000000000000000000000000000000000000000000000000000000000000000000000000000000000000000000000000000000000000000000000000000000000000000
310
00000000000000000000000000000000000000000000000000F500F5000000280000F5F5F5000000000000000000F500000000F5F500F500F500000000000000002D00000000000000F50000F50000F50000F5000000F500000000F500000000F500000000F500000000F50000000028280000000000000028000000000000
310
000000F500F5000000F5F528282828F5F500000000F500F500000000000000000000000000000000000000000000000000000000000000000000000000000000000000000000000000000000000000000000000000000000000000000000000000000000000000000000000000000000000000000000000000000000000000
310
000000000000000000000000000000000000000000000000000000F500F5000000280000F5F5F5F5F5F5F5F5F5F5F5F5F500000000F5F500F500F500000000000000002D00000000000000F50000F50000F50000F50000F5F50000F5F5F50000F5F5F50000F5F5F50000F5F5F5000000002828000000000000002800000000
310
0000000000F500F500000000F5F5F5F5F5F500000000F500F5000000000000000000000000000000000000000000000000000000000000000000000000000000000000000000000000000000000000000000000000000000000000000000000000000000000000000000000000000000000000000000000000000000000000
310
0000000000000000000000000000000000000000000000000000000000F500F5000000280000F5F5F5000000000000000000F500000000F5F500F500F5F5F5F5F5F5F5F5F5F5F5F5F5F5F5F5F5F50000F50000F5F5F5F5F5F500F5F5F50000F5F5F50000F5F5F50000F5F5F528282828282828282800000000000000280000
310
00000000000000F50000F50000000000F5F5000000000000F500F500000000000000000000000000000000000000000000000000000000000000000000000000000000000000000000000000000000000000000000000000000000000000000000000000000000000000000000000000000000000000000000000000000000
310
0000000000000000000000000000000000000000000000000000000000000028F5F5282828282828F5F5F5F5F5F5F5F5F5F5F5F5F500000000F5F500F500F5F5F5F5F5F5F5F5F5F5F5F5F5F5F5F5F5F50000F50000F50000000000000000000000000000000000000000000000000000000000000000000000000000000028
310
00000000000000000000F500F5F500000000002D0000000000F500F5000000000000000000000000000000000000000000000000000000000000000000000000000000000000000000000000000000000000000000000000000000000000000000000000000000000000000000000000000000000000000000000000000000
310
0000000000000000000000000000000000000000000000000000000000000000000000F5F5F5F5F5F5F5F5F5F5000000000000000000F500000000F5F500F500F5F5000000F5F5F5002DF5F5F5000000F5F50000F50000F5000000000000000000000000000000000000000000000000000000000000000000000000000000
310
002800000000000000000000F50000F5F5000000002D000000F5F50000F500000000000000000000000000000000000000000000000000000000000000000000000000000000000000000000000000000000000000000000000000000000000000000000000000000000000000000000000000000000000000000000000000
310
000000000000000000000000000000000000000000000000000000000000000000000000000000000000000000F500000000000000000000F500000000F5F5F5F500F5F50000F5000000002D000000F50000F5F50000F5F5F5F500000000000000000000000000000000000000000000000000000000000000000000000000
310
000000280000000000000000000000F5F50000F5F5F5F5F5F5F5F50000F5F5000000000000000000000000000000000000000000000000000000000000000000000000000000000000000000000000000000000000000000000000000000000000000000000000000000000000000000000000000000000000000000000000
310
0000000000000000000000000000000000000000000000000000000000000000000000000000000000000000000000F5F5000000000000000000F5F5F5F5F5F500F5F500F5F5F5F500000000002D00000000F5F5F5F50000F50000000000000000000000000000000000000000000000000000000000000000000000000000
310
000000000028000000000000000000000000F5F5F5000000002D000000F5F5F50000000000000000000000000000000000000000000000000000000000000000000000000000000000000000000000000000000000000000000000000000000000000000000000000000000000000000000000000000000000000000000000
310
0000000000000000000000000000000000000000000000000000000000000000000000000000000000000000000000000000F5F5F5F5F5F5F5F5F5F5F500000000000000F500F5F5F50000000000002D0000000000F500F50000F5000000000000000000000000000000000000000000000000000000000000000000000000
310
0000000000000028000000000000000000000000F50000F5F5F5002D00F5F50000F5000000000000000000000000000000000000000000000000000000000000000000000000000000000000000000000000000000000000000000000000000000000000000000000000000000000000000000000000000000000000000000
310
00000000000000000000000000000000000000000000000000000000000000000000000000000000000000000000000000000000000000000000000000000000000000000000F5F5F5F5F5F5F5F5F5F5F5F5F5F5F5F5F5F5F5F5F5F5F500000000000000000000000000000000000000000000000000000000000000000000
310
000000000000000000280000000000000000000000F5F5F5F5F5F5F5F5F5F5F5F5F5F5F5F5000000000000000000000000000000000000000000000000000000000000000000000000000000000000000000000000000000000000000000000000000000000000000000000000000000000000000000000000000000000000
310
000000000000000000000000000000000000000000000000000000000000000000000000000000000000000000000000000000000000000000000000000000000000000000000000000000F5000000000000002D00000000000000F50000000000000000000000000000000000000000000000000000000000000000000000
310
0000000000000000000000280000000000000000000000F5000000000000002D000000000000F500000000000000000000000000000000000000000000000000000000000000000000000000000000000000000000000000000000000000000000000000000000000000000000000000000000000000000000000000000000
310
0000000000000000000000000000000000000000000000000000000000000000000000000000000000000000000000000000000000000000000000000000000000000000000000000000000000F5000000000000002D00000000000000F5000000000000000000000000000000000000000000000000000000000000000000
310
0000000000000000000000DCDC280000000000000000000000F5F50000000000002D000000000000F50000000000000000000000000000000000000000000000000000000000000000000000000000000000000000000000000000000000000000000000000000000000000000000000000000000000000000000000000000
310
00000000000000000000000000000000000000000000000000000000000000000000000000000000000000000000000000000000000000000000000000000000000000000000000000000000000000F5000000000000002D00000000000000F500000000000000000000000000000000000000000000000000000000000000
310
000000000000000000000000DCDCDC280000000000000000000000F5F50000000000002D0000000000F5F5000000000000000000000000000000000000000000000000000000000000000000000000000000000000000000000000000000000000000000000000000000000000000000000000000000000000000000000000
310
000000000000000000000000000000000000000000000000000000000000000000000000000000000000000000000000000000000000000000000000000000000000000000000000000000000000000000F5000000000000002D0000000000000000F500000000000000000000000000000000000000000000000000000000
310
0000000000000000000000000000DCDCDC280000000000000000000000F500F500000000002D0000000000F5F500000000000000000000000000000000000000000000000000000000000000000000000000000000000000000000000000000000000000000000000000000000000000000000000000000000000000000000
310
0000000000000000000000000000000000000000000000000000000000000000000000000000000000000000000000000000000000000000000000000000000000000000000000000000000000000000000000F5000000000000002D000000000000000000F5F5000000000000000000000000000000000000000000000000
310
00000000000000000000000000000000DCDCDC280000000000000000000000F500F500000000002D00000000F500F50000000000000000000000000000000000000000000000000000000000000000000000000000000000000000000000000000000000000000000000000000000000000000000000000000000000000000
310
00000000000000000000000000000000000000000000000000000000000000000000000000000000000000000000000000000000000000000000000000000000000000000000000000000000000000000000000000F5000000000000002D0000000000000000000000F5F50000000000000000000000000000000000000000
310
000000000000000000000000000000000000DCDCDC280000000000000000000000F50000F5000000002D00000000F500F5000000000000000000000000000000000000000000000000000000000000000000000000000000000000000000000000000000000000000000000000000000000000000000000000000000000000
310
000000000000000000000000000000000000000000000000000000000000000000000000000000000000000000000000000000000000000000000000000000000000000000000000000000000000000000000000000000F5000000000000002D00000000000000000000000000F5F5F5000000000000000000000000000000
310
0000000000000000000000000000000000000000000000280000000000000000000000F50000F5000000002D000000F50000F500000000000000000000000000000000000000000000000000000000000000000000000000000000000000000000000000000000000000000000000000000000000000000000000000000000
310
0000000000000000000000000000000000000000000000000000000000000000000000000000000000000000000000000000000000000000000000000000000000000000000000000000000000000000000000000000000000F5000000000000002D00000000000000000000000000000000F5F5F5F5F5F5F5F5F5F5000000
310
00000000000000000000000000000000000000000000000000280000000000000000000000F5000000F50000002D000000F50000F50000000000000000000000000000000000000000000000000000000000000000000000000000000000000000000000000000000000000000000000000000000000000000000000000000
310
00000000000000000000000000000000000000000000000000000000000000000000000000000000000000000000000000000000000000000000000000000000000000000000000000000000000000000000000000000000000000F5000000000000002D00000000000000000000000000000000000000000000F5F5F5F5F5
310
F5F5F5F5F5F5F5F5F5F5F5F5000000000000000000000000000000280000000000000000000000F5000000F5F5F5F52DF5F5F5000000F5000000000000000000000000000000000000000000000000000000000000000000000000000000000000000000000000000000000000000000000000000000000000000000000000
310
000000000000000000000000000000000000000000000000000000000000000000000000000000000000000000000000000000000000000000000000000000000000000000000000000000000000000000000000000000000000000000F5000000000000002D00F5F5F5F5F5F5F5F5F5F5F5F5F5F5F5F5F5F5F5F5F5000000
310
0000000000000000000000000000F5F500000000000000000000000000280000000000000000000000F5F5F5F5F50000002D0000F5F5F5F5F500000000000000000000000000000000000000000000000000000000000000000000000000000000000000000000000000000000000000000000000000000000000000000000
310
000000000000000000000000000000000000000000000000000000000000000000000000000000000000000000000000000000000000000000000000000000000000000000000000000000000000000000000000000000000000000000000000F50000000000002D000000000000F500000000000000000000000000000000
310
000000000000000000000000000000000000F500000000000000000000000028000000000000000000000000F50000F50000002D0000F5000000F50000000000000000000000000000000000000000000000000000000000000000000000000000000000000000000000000000000000000000000000000000000000000000
310
0000000000000000000000000000000000000000000000000000000000000000000000000000000000000000000000000000000000000000000000000000000000000000000000000000000000000000000000000000000000000000000000000000F50000000000002D000000000000F50000000000000000000000000000
310
000000000000000000000000000000000000000000F5000000000000000000000028000000000000000000000000F50000F50000002D0000F5000000F5000000000000000000000000000000000000000000000000000000000000000000000000000000000000000000000000000000000000000000000000000000000000
310
00000000000000000000000000000000000000000000000000000000000000000000000000000000000000000000000000000000000000000000000000000000000000000000000000000000000000000000000000000000000000000000000000000000F50000000000002D000000000000F500000000F5F5F5F5F5F50000
310
0000000000000000000000000000000000000000000000F5000000000000000000000028000000000000000000000000F50000F50000002D0000F5000000F500000000000000000000000000000000000000000000000000000000000000000000000000000000000000000000000000000000000000000000000000000000
310
000000000000000000000000000000000000000000000000000000000000000000000000000000000000000000000000000000000000000000000000000000000000000000000000000000000000000000000000000000000000000000000000000000000000F50000000000002D0000000000F5000000F5F5000000000000
310
F5F50000000000000000000000000000000000000000000000F5000000000000000000000028000000000000000000000000F50000F50000002D0000F50000F5000000000000000000000000000000000000000000000000000000000000000000000000000000000000000000000000000000000000000000000000000000
310
000000000000000000000000000000000000000000000000000000000000000000000000000000000000000000000000000000000000000000000000000000000000000000000000000000000000000000000000000000000000000000000000000000000000000000F500000000002D0000000000F500F5F5000000000000
310
00000000F500000000000000000000000000000000000000000000F500000000000000000000002800000000000000000000000000F500F50000002D0000F50000F500000000000000000000000000000000000000000000000000000000000000000000000000000000000000000000000000000000000000000000000000
310
0000000000000000000000000000000000000000000000000000000000000000000000000000000000000000000000000000000000000000000000000000000000000000000000000000000000000000000000000000000000000000000000000000000000000000000000F500000000002D0000000000F5F5000000000000
310
000000000000F500000000000000000000000000000000000000000000F500000000000000000000002800000000000000000000000000F500F50000002D0000F50000F50000000000000000000000000000000000000000000000000000000000000000000000000000000000000000000000000000000000000000000000
310
000000000000000000000000000000000000000000000000000000000000000000000000000000000000000000000000000000000000000000000000000000000000000000000000000000000000000000000000000000000000000000000000000000000000000000000000F5F5F5F5F5F5F5F5F5F5F5F5F5F50000000000
310
000000000000000000F5000000000000000000000000000000000000000000F5000000000000000000000028000000000000000000000000F5F5F5F50000002D0000F5F5F5F5000000000000000000000000000000000000000000000000000000000000000000000000000000000000000000000000000000000000000000
310
0000000000000000000000000000000000000000000000000000000000000000000000000000000000000000000000000000000000000000000000000000000000000000000000000000000000000000000000000000000000000000000000000000000000000000000000000000F5F5F5F5F5F5F5F5F5F5F5F5F5F5000000
310
0000000000000000000000F5000000000000000000000000000000000000000000F5000000000000000000000028000000000000000000000000F5F5F5F50000002D0000F5F5F5F500000000000000000000000000000000000000000000000000000000000000000000000000000000000000000000000000000000000000
310
00000000000000000000000000000000000000000000000000000000000000000000000000000000000000000000000000000000000000000000000000000000000000000000000000000000000000000000000000000000000000000000000000000000000000000000000000000000000000000000002D00000000000000
310
00000000000000000000000000F5F5F5F5F5F5F5F5F5F5F5F5F5F5F5F5F5F5F5F5F5F5F5282828282828282828282828280000000000000000000000000000F5F5F5F52DF5F5F50000000000000000000000000000000000000000000000000000000000000000000000000000000000000000000000000000000000000000
310
00000000000000000000000000000000000000000000000000000000000000000000000000000000000000000000000000000000000000000000000000000000000000000000000000000000000000000000000000000000000000000000000000000000000000000000000000000000000000000000000000280000000000
310
0000000000000000000000000000000000000000000000000000000000000000000000000028000000000000000000000000000000000000000000000000000000000000002D000000000000000000000000000000000000000000000000000000000000000000000000000000000000000000000000000000000000000000
310
00000000000000000000000000000000000000000000000000000000000000000000000000000000000000000000000000000000000000000000000000000000000000000000000000000000000000000000000000000000000000000000000000000000000000000000000000000000000000000000000000000028000000
310
00000000000000000000000000000000000000000000000000000000000000000000000000000028000000000000000000000000000000000000000000000000000000000000002D00000000000000000000000000000000000000000000000000000000000000000000000000000000000000000000000000000000000000
310
00000000000000000000000000000000000000000000000000000000000000000000000000000000000000000000000000000000000000000000000000000000000000000000000000000000000000000000000000000000000000000000000000000000000000000000000000000000000000000000000000000000002800
310
000000000000000000000000000000000000000000000000000000000000000000000000000000000028000000000000000000000000000000000000000000000000000000000000002D0000000000000000000000000000000000000000000000000000000000000000000000000000000000000000000000000000000000
310
00000000000000000000000000000000000000000000000000000000000000000000000000000000000000000000000000000000000000000000000000000000000000000000000000000000000000000000000000000000000000000000000000000000000000000000000000000000000000000000000000000000000000
310
28000000000000000000000000000000000000000000000000000000000000000000000000000000000000280000000000000000000000000000000000000000000000000000000000000000000000000000000000000000000000000000000000000000000000000000000000000000000000000000000000000000000000
310
00000000000000000000000000000000000000000000000000000000000000000000000000000000000000000000000000000000000000000000000000000000000000000000000000000000000000000000000000000000000000000000000000000000000000000000000000000000000000000000000000000000000000
310
00002800000000000000000000000000000000000000000000000000000000000000000000000000000000000028000000000000000000000000000000000000000000000000000000000000000000000000000000000000000000000000000000000000000000000000000000000000000000000000000000000000000000
310
00000000000000000000000000000000000000000000000000000000000000000000000000000000000000000000000000000000000000000000000000000000000000000000000000000000000000000000000000000000000000000000000000000000000000000000000000000000000000000000000000000000000000
310
00000000280000000000000000000000000000000000000000000000000000000000000000000000000000000000002800000000000000000000000000000000000000000000000000000000000000000000000000000000000000000000000000000000000000000000000000000000000000000000000000000000000000
310
00000000000000000000000000000000000000000000000000000000000000000000000000000000000000000000000000000000000000000000000000000000000000000000000000000000000000000000000000000000000000000000000000000000000000000000000000000000000000000000000000000000000000
310
00000000000028282828282828282828282828282828282828282828282828282828282828282828282828282828282828280000000000000000000000000000000000000000000000000000000000000000000000000000000000000000000000000000000000000000000000000000000000000000000000000000000000
310
00000000000000000000000000000000000000000000000000000000000000000000000000000000000000000000000000000000000000000000000000000000000000000000000000000000000000000000000000000000000000000000000000000000000000000000000000000000000000000000000000000000000000
310
0000000000000000282800000000000000000000000000000000000000DCDC000000000000000000000000000000000000002828000000000000000000000000000000000000000000000000000000000000000000000000000000000000000000000000000000000000000000000000000000000000000000000000000000
310
00000000000000000000000000000000000000000000000000000000000000000000000000000000000000000000000000000000000000000000000000000000000000000000000000000000000000000000000000000000000000000000000000000000000000000000000000000000000000000000000000000000000000
310
000000000000000000000000000000000000000000000000000000000000DCDCDCDC000000000000000000000000000000000000000000000000000000000000000000000000000000000000000000000000000000000000000000000000000000000000000000000000000000000000000000000000000000000000000000
310
00000000000000000000000000000000000000000000000000000000000000000000000000000000000000000000000000000000000000000000000000000000000000000000000000000000000000000000000000000000000000000000000000000000000000000000000000000000000000000000000000000000000000
310
000000000000000000000000000000000000000000000000000000000000000000DCDC0000000000000000000000000000000000000000000000000000000000000000000000000000000000000000000000000000000000000000000000000000000000000000000000000000000000000000000000000000000000000000
310
00000000000000000000000000000000000000000000000000000000000000000000000000000000000000000000000000000000000000000000000000000000000000000000000000000000000000000000000000000000000000000000000000000000000000000000000000000000000000000000000000000000000000
310
00000000000000000000000000000000000000000000000000000000000000000000000000000000000000000000000000000000000000000000000000000000000000000000000000000000000000000000000000000000000000000000000000000000000000000000000000000000000000000000000000000000000000
310
00000000000000000000000000000000000000000000000000000000000000000000000000000000000000000000000000000000000000000000000000000000000000000000000000000000000000000000000000000000000000000000000000000000000000000000000000000000000000000000000000000000000000
310
00000000000000000000000000000000000000000000000000000000000000000000000000000000000000000000000000000000000000000000000000000000000000000000000000000000000000000000000000000000000000000000000000000000000000000000000000000000000000000000000000000000000000
310
00000000000000000000000000000000000000000000000000000000000000000000000000000000000000000000000000000000000000000000000000000000000000000000000000000000000000000000000000000000000000000000000000000000000000000000000000000000000000000000000000000000000000
310
00000000000000000000000000000000000000000000000000000000000000000000000000000000000000000000000000000000000000000000000000000000000000000000000000000000000000000000000000000000000000000000000000000000000000000000000000000000000000000000000000000000000000
310
00000000000000000000000000000000000000000000000000000000000000000000000000000000000000000000000000000000000000000000000000000000000000000000000000000000000000000000000000000000000000000000000000000000000000000000000000000000000000000000000000000000000000
310
00000000000000000000000000000000000000000000000000000000000000000000000000000000000000000000000000000000000000000000000000000000000000000000000000000000000000000000000000000000000000000000000000000000000000000000000000000000000000000000000000000000000000
310
00000000000000000000000000000000000000000000000000000000000000000000000000000000000000000000000000000000000000000000000000000000000000000000000000000000000000000000000000000000000000000000000000000000000000000000000000000000000000000000000000000000000000
310
00000000000000000000000000000000000000000000000000000000000000000000000000000000000000000000000000000000000000000000000000000000000000000000000000000000000000000000000000000000000000000000000000000000000000000000000000000000000000000000000000000000000000
310
00000000000000000000000000000000000000000000000000000000000000000000000000000000000000000000000000000000000000000000000000000000000000000000000000000000000000000000000000000000000000000000000000000000000000000000000000000000000000000000000000000000000000
310
00000000000000000000000000000000000000000000000000000000000000000000000000000000000000000000000000000000000000000000000000000000000000000000000000000000000000000000000000000000000000000000000000000000000000000000000000000000000000000000000000000000000000
310
00000000000000000000000000000000000000000000000000000000000000000000000000000000000000000000000000000000000000000000000000000000000000000000000000000000000000000000000000000000000000000000000000000000000000000000000000000000000000000000000000000000000000
310
00000000000000000000000000000000000000000000000000000000000000000000000000000000000000000000000000000000000000000000000000000000000000000000000000000000000000000000000000000000000000000000000000000000000000000000000000000000000000000000000000000000000000
310
00000000000000000000000000000000000000000000000000000000000000000000000000000000000000000000000000000000000000000000000000000000000000000000000000000000000000000000000000000000000000000000000000000000000000000000000000000000000000000000000000000000000000
310
0000000000000000000000000000000000F5F5F500000000000000002D00000000000000F5F5F5F5000000000000000000000000000000000000000000000000000000000000000000000000000000000000000000000000000000000000000000000000000000000000000000000000000000000000000000000000000000
310
00000000000000000000000000000000000000000000000000000000000000000000000000000000000000000000000000000000000000000000000000000000000000000000000000000000000000000000000000000000000000000000000000000000000000000000000000000000000000000000000000000000000000
310
00000000000000000000000000000000000000F50000F5000000000000002D00000000000000F50000F500000000000000000000000000000000000000000000000000000000000000000000000000000000000000000000000000000000000000000000000000000000000000000000000000000000000000000000000000
310
00000000000000000000000000000000000000000000000000000000000000000000000000000000000000000000000000000000000000000000000000000000000000000000000000000000000000000000000000000000000000000000000000000000000000000000000000000000000000000000000000000000000000
310
0000F5F5F5F5F5F5F5F5F5F5F5F5F5F5F5F5F500F5F50000F5F5F5F5F5F5F5F5F5F5F5F5F5F5F5F5F50000F5F5F5F50000000000000000000000000000000000000000000000000000000000000000000000000000000000000000000000000000000000000000000000000000000000000000000000000000000000000000
310
00000000000000000000000000000000000000000000000000000000000000000000000000000000000000000000000000000000000000000000000000000000000000000000000000000000000000000000000000000000000000000000000000000000000000000000000000000000000000000000000000000000000000
310
28000000F5F5F5F5F5F5F5F5F5F5F5F500000000F5F5F5F50000F50000000000F5F5F5F50000000000F5F50000F50000F5000000000000000000000000000000000000000000000000000000000000000000000000000000000000000000000000000000000000000000000000000000000000000000000000000000000000
310
0000000000000000000000000000000000000000000000000000000000000000000000000000000000000000000000000000000000000000000000000000000000000000000000000000000000000000000000000000000000000000000000000000000000000000000000000000000000000000000000000000000000F5F5
310
F5F5F5F5F5F5F5F5000000000000000000F500000000F5F500F50000F5F5F5F5F5F500002D00F5F5F5F5F5F5F50000F50000F500000000000000000000000000000000000000000000000000000000000000000000000000000000000000000000000000000000000000000000000000000000000000000000000000000000
310
0000000000000000000000000000000000000000000000000000000000000000000000000000000000000000000000000000000000000000000000000000000000000000000000000000000000000000000000000000000000000000000000000000000000000000000000000000000000000000000000000000000000F5F5
310
F5282828282828F5F5F5000000000000000000F500000000F5F500F50000F50000F50000F5F5F5F50000F5F5F5F5F5F5F5F50000F50000000000000000000000000000000000000000000000000000000000000000000000000000000000000000000000000000000000000000000000000000000000000000000000000000
310
00000000000000000000000000000000000000000000000000000000000000000000000000000000000000000000000000000000000000000000000000000000000000000000000000000000000000000000000000000000000000000000000000000000000000000000000000000000000000000000000000000000000000
310
F500F5000000280000F5F500000000000000000000F500000000F5F500F50000F5F5F50000F500002D00F5F500F5F500000000F5F5F5F5F5F5F5F50000F5F5F50000F5F5F50000F5F5F50000F5F5F5000000000000000000000000000000000000000000000000000000000000000000000000000000000000000000000000
310
00000000000000000000000000000000000000000000000000000000000000000000000000000000000000000000000000000000000000000000000000000000000000000000000000000000000000000000000000000000000000000000000000000000000000000000000000000000000000000000000000000000000000
310
0000F500F5000000280000F5F5F5000000000000000000F500000000F5F500F50000F5F500F5F50000002D000000F50000F50000000000000000F5F5F5F5F5F5F5F5F5F5F5F5F5F5F5F5F5F5F5F5F5F5F5F5F5F5F5F50000000000000000000000000000000000000000000000000000000000000000000000000000000000
310
00000000000000000000000000000000000000000000000000000000000000000000000000000000000000000000000000000000000000000000000000000000000000000000000000000000000000000000000000000000000000000000000000000000000000000000000000000000000000000000000000000000000000
310
00000000F500F5000000280000F5F5F5000000000000000000F500000000F5F500F50000F5F500F5000000002D00000000F500F50000F5F5F5F5F5F5F5F5000000F5000000000000000000000000000000000000000000F5000000000000000000000000000000000000000000000000000000000000000000000000000000
310
00000000000000000000000000000000000000000000000000000000000000000000000000000000000000000000000000000000000000000000000000000000000000000000000000000000000000000000000000000000000000000000000000000000000000000000000000000000000000000000000000000000000000
310
000000000000F500F5000000280000F5F5F5000000000000000000F500000000F5F500F50000F5F5F500000000002D00000000F5F5F5F5F50000000000000000000000F5000000000000000000000000000000000000000000F500000000000000000000000000000000000000000000000000000000000000000000000000
310
00000000000000000000000000000000000000000000000000000000000000000000000000000000000000000000000000000000000000000000000000000000000000000000000000000000000000000000000000000000000000000000000000000000000000000000000000000000000000000000000000000000000000
310
0000000000000000F500F5000000280000F5F5F5F5F5F5F5F5F5F5F5F5F500000000F5F500F50000F5F5F5F5F5F5F5F5F5BEBEBEBEBEF50000000000000000000000000000F5000000000000000000000000000000000000000000F5000000000000000000F5F5F5F5F5F5F5F5F5F5F5F5F5F5F5F5F5F5F5F5F5F5F5F5F5F5
310
F5F5F5F5F5F5F5F5F5F5F5F5F5F50000000000000000000000000000000000000000000000000000000000000000000000000000000000000000000000000000000000000000000000000000000000000000000000000000000000000000000000000000000000000000000000000000000000000000000000000000000000
310
00000000000000002D2DF52DF52D2D2D282D2DF52D2D2D2D2D2D2D2D2D2D2D2D2D2D2D2D2D2D2DF52D2D2D2D2D2D2D2D2D2D2D2D2D2D2D2D2D2D2D2D2D2D2D2D2D2D2D2D2D2D2D2D2D2D2D2D2D2D2D2D2D2D2D2D2D2D2D2D2D2D2D2D2D2D2D2D00000000000000F5F5F5F5F5F5F5F5F5F5F5F5F5F5F5F5F5F5F5F5F5F5F5F5
310
F5F5F5F5F5F5F5F5F5F5F5F5F5F5F5F5000000000000000000000000000000000000000000000000000000000000000000000000000000000000000000000000000000000000000000000000000000000000000000000000000000000000000000000000000000000000000000000000000000000000000000000000000000
310
000000000000000000000000F500F5000000280000F5F5F5F5F5F5F5F5F5F5F5F5F500000000F5F500F50000F5F5F500000000002D00000000F5F50000000000000000000000000000F5000000000000000000000000000000000000000000F500000000000000000000000000000000000000000000000000000000000000
310
00000000000000000000000000000000000000000000000000000000000000000000000000000000000000000000000000000000000000000000000000000000000000000000000000000000000000000000000000000000000000000000000000000000000000000000000000000000000000000000000000000000000000
310
0000000000000000000000000000F500F5000000280000F5F5F5000000000000000000F500000000F5F500F50000F5F5F5F5000000002D00000000F5F5F5F5000000000000000000000000F5000000000000000000000000000000000000000000F50000000000000000000000000000000000000000000000000000000000
310
00000000000000000000000000000000000000000000000000000000000000000000000000000000000000000000000000000000000000000000000000000000000000000000000000000000000000000000000000000000000000000000000000000000000000000000000000000000000000000000000000000000000000
310
00000000000000000000000000000000F500F5000000280000F5F5F5000000000000000000F500000000F5F500F5000028F500F5000000002D00000000F500F500F5F5F5F5F5F5F5F500000000F5000000000000000000000000000000000000000000F5000000000000000000000000000000000000000000000000000000
310
00000000000000000000000000000000000000000000000000000000000000000000000000000000000000000000000000000000000000000000000000000000000000000000000000000000000000000000000000000000000000000000000000000000000000000000000000000000000000000000000000000000000000
310
000000000000000000000000000000000000F500F5000000280000F5F5F5000000000000000000F500000000F5F500F50000F5F500F5000000002D000000F50000F5000000000000000000F5F5F5F5F5F5F5F5F5F5F5F5F5F5F5F5F5F5F5F5F5F5F5F5F5F5F500000000000000000000000000000000000000000000000000
310
00000000000000000000000000000000000000000000000000000000000000000000000000000000000000000000000000000000000000000000000000000000000000000000000000000000000000000000000000000000000000000000000000000000000000000000000000000000000000000000000000000000000000
310
0000000000000000000000000000000000000000F500F5000000280000F5F500000000000000000000F500000000F5F500F50000F5F50000F5F500002D0000F50000F500000000F5F5F5F5F5F5F5F5F500F5F5F50000F5F5F50000F5F5F50000F5F5F500000000000000000000000000000000000000000000000000000000
310
00000000000000000000000000000000000000000000000000000000000000000000000000000000000000000000000000000000000000000000000000000000000000000000000000000000000000000000000000000000000000000000000000000000000000000000000000000000000000000000000000000000000000
310
00000000000000000000000000000000000000000000F528F5282828282828F5F5F5000000000000000000F500000000F5F500F50000F528F5F50000F5F5F5F5F500F5F5F5F5F5F5F5F50000F50000000000000000000000000000000000000000000000000000000000000000000000000000000000000000000000000000
310
00000000000000000000000000000000000000000000000000000000000000000000000000000000000000000000000000000000000000000000000000000000000000000000000000000000000000000000000000000000000000000000000000000000000000000000000000000000000000000000000000000000000000
310
00000000000000000000000000000000000000000000000000F5F5F5F5F5F5F5F5F5F5F5000000000000000000F500000000F5F500F50000F5F528F5F5F528002D00F5F5F5F528F5F50000F50000F5000000000000000000000000000000000000000000000000000000000000000000000000000000000000000000000000
310
00000000000000000000000000000000000000000000000000000000000000000000000000000000000000000000000000000000000000000000000000000000000000000000000000000000000000000000000000000000000000000000000000000000000000000000000000000000000000000000000000000000000000
310
000000000000000000000000000000000000000000000000000000000000000000000000F5F5F5F5F5F5F5F5F5F5F5F500000000F5F5F5F50000F500280000F5F5F5F5F5F500000028F5F50000F50000F5000000000000000000000000000000000000F5000000F5F500000000000000000000000000000000000000000000
310
00000000000000000000000000000000000000000000000000000000000000000000000000000000000000000000000000000000000000000000000000000000000000000000000000000000000000000000000000000000000000000000000000000000000000000000000000000000000000000000000000000000000000
310
0000000000000000000000000000000000000000000000000000000000000000000000000000F5F5F5F5F5F5F5F5F5F5F5F5F5F5F5F5F500F5F50000F5F528F5F528F5F5F5F528F5F5F528F5F50000F5F5F5F50000000000000000000000000000000000F5F5000000F5F50000000000000000000000000000000000000000
310
00000000000000000000000000000000000000000000000000000000000000000000000000000000000000000000000000000000000000000000000000000000000000000000000000000000000000000000000000000000000000000000000000000000000000000000000000000000000000000000000000000000000000
310
0000000000000000000000000000000000000000000000000000000000000000000000000000000000000000000000000000000000000000000000F50000F5002800002800002D00280000280000F50000F500000000000000000000000000000000000000F5F5F5000000F5F5000000000000000000000000000000000000
310
00000000000000000000000000000000000000000000000000000000000000000000000000000000000000000000000000000000000000000000000000000000000000000000000000000000000000000000000000000000000000000000000000000000000000000000000000000000000000000000000000000000000000
310
00000000000000000000000000000000000000000000000000000000000000000000000000000000000000000000000000000000000000000000000000F5F5F500002800002800002D00280000280000F5F5F5F50000000000000000000000000000000000000000F5F5000000000000000000000000000000000000000000
310
00000000000000000000000000000000000000000000000000000000000000000000000000000000000000000000000000000000000000000000000000000000000000000000000000000000000000000000000000000000000000000000000000000000000000000000000000000000000000000000000000000000000000
310
00000000000000000000000000000000000000000000000000000000000000000000000000000000000000000000000000000000000000000000000000000000000000000028002800002D00280000280000000000000000000000000000000000000000000000000000F50000000000000000000000000000000000000000
310
00000000000000000000000000000000000000000000000000000000000000000000000000000000000000000000000000000000000000000000000000000000000000000000000000000000000000000000000000000000000000000000000000000000000000000000000000000000000000000000000000000000000000
310
000000000000000000000000000000000000000000000000000000000000000000000000000000000000000000000000000000000000000000000000000000000000000000000028002800002D00002800280000000000000000000000000000000000000000000000000000F5000000000000000000000000000000000000
310
00000000000000000000000000000000000000000000000000000000000000000000000000000000000000000000000000000000000000000000000000000000000000000000000000000000000000000000000000000000000000000000000000000000000000000000000000000000000000000000000000000000000000
310
0000000000000000000000000000000000000000000000000000000000000000000000000000000000000000000000000000000000000000000000000000000000000000000000000028002800002D000028280000000000000000000000000000000000000000000000000000F50000000000000000000000000000000000
310
00000000000000000000000000000000000000000000000000000000000000000000000000000000000000000000000000000000000000000000000000000000000000000000000000000000000000000000000000000000000000000000000000000000000000000000000000000000000000000000000000000000000000
310
00000000000000000000000000000000000000000000000000000000000000000000000000000000000000000000000000000000000000000000000000000000000000000000000000000028002800002D000028280000000000000000000000000000000000000000000000000000F5000000000000000000000000000000
310
00000000000000000000000000000000000000000000000000000000000000000000000000000000000000000000000000000000000000000000000000000000000000000000000000000000000000000000000000000000000000000000000000000000000000000000000000000000000000000000000000000000000000
310
000000000000000000000000000000000000000000000000000000000000000000000000000000000000000000000000000000000000000000000000000000000000000000000000000000000028282800002D0000282800000000000000000000000000000000000000000000000000F50000000000000000000000000000
310
00000000000000000000000000000000000000000000000000000000000000000000000000000000000000000000000000000000000000000000000000000000000000000000000000000000000000000000000000000000000000000000000000000000000000000000000000000000000000000000000000000000000000
310
0000000000000000000000000000000000000000000000000000000000000000000000000000000000000000000000000000000000000000000000000000000000000000000000000000000000000028280000002D0000282800000000000000000000000000000000000000000000000000F5000000000000000000000000
310
00000000000000000000000000000000000000000000000000000000000000000000000000000000000000000000000000000000000000000000000000000000000000000000000000000000000000000000000000000000000000000000000000000000000000000000000000000000000000000000000000000000000000
310
00000000000000000000000000000000000000000000000000000000000000000000000000000000000000000000000000000000000000000000000000000000000000000000000000000000000000000000280000002D00002828000000000000000000000000000000000000000000000000F50000000000000000000000
310
00000000000000000000000000000000000000000000000000000000000000000000000000000000000000000000000000000000000000000000000000000000000000000000000000000000000000000000000000000000000000000000000000000000000000000000000000000000000000000000000000000000000000
310
000000000000000000000000000000000000000000000000000000000000000000000000000000000000000000000000000000000000000000000000000000000000000000000000000000000000000000000000280000002D000000280000000000000000000000000000000000000000000000F500000000000000000000
310
00000000000000000000000000000000000000000000000000000000000000000000000000000000000000000000000000000000000000000000000000000000000000000000000000000000000000000000000000000000000000000000000000000000000000000000000000000000000000000000000000000000000000
310
0000000000000000000000000000000000000000000000000000000000000000000000000000000000000000000000000000000000000000000000000000000000000000000000000000000000000000000000000000280000002D000000280000000000000000000000000000000000000000000000F50000000000000000
310
00000000000000000000000000000000000000000000000000000000000000000000000000000000000000000000000000000000000000000000000000000000000000000000000000000000000000000000000000000000000000000000000000000000000000000000000000000000000000000000000000000000000000
310
0000000000000000000000000000000000000000000000000000000000000000000000000000000000000000000000000000000000000000000000000000000000000000000000000000000000000000000000000000000028282828282828282800000000000000000000000000000000000000000000F500000000000000
310
00000000000000000000000000000000000000000000000000000000000000000000000000000000000000000000000000000000000000000000000000000000000000000000000000000000000000000000000000000000000000000000000000000000000000000000000000000000000000000000000000000000000000
310
000000000000000000000000000000000000000000000000000000000000000000000000000000000000000000000000000000000000000000000000000000000000000000000000000000000000000000000000000000000000280000002D00000028000000000000000000000000000000000000000000F5000000000000
310
00000000000000000000000000000000000000000000000000000000000000000000000000000000000000000000000000000000000000000000000000000000000000000000000000000000000000000000000000000000000000000000000000000000000000000000000000000000000000000000000000000000000000
310
0000000000000000000000000000000000000000000000000000000000000000000000000000000000000000000000000000000000000000000000000000000000000000000000000000000000000000000000000000000000000000280000002D000000280000000000000000000000000000000000000000F50000000000
310
00000000000000000000000000000000000000000000000000000000000000000000000000000000000000000000000000000000000000000000000000000000000000000000000000000000000000000000000000000000000000000000000000000000000000000000000000000000000000000000000000000000000000
310
00000000000000000000000000000000000000000000000000000000000000000000000000000000000000000000000000000000000000000000000000000000000000000000000000000000000000000000000000000000000000000000280000002D0000002800000000000000000000000000000000000000F500000000
310
00000000000000000000000000000000000000000000000000000000000000000000000000000000000000000000000000000000000000000000000000000000000000000000000000000000000000000000000000000000000000000000000000000000000000000000000000000000000000000000000000000000000000
310
000000000000000000000000000000000000000000000000000000000000000000000000000000000000000000000000000000000000000000000000000000000000000000000000000000000000000000000000000000000000000000000000280000002D00000028000000000000000000000000000000000000F5000000
310
00000000000000000000000000000000000000000000000000000000000000000000000000000000000000000000000000000000000000000000000000000000000000000000000000000000000000000000000000000000000000000000000000000000000000000000000000000000000000000000000000000000000000
310
0000000000000000000000000000000000000000000000000000000000000000000000000000000000000000000000000000000000000000000000000000000000000000000000000000000000000000000000000000000000000000000000000000280000002D000000280000000000000000000000000000000000F50000
310
00000000000000000000000000000000000000000000000000000000000000000000000000000000000000000000000000000000000000000000000000000000000000000000000000000000000000000000000000000000000000000000000000000000000000000000000000000000000000000000000000000000000000
310
00000000000000000000000000000000000000000000000000000000000000000000000000000000000000000000000000000000000000000000000000000000000000000000000000000000000000000000000000000000000000000000000000000000280000002D0000002800000000000000000000000000000000F500
310
00000000000000000000000000000000000000000000000000000000000000000000000000000000000000000000000000000000000000000000000000000000000000000000000000000000000000000000000000000000000000000000000000000000000000000000000000000000000000000000000000000000000000
310
000000000000000000000000000000000000000000000000000000000000000000000000000000000000000000000000000000000000000000000000000000000000000000000000000000000000000000000000000000000000000000000000000000000000280000002D000000280000000000000000000000000000F5F5
310
00000000000000000000000000000000000000000000000000000000000000000000000000000000000000000000000000000000000000000000000000000000000000000000000000000000000000000000000000000000000000000000000000000000000000000000000000000000000000000000000000000000000000
310
0000000000000000000000000000000000000000000000000000000000000000000000000000000000000000000000000000000000000000000000000000000000000000000000000000000000000000000000000000000000000000000000000000000000000000280000002D0000002800000000000000000000000000F5
310
00000000000000000000000000000000000000000000000000000000000000000000000000000000000000000000000000000000000000000000000000000000000000000000000000000000000000000000000000000000000000000000000000000000000000000000000000000000000000000000000000000000000000
310
00000000000000000000000000000000000000000000000000000000000000000000000000000000000000000000000000000000000000000000000000000000000000000000000000000000000000000000000000000000000000000000000000000000000000000000280000002D000000280000000000000000000000F5
310
F5000000000000000000000000000000000000000000000000000000000000000000000000000000000000000000000000000000000000000000000000000000000000000000000000000000000000000000000000000000000000000000000000000000000000000000000000000000000000000000000000000000000000
310
000000000000000000000000000000000000000000000000000000000000000000000000000000000000000000000000000000000000000000000000000000000000000000000000000000000000000000000000000000000000000000000000000000000000000000000000280000002D000000280000000000F5000000F5
310
F5000000000000000000000000000000000000000000000000000000000000000000000000000000000000000000000000000000000000000000000000000000000000000000000000000000000000000000000000000000000000000000000000000000000000000000000000000000000000000000000000000000000000
310
0000000000000000000000000000000000000000000000000000000000000000000000000000000000000000000000000000000000000000000000000000000000000000000000000000000000000000000000000000000000000000000000000000000000000000000000000000280000002D00000028000000F5F5F5F5F5
310
F5000000000000000000000000000000000000000000000000000000000000000000000000000000000000000000000000000000000000000000000000000000000000000000000000000000000000000000000000000000000000000000000000000000000000000000000000000000000000000000000000000000000000
310
00000000000000000000000000000000000000000000000000000000000000000000000000000000000000000000000000000000000000000000000000000000000000000000000000000000000000000000000000000000000000000000000000000000000000000000000000000000280000002D000000280000F5F5F5F5
310
F5000000000000000000000000000000000000000000000000000000000000000000000000000000000000000000000000000000000000000000000000000000000000000000000000000000000000000000000000000000000000000000000000000000000000000000000000000000000000000000000000000000000000
310
000000000000000000000000000000000000000000000000000000000000000000000000000000000000000000000000000000000000000000000000000000000000000000000000000000000000000000000000000000000000000000000000000000000000000000000000000000000000280000002D0000002800000000
310
00000000000000000000000000000000000000000000000000000000000000000000000000000000000000000000000000000000000000000000000000000000000000000000000000000000000000000000000000000000000000000000000000000000000000000000000000000000000000000000000000000000000000
310
0000000000000000000000000000000000000000000000000000000000000000000000000000000000000000000000000000000000000000000000000000000000000000000000000000000000000000000000000000000000000000000000000000000000000000000000000000000000000000280000002D000000280000
310
0000F5F5F50000000000000000000000000000000000000000000000000000000000000000000000000000000000000000000000000000000000000000000000000000000000000000000000000000000000000000000000000000000000000000000000000000000000000000000000000000000000000000000000000000
310
00000000000000000000000000000000000000000000000000000000000000000000000000000000000000000000000000000000000000000000000000000000000000000000000000000000000000000000000000000000000000000000000000000000000000000000000000000000000000000000280000002D00000028
310
00000000F5F5F5000000000000000000000000000000000000000000000000000000000000000000000000000000000000000000000000000000000000000000000000000000000000000000000000000000000000000000000000000000000000000000000000000000000000000000000000000000000000000000000000
310
000000000000000000000000000000000000000000000000000000000000000000000000000000000000000000000000000000000000000000000000000000000000000000000000000000000000000000000000000000000000000000000000000000000000000000000000000000000000000000000000280000002D0000
310
002800000000F5F5F500000000000000000000000000000000000000000000000000000000000000000000000000000000000000000000000000000000000000000000000000000000000000000000000000000000000000000000000000000000000000000000000000000000000000000000000000000000000000000000
310
0000000000000000000000000000000000000000000000000000000000000000000000000000000000000000000000000000000000000000000000000000000000000000000000000000000000000000000000000000000000000000000000000000000000000000000000000000000000000000000000000000280000002D
310
00000028000000000000000000000000000000000000000000000000000000000000000000000000000000000000000000000000000000000000000000000000000000000000000000000000000000000000000000000000000000000000000000000000000000000000000000000000000000000000000000000000000000
310
00000000000000000000000000000000000000000000000000000000000000000000000000000000000000000000000000000000000000000000000000000000000000000000000000000000000000000000000000000000000000000000000000000000000000000000000000000000000000000000000000000000280000
310
002D0000002800000000000000000000000000000000000000000000000000000000000000000000000000000000000000000000000000000000000000000000000000000000000000000000000000000000000000000000000000000000000000000000000000000000000000000000000000000000000000000000000000
310
00000000000000000000000000000000000000000000000000000000000000000000000000000000000000000000000000000000000000000000000000000000000000000000000000000000000000000000000000000000000000000000000000000000000000000000000000000000000000000000000000000000000028
310
0000002D000000280000000000000000000000000000000000000000000000000000000000000000000000000000000000000000000000000000000000000000000000000000000000000000000000000000000000000000000000000000000000000000000000000000000000000000000000000000000000000000000000
310
00000000000000000000000000000000000000000000000000000000000000000000000000000000000000000000000000000000000000000000000000000000000000000000000000000000000000000000000000000000000000000000000000000000000000000000000000000000000000000000000000000000000000
310
00280000002D00000028000000000000000000000000000000000000000000000000000000000000000000000000000000000000000000000000000000000000000000000000000000000000000000000000000000000000000000000000000000000000000000000000000000000000000000000000000000000000000000
310
00000000000000000000000000000000000000000000000000000000000000000000000000000000000000000000000000000000000000000000000000000000000000000000000000000000000000000000000000000000000000000000000000000000000000000000000000000000000000000000000000000000000000
310
000000280000002D0000002800000000000000000000000000000000000000000000000000000000000000000000000000000000000000000000000000000000000000000000000000000000000000000000000000000000000000000000000000000000000000000000000000000000000000000000000000000000000000
310
00000000000000000000000000000000000000000000000000000000000000000000000000000000000000000000000000000000000000000000000000000000000000000000000000000000000000000000000000000000000000000000000000000000000000000000000000000000000000000000000000000000000000
310
00000000002828282828282828280000000000000000000000000000000000000000000000000000000000000000000000000000000000000000000000000000000000000000000000000000000000000000000000000000000000000000000000000000000000000000000000000000000000000000000000000000000000
310
00000000000000000000000000000000000000000000000000000000000000000000000000000000000000000000000000000000000000000000000000000000000000000000000000000000000000000000000000000000000000000000000000000000000000000000000000000000000000000000000000000000000000
310
00000000000000000000002D00000000000000000000000000000000000000000000000000000000000000000000000000000000000000000000000000000000000000000000000000000000000000000000000000000000000000000000000000000000000000000000000000000000000000000000000000000000000000
310
00000000000000000000000000000000000000000000000000000000000000000000000000000000000000000000000000000000000000000000000000000000000000000000000000000000000000000000000000000000000000000000000000000000000000000000000000000000000000000000000000000000000000
310
000000000000000000000000002D0000000000000000000000000000000000000000000000000000000000000000000000000000000000000000000000000000000000000000000000000000000000000000000000000000000000000000000000000000000000000000000000000000000000000000000000000000000000
310
00000000000000000000000000000000000000000000000000000000000000000000000000000000
  0
XRECORD
  5
1A77
102
{ACAD_REACTORS
330
1A76
102
}
330
1A76
100
AcDbXrecord
280
     1
102
MATERIAL
148
0.0
149
0.0
149
0.0
 93
        0
 94
       63
282
     0
 72
     1
 77
     1
171
     1
175
     1
179
     1
273
     0
  0
XRECORD
  5
1A75
102
{ACAD_REACTORS
330
1A74
102
}
330
1A74
100
AcDbXrecord
280
     1
102
MATERIAL
148
0.0
149
0.0
149
0.0
 93
        0
 94
       63
282
     0
 72
     1
 77
     1
171
     1
175
     1
179
     1
273
     0
  0
XRECORD
  5
1A73
102
{ACAD_REACTORS
330
1A72
102
}
330
1A72
100
AcDbXrecord
280
     1
102
MATERIAL
148
0.0
149
0.0
149
0.0
 93
        0
 94
       63
282
     0
 72
     1
 77
     1
171
     1
175
     1
179
     1
273
     0
  0
CELLSTYLEMAP
  5
1A6A
102
{ACAD_REACTORS
330
190D
102
}
330
190D
100
AcDbCellStyleMap
 90
        3
300
CELLSTYLE
  1
TABLEFORMAT_BEGIN
 90
        5
170
     1
 91
        0
 92
    32768
 62
   257
 93
        1
300
CONTENTFORMAT
  1
CONTENTFORMAT_BEGIN
 90
        0
 91
        0
 92
      512
 93
        0
300

 40
0.0
140
1.0
 94
        5
 62
     0
340
11
144
6.0
309
CONTENTFORMAT_END
171
     1
301
MARGIN
  1
CELLMARGIN_BEGIN
 40
1.5
 40
1.5
 40
1.5
 40
1.5
 40
0.18
 40
0.18
309
CELLMARGIN_END
 94
        6
 95
        1
302
GRIDFORMAT
  1
GRIDFORMAT_BEGIN
 90
        0
 91
        1
 62
     0
 92
       -2
340
0
 93
        0
 40
0.045
309
GRIDFORMAT_END
 95
        2
302
GRIDFORMAT
  1
GRIDFORMAT_BEGIN
 90
        0
 91
        1
 62
     0
 92
       -2
340
0
 93
        0
 40
0.045
309
GRIDFORMAT_END
 95
        4
302
GRIDFORMAT
  1
GRIDFORMAT_BEGIN
 90
        0
 91
        1
 62
     0
 92
       -2
340
0
 93
        0
 40
0.045
309
GRIDFORMAT_END
 95
        8
302
GRIDFORMAT
  1
GRIDFORMAT_BEGIN
 90
        0
 91
        1
 62
     0
 92
       -2
340
0
 93
        0
 40
0.045
309
GRIDFORMAT_END
 95
       16
302
GRIDFORMAT
  1
GRIDFORMAT_BEGIN
 90
        0
 91
        1
 62
     0
 92
       -2
340
0
 93
        0
 40
0.045
309
GRIDFORMAT_END
 95
       32
302
GRIDFORMAT
  1
GRIDFORMAT_BEGIN
 90
        0
 91
        1
 62
     0
 92
       -2
340
0
 93
        0
 40
0.045
309
GRIDFORMAT_END
309
TABLEFORMAT_END
  1
CELLSTYLE_BEGIN
 90
        1
 91
        1
300
_TITLE
309
CELLSTYLE_END
300
CELLSTYLE
  1
TABLEFORMAT_BEGIN
 90
        5
170
     1
 91
        0
 92
        0
 62
   257
 93
        1
300
CONTENTFORMAT
  1
CONTENTFORMAT_BEGIN
 90
        0
 91
        0
 92
      512
 93
        0
300

 40
0.0
140
1.0
 94
        5
 62
     0
340
11
144
4.5
309
CONTENTFORMAT_END
171
     1
301
MARGIN
  1
CELLMARGIN_BEGIN
 40
1.5
 40
1.5
 40
1.5
 40
1.5
 40
0.18
 40
0.18
309
CELLMARGIN_END
 94
        6
 95
        1
302
GRIDFORMAT
  1
GRIDFORMAT_BEGIN
 90
        0
 91
        1
 62
     0
 92
       -2
340
0
 93
        0
 40
0.045
309
GRIDFORMAT_END
 95
        2
302
GRIDFORMAT
  1
GRIDFORMAT_BEGIN
 90
        0
 91
        1
 62
     0
 92
       -2
340
0
 93
        0
 40
0.045
309
GRIDFORMAT_END
 95
        4
302
GRIDFORMAT
  1
GRIDFORMAT_BEGIN
 90
        0
 91
        1
 62
     0
 92
       -2
340
0
 93
        0
 40
0.045
309
GRIDFORMAT_END
 95
        8
302
GRIDFORMAT
  1
GRIDFORMAT_BEGIN
 90
        0
 91
        1
 62
     0
 92
       -2
340
0
 93
        0
 40
0.045
309
GRIDFORMAT_END
 95
       16
302
GRIDFORMAT
  1
GRIDFORMAT_BEGIN
 90
        0
 91
        1
 62
     0
 92
       -2
340
0
 93
        0
 40
0.045
309
GRIDFORMAT_END
 95
       32
302
GRIDFORMAT
  1
GRIDFORMAT_BEGIN
 90
        0
 91
        1
 62
     0
 92
       -2
340
0
 93
        0
 40
0.045
309
GRIDFORMAT_END
309
TABLEFORMAT_END
  1
CELLSTYLE_BEGIN
 90
        2
 91
        1
300
_HEADER
309
CELLSTYLE_END
300
CELLSTYLE
  1
TABLEFORMAT_BEGIN
 90
        5
170
     1
 91
        0
 92
        0
 62
   257
 93
        1
300
CONTENTFORMAT
  1
CONTENTFORMAT_BEGIN
 90
        0
 91
        0
 92
      512
 93
        0
300

 40
0.0
140
1.0
 94
        2
 62
     0
340
11
144
4.5
309
CONTENTFORMAT_END
171
     1
301
MARGIN
  1
CELLMARGIN_BEGIN
 40
1.5
 40
1.5
 40
1.5
 40
1.5
 40
0.18
 40
0.18
309
CELLMARGIN_END
 94
        6
 95
        1
302
GRIDFORMAT
  1
GRIDFORMAT_BEGIN
 90
        0
 91
        1
 62
     0
 92
       -2
340
0
 93
        0
 40
0.045
309
GRIDFORMAT_END
 95
        2
302
GRIDFORMAT
  1
GRIDFORMAT_BEGIN
 90
        0
 91
        1
 62
     0
 92
       -2
340
0
 93
        0
 40
0.045
309
GRIDFORMAT_END
 95
        4
302
GRIDFORMAT
  1
GRIDFORMAT_BEGIN
 90
        0
 91
        1
 62
     0
 92
       -2
340
0
 93
        0
 40
0.045
309
GRIDFORMAT_END
 95
        8
302
GRIDFORMAT
  1
GRIDFORMAT_BEGIN
 90
        0
 91
        1
 62
     0
 92
       -2
340
0
 93
        0
 40
0.045
309
GRIDFORMAT_END
 95
       16
302
GRIDFORMAT
  1
GRIDFORMAT_BEGIN
 90
        0
 91
        1
 62
     0
 92
       -2
340
0
 93
        0
 40
0.045
309
GRIDFORMAT_END
 95
       32
302
GRIDFORMAT
  1
GRIDFORMAT_BEGIN
 90
        0
 91
        1
 62
     0
 92
       -2
340
0
 93
        0
 40
0.045
309
GRIDFORMAT_END
309
TABLEFORMAT_END
  1
CELLSTYLE_BEGIN
 90
        3
 91
        2
300
_DATA
309
CELLSTYLE_END
  0
XRECORD
  5
1A98
102
{ACAD_REACTORS
330
190D
102
}
330
190D
100
AcDbXrecord
280
     1
102
ACAD_ROUNDTRIP_PRE2007_TABLESTYLE
 90
      512
 91
        0
  1

 92
      512
 93
        0
  2

 94
      512
 95
        0
  3

  0
XRECORD
  5
1A83
102
{ACAD_REACTORS
330
1A82
102
}
330
1A82
100
AcDbXrecord
280
     1
102
RTVSPropertyOp0
 70
     1
102
RTVSPropertyOp1
 70
     1
102
RTVSPropertyOp2
 70
     1
102
RTVSPropertyOp3
 70
     1
102
RTVSPropertyOp4
 70
     1
102
RTVSPropertyOp5
 70
     1
102
RTVSPropertyOp6
 70
     1
102
RTVSPropertyOp7
 70
     1
102
RTVSPropertyOp8
 70
     1
102
RTVSPropertyOp9
 70
     1
102
RTVSPropertyOp10
 70
     1
102
RTVSPropertyOp11
 70
     1
102
RTVSPropertyOp12
 70
     1
102
RTVSPropertyOp13
 70
     1
102
RTVSPropertyOp14
 70
     1
102
RTVSPropertyOp15
 70
     1
102
RTVSPropertyOp16
 70
     1
102
RTVSPropertyOp17
 70
     1
102
RTVSPropertyOp18
 70
     1
102
RTVSPropertyOp19
 70
     1
102
RTVSPropertyOp20
 70
     1
102
RTVSPropertyOp21
 70
     1
102
RTVSPropertyOp22
 70
     1
102
RTVSPropertyOp23
 70
     1
102
RTVSPropertyOp24
 70
     1
102
RTVSPropertyOp25
 70
     1
102
RTVSPropertyOp26
 70
     1
102
RTVSPropertyOp27
 70
     1
102
RTVSPropertyOp28
 70
     1
102
RTVSPropertyOp29
 70
     1
102
RTVSPropertyOp30
 70
     1
102
RTVSPropertyOp31
 70
     1
102
RTVSPropertyOp32
 70
     1
  0
XRECORD
  5
1A87
102
{ACAD_REACTORS
330
1A86
102
}
330
1A86
100
AcDbXrecord
280
     1
102
RTVSPropertyOp0
 70
     1
102
RTVSPropertyOp1
 70
     1
102
RTVSPropertyOp2
 70
     1
102
RTVSPropertyOp3
 70
     1
102
RTVSPropertyOp4
 70
     1
102
RTVSPropertyOp5
 70
     1
102
RTVSPropertyOp6
 70
     1
102
RTVSPropertyOp7
 70
     1
102
RTVSPropertyOp8
 70
     1
102
RTVSPropertyOp9
 70
     1
102
RTVSPropertyOp10
 70
     1
102
RTVSPropertyOp11
 70
     1
102
RTVSPropertyOp12
 70
     1
102
RTVSPropertyOp13
 70
     1
102
RTVSPropertyOp14
 70
     1
102
RTVSPropertyOp15
 70
     1
102
RTVSPropertyOp16
 70
     1
102
RTVSPropertyOp17
 70
     1
102
RTVSPropertyOp18
 70
     1
102
RTVSPropertyOp19
 70
     1
102
RTVSPropertyOp20
 70
     1
102
RTVSPropertyOp21
 70
     1
102
RTVSPropertyOp22
 70
     1
102
RTVSPropertyOp23
 70
     1
102
RTVSPropertyOp24
 70
     1
102
RTVSPropertyOp25
 70
     1
102
RTVSPropertyOp26
 70
     1
102
RTVSPropertyOp27
 70
     1
102
RTVSPropertyOp28
 70
     1
102
RTVSPropertyOp29
 70
     1
102
RTVSPropertyOp30
 70
     1
102
RTVSPropertyOp31
 70
     1
102
RTVSPropertyOp32
 70
     1
  0
XRECORD
  5
1A85
102
{ACAD_REACTORS
330
1A84
102
}
330
1A84
100
AcDbXrecord
280
     1
102
RTVSPropertyOp0
 70
     1
102
RTVSPropertyOp1
 70
     1
102
RTVSPropertyOp2
 70
     1
102
RTVSPropertyOp3
 70
     1
102
RTVSPropertyOp4
 70
     1
102
RTVSPropertyOp5
 70
     1
102
RTVSPropertyOp6
 70
     1
102
RTVSPropertyOp7
 70
     1
102
RTVSPropertyOp8
 70
     1
102
RTVSPropertyOp9
 70
     1
102
RTVSPropertyOp10
 70
     1
102
RTVSPropertyOp11
 70
     1
102
RTVSPropertyOp12
 70
     1
102
RTVSPropertyOp13
 70
     1
102
RTVSPropertyOp14
 70
     1
102
RTVSPropertyOp15
 70
     1
102
RTVSPropertyOp16
 70
     1
102
RTVSPropertyOp17
 70
     1
102
RTVSPropertyOp18
 70
     1
102
RTVSPropertyOp19
 70
     1
102
RTVSPropertyOp20
 70
     1
102
RTVSPropertyOp21
 70
     1
102
RTVSPropertyOp22
 70
     1
102
RTVSPropertyOp23
 70
     1
102
RTVSPropertyOp24
 70
     1
102
RTVSPropertyOp25
 70
     1
102
RTVSPropertyOp26
 70
     1
102
RTVSPropertyOp27
 70
     1
102
RTVSPropertyOp28
 70
     1
102
RTVSPropertyOp29
 70
     1
102
RTVSPropertyOp30
 70
     1
102
RTVSPropertyOp31
 70
     1
102
RTVSPropertyOp32
 70
     1
  0
XRECORD
  5
1A81
102
{ACAD_REACTORS
330
1A80
102
}
330
1A80
100
AcDbXrecord
280
     1
102
RTVSPropertyOp0
 70
     1
102
RTVSPropertyOp1
 70
     1
102
RTVSPropertyOp2
 70
     1
102
RTVSPropertyOp3
 70
     1
102
RTVSPropertyOp4
 70
     1
102
RTVSPropertyOp5
 70
     1
102
RTVSPropertyOp6
 70
     1
102
RTVSPropertyOp7
 70
     1
102
RTVSPropertyOp8
 70
     1
102
RTVSPropertyOp9
 70
     1
102
RTVSPropertyOp10
 70
     1
102
RTVSPropertyOp11
 70
     1
102
RTVSPropertyOp12
 70
     1
102
RTVSPropertyOp13
 70
     1
102
RTVSPropertyOp14
 70
     1
102
RTVSPropertyOp15
 70
     1
102
RTVSPropertyOp16
 70
     1
102
RTVSPropertyOp17
 70
     1
102
RTVSPropertyOp18
 70
     1
102
RTVSPropertyOp19
 70
     1
102
RTVSPropertyOp20
 70
     1
102
RTVSPropertyOp21
 70
     1
102
RTVSPropertyOp22
 70
     1
102
RTVSPropertyOp23
 70
     1
102
RTVSPropertyOp24
 70
     1
102
RTVSPropertyOp25
 70
     1
102
RTVSPropertyOp26
 70
     1
102
RTVSPropertyOp27
 70
     1
102
RTVSPropertyOp28
 70
     1
102
RTVSPropertyOp29
 70
     1
102
RTVSPropertyOp30
 70
     1
102
RTVSPropertyOp31
 70
     1
102
RTVSPropertyOp32
 70
     1
  0
XRECORD
  5
1A8F
102
{ACAD_REACTORS
330
1A8E
102
}
330
1A8E
100
AcDbXrecord
280
     1
102
RTVSPropertyOp0
 70
     1
102
RTVSPropertyOp1
 70
     1
102
RTVSPropertyOp2
 70
     1
102
RTVSPropertyOp3
 70
     1
102
RTVSPropertyOp4
 70
     1
102
RTVSPropertyOp5
 70
     1
102
RTVSPropertyOp6
 70
     1
102
RTVSPropertyOp7
 70
     1
102
RTVSPropertyOp8
 70
     1
102
RTVSPropertyOp9
 70
     1
102
RTVSPropertyOp10
 70
     1
102
RTVSPropertyOp11
 70
     1
102
RTVSPropertyOp12
 70
     1
102
RTVSPropertyOp13
 70
     1
102
RTVSPropertyOp14
 70
     1
102
RTVSPropertyOp15
 70
     1
102
RTVSPropertyOp16
 70
     1
102
RTVSPropertyOp17
 70
     1
102
RTVSPropertyOp18
 70
     1
102
RTVSPropertyOp19
 70
     1
102
RTVSPropertyOp20
 70
     1
102
RTVSPropertyOp21
 70
     1
102
RTVSPropertyOp22
 70
     1
102
RTVSPropertyOp23
 70
     1
102
RTVSPropertyOp24
 70
     1
102
RTVSPropertyOp25
 70
     1
102
RTVSPropertyOp26
 70
     1
102
RTVSPropertyOp27
 70
     1
102
RTVSPropertyOp28
 70
     1
102
RTVSPropertyOp29
 70
     1
102
RTVSPropertyOp30
 70
     1
102
RTVSPropertyOp31
 70
     1
102
RTVSPropertyOp32
 70
     1
  0
XRECORD
  5
1A97
102
{ACAD_REACTORS
330
1A96
102
}
330
1A96
100
AcDbXrecord
280
     1
102
RTVSPropertyOp0
 70
     1
102
RTVSPropertyOp1
 70
     1
102
RTVSPropertyOp2
 70
     1
102
RTVSPropertyOp3
 70
     1
102
RTVSPropertyOp4
 70
     1
102
RTVSPropertyOp5
 70
     1
102
RTVSPropertyOp6
 70
     1
102
RTVSPropertyOp7
 70
     1
102
RTVSPropertyOp8
 70
     1
102
RTVSPropertyOp9
 70
     1
102
RTVSPropertyOp10
 70
     1
102
RTVSPropertyOp11
 70
     1
102
RTVSPropertyOp12
 70
     1
102
RTVSPropertyOp13
 70
     1
102
RTVSPropertyOp14
 70
     1
102
RTVSPropertyOp15
 70
     1
102
RTVSPropertyOp16
 70
     1
102
RTVSPropertyOp17
 70
     1
102
RTVSPropertyOp18
 70
     1
102
RTVSPropertyOp19
 70
     1
102
RTVSPropertyOp20
 70
     1
102
RTVSPropertyOp21
 70
     1
102
RTVSPropertyOp22
 70
     1
102
RTVSPropertyOp23
 70
     1
102
RTVSPropertyOp24
 70
     1
102
RTVSPropertyOp25
 70
     1
102
RTVSPropertyOp26
 70
     1
102
RTVSPropertyOp27
 70
     1
102
RTVSPropertyOp28
 70
     1
102
RTVSPropertyOp29
 70
     1
102
RTVSPropertyOp30
 70
     1
102
RTVSPropertyOp31
 70
     1
102
RTVSPropertyOp32
 70
     1
  0
XRECORD
  5
1A89
102
{ACAD_REACTORS
330
1A88
102
}
330
1A88
100
AcDbXrecord
280
     1
102
RTVSPropertyOp0
 70
     1
102
RTVSPropertyOp1
 70
     1
102
RTVSPropertyOp2
 70
     1
102
RTVSPropertyOp3
 70
     1
102
RTVSPropertyOp4
 70
     1
102
RTVSPropertyOp5
 70
     1
102
RTVSPropertyOp6
 70
     1
102
RTVSPropertyOp7
 70
     1
102
RTVSPropertyOp8
 70
     1
102
RTVSPropertyOp9
 70
     1
102
RTVSPropertyOp10
 70
     1
102
RTVSPropertyOp11
 70
     1
102
RTVSPropertyOp12
 70
     1
102
RTVSPropertyOp13
 70
     1
102
RTVSPropertyOp14
 70
     1
102
RTVSPropertyOp15
 70
     1
102
RTVSPropertyOp16
 70
     1
102
RTVSPropertyOp17
 70
     1
102
RTVSPropertyOp18
 70
     1
102
RTVSPropertyOp19
 70
     1
102
RTVSPropertyOp20
 70
     1
102
RTVSPropertyOp21
 70
     1
102
RTVSPropertyOp22
 70
     1
102
RTVSPropertyOp23
 70
     1
102
RTVSPropertyOp24
 70
     1
102
RTVSPropertyOp25
 70
     1
102
RTVSPropertyOp26
 70
     1
102
RTVSPropertyOp27
 70
     1
102
RTVSPropertyOp28
 70
     1
102
RTVSPropertyOp29
 70
     1
102
RTVSPropertyOp30
 70
     1
102
RTVSPropertyOp31
 70
     1
102
RTVSPropertyOp32
 70
     1
  0
XRECORD
  5
1A8D
102
{ACAD_REACTORS
330
1A8C
102
}
330
1A8C
100
AcDbXrecord
280
     1
102
RTVSPropertyOp0
 70
     1
102
RTVSPropertyOp1
 70
     1
102
RTVSPropertyOp2
 70
     1
102
RTVSPropertyOp3
 70
     1
102
RTVSPropertyOp4
 70
     1
102
RTVSPropertyOp5
 70
     1
102
RTVSPropertyOp6
 70
     1
102
RTVSPropertyOp7
 70
     1
102
RTVSPropertyOp8
 70
     1
102
RTVSPropertyOp9
 70
     1
102
RTVSPropertyOp10
 70
     1
102
RTVSPropertyOp11
 70
     1
102
RTVSPropertyOp12
 70
     1
102
RTVSPropertyOp13
 70
     1
102
RTVSPropertyOp14
 70
     1
102
RTVSPropertyOp15
 70
     1
102
RTVSPropertyOp16
 70
     1
102
RTVSPropertyOp17
 70
     1
102
RTVSPropertyOp18
 70
     1
102
RTVSPropertyOp19
 70
     1
102
RTVSPropertyOp20
 70
     1
102
RTVSPropertyOp21
 70
     1
102
RTVSPropertyOp22
 70
     1
102
RTVSPropertyOp23
 70
     1
102
RTVSPropertyOp24
 70
     1
102
RTVSPropertyOp25
 70
     1
102
RTVSPropertyOp26
 70
     1
102
RTVSPropertyOp27
 70
     1
102
RTVSPropertyOp28
 70
     1
102
RTVSPropertyOp29
 70
     1
102
RTVSPropertyOp30
 70
     1
102
RTVSPropertyOp31
 70
     1
102
RTVSPropertyOp32
 70
     1
  0
XRECORD
  5
1AAC
102
{ACAD_REACTORS
330
1AAB
102
}
330
1AAB
100
AcDbXrecord
280
     1
102
RTVSPropertyOp0
 70
     0
102
RTVSPropertyOp1
 70
     0
102
RTVSPropertyOp2
 70
     0
102
RTVSPropertyOp3
 70
     0
102
RTVSPropertyOp4
 70
     0
102
RTVSPropertyOp5
 70
     0
102
RTVSPropertyOp6
 70
     0
102
RTVSPropertyOp7
 70
     0
102
RTVSPropertyOp8
 70
     0
102
RTVSPropertyOp9
 70
     0
102
RTVSPropertyOp10
 70
     0
102
RTVSPropertyOp11
 70
     0
102
RTVSPropertyOp12
 70
     0
102
RTVSPropertyOp13
 70
     0
102
RTVSPropertyOp14
 70
     2
102
RTVSPropertyOp15
 70
     0
102
RTVSPropertyOp16
 70
     0
102
RTVSPropertyOp17
 70
     0
102
RTVSPropertyOp18
 70
     0
102
RTVSPropertyOp19
 70
     0
102
RTVSPropertyOp20
 70
     0
102
RTVSPropertyOp21
 70
     0
102
RTVSPropertyOp22
 70
     0
102
RTVSPropertyOp23
 70
     0
102
RTVSPropertyOp24
 70
     0
102
RTVSPropertyOp25
 70
     0
102
RTVSPropertyOp26
 70
     0
102
RTVSPropertyOp27
 70
     0
102
RTVSPropertyOp28
 70
     0
102
RTVSPropertyOp29
 70
     0
102
RTVSPropertyOp30
 70
     0
102
RTVSPropertyOp31
 70
     0
102
RTVSPropertyOp32
 70
     0
  0
XRECORD
  5
1A95
102
{ACAD_REACTORS
330
1A94
102
}
330
1A94
100
AcDbXrecord
280
     1
102
RTVSPropertyOp0
 70
     1
102
RTVSPropertyOp1
 70
     1
102
RTVSPropertyOp2
 70
     1
102
RTVSPropertyOp3
 70
     1
102
RTVSPropertyOp4
 70
     1
102
RTVSPropertyOp5
 70
     1
102
RTVSPropertyOp6
 70
     1
102
RTVSPropertyOp7
 70
     1
102
RTVSPropertyOp8
 70
     1
102
RTVSPropertyOp9
 70
     1
102
RTVSPropertyOp10
 70
     1
102
RTVSPropertyOp11
 70
     1
102
RTVSPropertyOp12
 70
     1
102
RTVSPropertyOp13
 70
     1
102
RTVSPropertyOp14
 70
     1
102
RTVSPropertyOp15
 70
     1
102
RTVSPropertyOp16
 70
     1
102
RTVSPropertyOp17
 70
     1
102
RTVSPropertyOp18
 70
     1
102
RTVSPropertyOp19
 70
     1
102
RTVSPropertyOp20
 70
     1
102
RTVSPropertyOp21
 70
     1
102
RTVSPropertyOp22
 70
     1
102
RTVSPropertyOp23
 70
     1
102
RTVSPropertyOp24
 70
     1
102
RTVSPropertyOp25
 70
     1
102
RTVSPropertyOp26
 70
     1
102
RTVSPropertyOp27
 70
     1
102
RTVSPropertyOp28
 70
     1
102
RTVSPropertyOp29
 70
     1
102
RTVSPropertyOp30
 70
     1
102
RTVSPropertyOp31
 70
     1
102
RTVSPropertyOp32
 70
     1
  0
XRECORD
  5
1A79
102
{ACAD_REACTORS
330
1A78
102
}
330
1A78
100
AcDbXrecord
280
     1
102
RTVSPropertyOp0
 70
     1
102
RTVSPropertyOp1
 70
     1
102
RTVSPropertyOp2
 70
     1
102
RTVSPropertyOp3
 70
     1
102
RTVSPropertyOp4
 70
     1
102
RTVSPropertyOp5
 70
     1
102
RTVSPropertyOp6
 70
     1
102
RTVSPropertyOp7
 70
     1
102
RTVSPropertyOp8
 70
     1
102
RTVSPropertyOp9
 70
     1
102
RTVSPropertyOp10
 70
     1
102
RTVSPropertyOp11
 70
     1
102
RTVSPropertyOp12
 70
     1
102
RTVSPropertyOp13
 70
     1
102
RTVSPropertyOp14
 70
     1
102
RTVSPropertyOp15
 70
     1
102
RTVSPropertyOp16
 70
     1
102
RTVSPropertyOp17
 70
     1
102
RTVSPropertyOp18
 70
     1
102
RTVSPropertyOp19
 70
     1
102
RTVSPropertyOp20
 70
     1
102
RTVSPropertyOp21
 70
     1
102
RTVSPropertyOp22
 70
     1
102
RTVSPropertyOp23
 70
     1
102
RTVSPropertyOp24
 70
     1
102
RTVSPropertyOp25
 70
     1
102
RTVSPropertyOp26
 70
     1
102
RTVSPropertyOp27
 70
     1
102
RTVSPropertyOp28
 70
     1
102
RTVSPropertyOp29
 70
     1
102
RTVSPropertyOp30
 70
     1
102
RTVSPropertyOp31
 70
     1
102
RTVSPropertyOp32
 70
     1
  0
XRECORD
  5
1A7B
102
{ACAD_REACTORS
330
1A7A
102
}
330
1A7A
100
AcDbXrecord
280
     1
102
RTVSPropertyOp0
 70
     1
102
RTVSPropertyOp1
 70
     1
102
RTVSPropertyOp2
 70
     1
102
RTVSPropertyOp3
 70
     1
102
RTVSPropertyOp4
 70
     1
102
RTVSPropertyOp5
 70
     1
102
RTVSPropertyOp6
 70
     1
102
RTVSPropertyOp7
 70
     1
102
RTVSPropertyOp8
 70
     1
102
RTVSPropertyOp9
 70
     1
102
RTVSPropertyOp10
 70
     1
102
RTVSPropertyOp11
 70
     1
102
RTVSPropertyOp12
 70
     1
102
RTVSPropertyOp13
 70
     1
102
RTVSPropertyOp14
 70
     1
102
RTVSPropertyOp15
 70
     1
102
RTVSPropertyOp16
 70
     1
102
RTVSPropertyOp17
 70
     1
102
RTVSPropertyOp18
 70
     1
102
RTVSPropertyOp19
 70
     1
102
RTVSPropertyOp20
 70
     1
102
RTVSPropertyOp21
 70
     1
102
RTVSPropertyOp22
 70
     1
102
RTVSPropertyOp23
 70
     1
102
RTVSPropertyOp24
 70
     1
102
RTVSPropertyOp25
 70
     1
102
RTVSPropertyOp26
 70
     1
102
RTVSPropertyOp27
 70
     1
102
RTVSPropertyOp28
 70
     1
102
RTVSPropertyOp29
 70
     1
102
RTVSPropertyOp30
 70
     1
102
RTVSPropertyOp31
 70
     1
102
RTVSPropertyOp32
 70
     1
  0
XRECORD
  5
1A7D
102
{ACAD_REACTORS
330
1A7C
102
}
330
1A7C
100
AcDbXrecord
280
     1
102
RTVSPropertyOp0
 70
     1
102
RTVSPropertyOp1
 70
     1
102
RTVSPropertyOp2
 70
     1
102
RTVSPropertyOp3
 70
     1
102
RTVSPropertyOp4
 70
     1
102
RTVSPropertyOp5
 70
     1
102
RTVSPropertyOp6
 70
     1
102
RTVSPropertyOp7
 70
     1
102
RTVSPropertyOp8
 70
     1
102
RTVSPropertyOp9
 70
     1
102
RTVSPropertyOp10
 70
     1
102
RTVSPropertyOp11
 70
     1
102
RTVSPropertyOp12
 70
     1
102
RTVSPropertyOp13
 70
     1
102
RTVSPropertyOp14
 70
     1
102
RTVSPropertyOp15
 70
     1
102
RTVSPropertyOp16
 70
     1
102
RTVSPropertyOp17
 70
     1
102
RTVSPropertyOp18
 70
     1
102
RTVSPropertyOp19
 70
     1
102
RTVSPropertyOp20
 70
     1
102
RTVSPropertyOp21
 70
     1
102
RTVSPropertyOp22
 70
     1
102
RTVSPropertyOp23
 70
     1
102
RTVSPropertyOp24
 70
     1
102
RTVSPropertyOp25
 70
     1
102
RTVSPropertyOp26
 70
     1
102
RTVSPropertyOp27
 70
     1
102
RTVSPropertyOp28
 70
     1
102
RTVSPropertyOp29
 70
     1
102
RTVSPropertyOp30
 70
     1
102
RTVSPropertyOp31
 70
     1
102
RTVSPropertyOp32
 70
     1
  0
XRECORD
  5
1A7F
102
{ACAD_REACTORS
330
1A7E
102
}
330
1A7E
100
AcDbXrecord
280
     1
102
RTVSPropertyOp0
 70
     1
102
RTVSPropertyOp1
 70
     1
102
RTVSPropertyOp2
 70
     1
102
RTVSPropertyOp3
 70
     1
102
RTVSPropertyOp4
 70
     1
102
RTVSPropertyOp5
 70
     1
102
RTVSPropertyOp6
 70
     1
102
RTVSPropertyOp7
 70
     1
102
RTVSPropertyOp8
 70
     1
102
RTVSPropertyOp9
 70
     1
102
RTVSPropertyOp10
 70
     1
102
RTVSPropertyOp11
 70
     1
102
RTVSPropertyOp12
 70
     1
102
RTVSPropertyOp13
 70
     1
102
RTVSPropertyOp14
 70
     1
102
RTVSPropertyOp15
 70
     1
102
RTVSPropertyOp16
 70
     1
102
RTVSPropertyOp17
 70
     1
102
RTVSPropertyOp18
 70
     1
102
RTVSPropertyOp19
 70
     1
102
RTVSPropertyOp20
 70
     1
102
RTVSPropertyOp21
 70
     1
102
RTVSPropertyOp22
 70
     1
102
RTVSPropertyOp23
 70
     1
102
RTVSPropertyOp24
 70
     1
102
RTVSPropertyOp25
 70
     1
102
RTVSPropertyOp26
 70
     1
102
RTVSPropertyOp27
 70
     1
102
RTVSPropertyOp28
 70
     1
102
RTVSPropertyOp29
 70
     1
102
RTVSPropertyOp30
 70
     1
102
RTVSPropertyOp31
 70
     1
102
RTVSPropertyOp32
 70
     1
  0
XRECORD
  5
1A9C
102
{ACAD_REACTORS
330
1A9B
102
}
330
1A9B
100
AcDbXrecord
280
     1
102
RTVSPropertyOp0
 70
     1
102
RTVSPropertyOp1
 70
     1
102
RTVSPropertyOp2
 70
     1
102
RTVSPropertyOp3
 70
     1
102
RTVSPropertyOp4
 70
     1
102
RTVSPropertyOp5
 70
     1
102
RTVSPropertyOp6
 70
     1
102
RTVSPropertyOp7
 70
     1
102
RTVSPropertyOp8
 70
     1
102
RTVSPropertyOp9
 70
     1
102
RTVSPropertyOp10
 70
     1
102
RTVSPropertyOp11
 70
     1
102
RTVSPropertyOp12
 70
     1
102
RTVSPropertyOp13
 70
     1
102
RTVSPropertyOp14
 70
     1
102
RTVSPropertyOp15
 70
     1
102
RTVSPropertyOp16
 70
     1
102
RTVSPropertyOp17
 70
     1
102
RTVSPropertyOp18
 70
     1
102
RTVSPropertyOp19
 70
     1
102
RTVSPropertyOp20
 70
     1
102
RTVSPropertyOp21
 70
     1
102
RTVSPropertyOp22
 70
     1
102
RTVSPropertyOp23
 70
     1
102
RTVSPropertyOp24
 70
     1
102
RTVSPropertyOp25
 70
     1
102
RTVSPropertyOp26
 70
     1
102
RTVSPropertyOp27
 70
     1
102
RTVSPropertyOp28
 70
     1
102
RTVSPropertyOp29
 70
     1
102
RTVSPropertyOp30
 70
     1
102
RTVSPropertyOp31
 70
     1
102
RTVSPropertyOp32
 70
     1
  0
XRECORD
  5
1AA8
102
{ACAD_REACTORS
330
1AA7
102
}
330
1AA7
100
AcDbXrecord
280
     1
102
RTVSPropertyOp0
 70
     0
102
RTVSPropertyOp1
 70
     0
102
RTVSPropertyOp2
 70
     0
102
RTVSPropertyOp3
 70
     0
102
RTVSPropertyOp4
 70
     0
102
RTVSPropertyOp5
 70
     0
102
RTVSPropertyOp6
 70
     0
102
RTVSPropertyOp7
 70
     0
102
RTVSPropertyOp8
 70
     0
102
RTVSPropertyOp9
 70
     0
102
RTVSPropertyOp10
 70
     0
102
RTVSPropertyOp11
 70
     0
102
RTVSPropertyOp12
 70
     0
102
RTVSPropertyOp13
 70
     0
102
RTVSPropertyOp14
 70
     2
102
RTVSPropertyOp15
 70
     0
102
RTVSPropertyOp16
 70
     0
102
RTVSPropertyOp17
 70
     0
102
RTVSPropertyOp18
 70
     0
102
RTVSPropertyOp19
 70
     0
102
RTVSPropertyOp20
 70
     0
102
RTVSPropertyOp21
 70
     0
102
RTVSPropertyOp22
 70
     0
102
RTVSPropertyOp23
 70
     0
102
RTVSPropertyOp24
 70
     0
102
RTVSPropertyOp25
 70
     0
102
RTVSPropertyOp26
 70
     0
102
RTVSPropertyOp27
 70
     0
102
RTVSPropertyOp28
 70
     0
102
RTVSPropertyOp29
 70
     0
102
RTVSPropertyOp30
 70
     0
102
RTVSPropertyOp31
 70
     0
102
RTVSPropertyOp32
 70
     0
  0
XRECORD
  5
1A93
102
{ACAD_REACTORS
330
1A92
102
}
330
1A92
100
AcDbXrecord
280
     1
102
RTVSPropertyOp0
 70
     1
102
RTVSPropertyOp1
 70
     1
102
RTVSPropertyOp2
 70
     1
102
RTVSPropertyOp3
 70
     1
102
RTVSPropertyOp4
 70
     1
102
RTVSPropertyOp5
 70
     1
102
RTVSPropertyOp6
 70
     1
102
RTVSPropertyOp7
 70
     1
102
RTVSPropertyOp8
 70
     1
102
RTVSPropertyOp9
 70
     1
102
RTVSPropertyOp10
 70
     1
102
RTVSPropertyOp11
 70
     1
102
RTVSPropertyOp12
 70
     1
102
RTVSPropertyOp13
 70
     1
102
RTVSPropertyOp14
 70
     1
102
RTVSPropertyOp15
 70
     1
102
RTVSPropertyOp16
 70
     1
102
RTVSPropertyOp17
 70
     1
102
RTVSPropertyOp18
 70
     1
102
RTVSPropertyOp19
 70
     1
102
RTVSPropertyOp20
 70
     1
102
RTVSPropertyOp21
 70
     1
102
RTVSPropertyOp22
 70
     1
102
RTVSPropertyOp23
 70
     1
102
RTVSPropertyOp24
 70
     1
102
RTVSPropertyOp25
 70
     1
102
RTVSPropertyOp26
 70
     1
102
RTVSPropertyOp27
 70
     1
102
RTVSPropertyOp28
 70
     1
102
RTVSPropertyOp29
 70
     1
102
RTVSPropertyOp30
 70
     1
102
RTVSPropertyOp31
 70
     1
102
RTVSPropertyOp32
 70
     1
  0
XRECORD
  5
1AAA
102
{ACAD_REACTORS
330
1AA9
102
}
330
1AA9
100
AcDbXrecord
280
     1
102
RTVSPropertyOp0
 70
     0
102
RTVSPropertyOp1
 70
     0
102
RTVSPropertyOp2
 70
     0
102
RTVSPropertyOp3
 70
     0
102
RTVSPropertyOp4
 70
     0
102
RTVSPropertyOp5
 70
     0
102
RTVSPropertyOp6
 70
     0
102
RTVSPropertyOp7
 70
     0
102
RTVSPropertyOp8
 70
     0
102
RTVSPropertyOp9
 70
     0
102
RTVSPropertyOp10
 70
     0
102
RTVSPropertyOp11
 70
     0
102
RTVSPropertyOp12
 70
     0
102
RTVSPropertyOp13
 70
     0
102
RTVSPropertyOp14
 70
     2
102
RTVSPropertyOp15
 70
     0
102
RTVSPropertyOp16
 70
     0
102
RTVSPropertyOp17
 70
     0
102
RTVSPropertyOp18
 70
     0
102
RTVSPropertyOp19
 70
     0
102
RTVSPropertyOp20
 70
     0
102
RTVSPropertyOp21
 70
     0
102
RTVSPropertyOp22
 70
     0
102
RTVSPropertyOp23
 70
     0
102
RTVSPropertyOp24
 70
     0
102
RTVSPropertyOp25
 70
     0
102
RTVSPropertyOp26
 70
     0
102
RTVSPropertyOp27
 70
     0
102
RTVSPropertyOp28
 70
     0
102
RTVSPropertyOp29
 70
     0
102
RTVSPropertyOp30
 70
     0
102
RTVSPropertyOp31
 70
     0
102
RTVSPropertyOp32
 70
     0
  0
XRECORD
  5
1A8B
102
{ACAD_REACTORS
330
1A8A
102
}
330
1A8A
100
AcDbXrecord
280
     1
102
RTVSPropertyOp0
 70
     1
102
RTVSPropertyOp1
 70
     1
102
RTVSPropertyOp2
 70
     1
102
RTVSPropertyOp3
 70
     1
102
RTVSPropertyOp4
 70
     1
102
RTVSPropertyOp5
 70
     1
102
RTVSPropertyOp6
 70
     1
102
RTVSPropertyOp7
 70
     1
102
RTVSPropertyOp8
 70
     1
102
RTVSPropertyOp9
 70
     1
102
RTVSPropertyOp10
 70
     1
102
RTVSPropertyOp11
 70
     1
102
RTVSPropertyOp12
 70
     1
102
RTVSPropertyOp13
 70
     1
102
RTVSPropertyOp14
 70
     1
102
RTVSPropertyOp15
 70
     1
102
RTVSPropertyOp16
 70
     1
102
RTVSPropertyOp17
 70
     1
102
RTVSPropertyOp18
 70
     1
102
RTVSPropertyOp19
 70
     1
102
RTVSPropertyOp20
 70
     1
102
RTVSPropertyOp21
 70
     1
102
RTVSPropertyOp22
 70
     1
102
RTVSPropertyOp23
 70
     1
102
RTVSPropertyOp24
 70
     1
102
RTVSPropertyOp25
 70
     1
102
RTVSPropertyOp26
 70
     1
102
RTVSPropertyOp27
 70
     1
102
RTVSPropertyOp28
 70
     1
102
RTVSPropertyOp29
 70
     1
102
RTVSPropertyOp30
 70
     1
102
RTVSPropertyOp31
 70
     1
102
RTVSPropertyOp32
 70
     1
  0
XRECORD
  5
1AA6
102
{ACAD_REACTORS
330
1AA5
102
}
330
1AA5
100
AcDbXrecord
280
     1
102
RTVSPropertyOp0
 70
     1
102
RTVSPropertyOp1
 70
     1
102
RTVSPropertyOp2
 70
     1
102
RTVSPropertyOp3
 70
     1
102
RTVSPropertyOp4
 70
     1
102
RTVSPropertyOp5
 70
     1
102
RTVSPropertyOp6
 70
     1
102
RTVSPropertyOp7
 70
     1
102
RTVSPropertyOp8
 70
     1
102
RTVSPropertyOp9
 70
     1
102
RTVSPropertyOp10
 70
     1
102
RTVSPropertyOp11
 70
     1
102
RTVSPropertyOp12
 70
     1
102
RTVSPropertyOp13
 70
     1
102
RTVSPropertyOp14
 70
     1
102
RTVSPropertyOp15
 70
     1
102
RTVSPropertyOp16
 70
     1
102
RTVSPropertyOp17
 70
     1
102
RTVSPropertyOp18
 70
     1
102
RTVSPropertyOp19
 70
     1
102
RTVSPropertyOp20
 70
     1
102
RTVSPropertyOp21
 70
     1
102
RTVSPropertyOp22
 70
     1
102
RTVSPropertyOp23
 70
     1
102
RTVSPropertyOp24
 70
     1
102
RTVSPropertyOp25
 70
     1
102
RTVSPropertyOp26
 70
     1
102
RTVSPropertyOp27
 70
     1
102
RTVSPropertyOp28
 70
     1
102
RTVSPropertyOp29
 70
     1
102
RTVSPropertyOp30
 70
     1
102
RTVSPropertyOp31
 70
     1
102
RTVSPropertyOp32
 70
     1
  0
XRECORD
  5
1AA4
102
{ACAD_REACTORS
330
1AA3
102
}
330
1AA3
100
AcDbXrecord
280
     1
102
RTVSPropertyOp0
 70
     1
102
RTVSPropertyOp1
 70
     1
102
RTVSPropertyOp2
 70
     1
102
RTVSPropertyOp3
 70
     1
102
RTVSPropertyOp4
 70
     1
102
RTVSPropertyOp5
 70
     1
102
RTVSPropertyOp6
 70
     1
102
RTVSPropertyOp7
 70
     1
102
RTVSPropertyOp8
 70
     1
102
RTVSPropertyOp9
 70
     1
102
RTVSPropertyOp10
 70
     1
102
RTVSPropertyOp11
 70
     1
102
RTVSPropertyOp12
 70
     1
102
RTVSPropertyOp13
 70
     1
102
RTVSPropertyOp14
 70
     1
102
RTVSPropertyOp15
 70
     1
102
RTVSPropertyOp16
 70
     1
102
RTVSPropertyOp17
 70
     1
102
RTVSPropertyOp18
 70
     1
102
RTVSPropertyOp19
 70
     1
102
RTVSPropertyOp20
 70
     1
102
RTVSPropertyOp21
 70
     1
102
RTVSPropertyOp22
 70
     1
102
RTVSPropertyOp23
 70
     1
102
RTVSPropertyOp24
 70
     1
102
RTVSPropertyOp25
 70
     1
102
RTVSPropertyOp26
 70
     1
102
RTVSPropertyOp27
 70
     1
102
RTVSPropertyOp28
 70
     1
102
RTVSPropertyOp29
 70
     1
102
RTVSPropertyOp30
 70
     1
102
RTVSPropertyOp31
 70
     1
102
RTVSPropertyOp32
 70
     1
  0
XRECORD
  5
1A9E
102
{ACAD_REACTORS
330
1A9D
102
}
330
1A9D
100
AcDbXrecord
280
     1
102
RTVSPropertyOp0
 70
     1
102
RTVSPropertyOp1
 70
     1
102
RTVSPropertyOp2
 70
     1
102
RTVSPropertyOp3
 70
     1
102
RTVSPropertyOp4
 70
     1
102
RTVSPropertyOp5
 70
     1
102
RTVSPropertyOp6
 70
     1
102
RTVSPropertyOp7
 70
     1
102
RTVSPropertyOp8
 70
     1
102
RTVSPropertyOp9
 70
     1
102
RTVSPropertyOp10
 70
     1
102
RTVSPropertyOp11
 70
     1
102
RTVSPropertyOp12
 70
     1
102
RTVSPropertyOp13
 70
     1
102
RTVSPropertyOp14
 70
     1
102
RTVSPropertyOp15
 70
     1
102
RTVSPropertyOp16
 70
     1
102
RTVSPropertyOp17
 70
     1
102
RTVSPropertyOp18
 70
     1
102
RTVSPropertyOp19
 70
     1
102
RTVSPropertyOp20
 70
     1
102
RTVSPropertyOp21
 70
     1
102
RTVSPropertyOp22
 70
     1
102
RTVSPropertyOp23
 70
     1
102
RTVSPropertyOp24
 70
     1
102
RTVSPropertyOp25
 70
     1
102
RTVSPropertyOp26
 70
     1
102
RTVSPropertyOp27
 70
     1
102
RTVSPropertyOp28
 70
     1
102
RTVSPropertyOp29
 70
     1
102
RTVSPropertyOp30
 70
     1
102
RTVSPropertyOp31
 70
     1
102
RTVSPropertyOp32
 70
     1
  0
XRECORD
  5
1AA0
102
{ACAD_REACTORS
330
1A9F
102
}
330
1A9F
100
AcDbXrecord
280
     1
102
RTVSPropertyOp0
 70
     1
102
RTVSPropertyOp1
 70
     1
102
RTVSPropertyOp2
 70
     1
102
RTVSPropertyOp3
 70
     1
102
RTVSPropertyOp4
 70
     1
102
RTVSPropertyOp5
 70
     1
102
RTVSPropertyOp6
 70
     1
102
RTVSPropertyOp7
 70
     1
102
RTVSPropertyOp8
 70
     1
102
RTVSPropertyOp9
 70
     1
102
RTVSPropertyOp10
 70
     1
102
RTVSPropertyOp11
 70
     1
102
RTVSPropertyOp12
 70
     1
102
RTVSPropertyOp13
 70
     1
102
RTVSPropertyOp14
 70
     1
102
RTVSPropertyOp15
 70
     1
102
RTVSPropertyOp16
 70
     1
102
RTVSPropertyOp17
 70
     1
102
RTVSPropertyOp18
 70
     1
102
RTVSPropertyOp19
 70
     1
102
RTVSPropertyOp20
 70
     1
102
RTVSPropertyOp21
 70
     1
102
RTVSPropertyOp22
 70
     1
102
RTVSPropertyOp23
 70
     1
102
RTVSPropertyOp24
 70
     1
102
RTVSPropertyOp25
 70
     1
102
RTVSPropertyOp26
 70
     1
102
RTVSPropertyOp27
 70
     1
102
RTVSPropertyOp28
 70
     1
102
RTVSPropertyOp29
 70
     1
102
RTVSPropertyOp30
 70
     1
102
RTVSPropertyOp31
 70
     1
102
RTVSPropertyOp32
 70
     1
  0
XRECORD
  5
1A91
102
{ACAD_REACTORS
330
1A90
102
}
330
1A90
100
AcDbXrecord
280
     1
102
RTVSPropertyOp0
 70
     1
102
RTVSPropertyOp1
 70
     1
102
RTVSPropertyOp2
 70
     1
102
RTVSPropertyOp3
 70
     1
102
RTVSPropertyOp4
 70
     1
102
RTVSPropertyOp5
 70
     1
102
RTVSPropertyOp6
 70
     1
102
RTVSPropertyOp7
 70
     1
102
RTVSPropertyOp8
 70
     1
102
RTVSPropertyOp9
 70
     1
102
RTVSPropertyOp10
 70
     1
102
RTVSPropertyOp11
 70
     1
102
RTVSPropertyOp12
 70
     1
102
RTVSPropertyOp13
 70
     1
102
RTVSPropertyOp14
 70
     1
102
RTVSPropertyOp15
 70
     1
102
RTVSPropertyOp16
 70
     1
102
RTVSPropertyOp17
 70
     1
102
RTVSPropertyOp18
 70
     1
102
RTVSPropertyOp19
 70
     1
102
RTVSPropertyOp20
 70
     1
102
RTVSPropertyOp21
 70
     1
102
RTVSPropertyOp22
 70
     1
102
RTVSPropertyOp23
 70
     1
102
RTVSPropertyOp24
 70
     1
102
RTVSPropertyOp25
 70
     1
102
RTVSPropertyOp26
 70
     1
102
RTVSPropertyOp27
 70
     1
102
RTVSPropertyOp28
 70
     1
102
RTVSPropertyOp29
 70
     1
102
RTVSPropertyOp30
 70
     1
102
RTVSPropertyOp31
 70
     1
102
RTVSPropertyOp32
 70
     1
  0
XRECORD
  5
1A9A
102
{ACAD_REACTORS
330
1A99
102
}
330
1A99
100
AcDbXrecord
280
     1
102
RTVSPropertyOp0
 70
     1
102
RTVSPropertyOp1
 70
     1
102
RTVSPropertyOp2
 70
     1
102
RTVSPropertyOp3
 70
     1
102
RTVSPropertyOp4
 70
     1
102
RTVSPropertyOp5
 70
     1
102
RTVSPropertyOp6
 70
     1
102
RTVSPropertyOp7
 70
     1
102
RTVSPropertyOp8
 70
     1
102
RTVSPropertyOp9
 70
     1
102
RTVSPropertyOp10
 70
     1
102
RTVSPropertyOp11
 70
     1
102
RTVSPropertyOp12
 70
     1
102
RTVSPropertyOp13
 70
     1
102
RTVSPropertyOp14
 70
     1
102
RTVSPropertyOp15
 70
     1
102
RTVSPropertyOp16
 70
     1
102
RTVSPropertyOp17
 70
     1
102
RTVSPropertyOp18
 70
     1
102
RTVSPropertyOp19
 70
     1
102
RTVSPropertyOp20
 70
     1
102
RTVSPropertyOp21
 70
     1
102
RTVSPropertyOp22
 70
     1
102
RTVSPropertyOp23
 70
     1
102
RTVSPropertyOp24
 70
     1
102
RTVSPropertyOp25
 70
     1
102
RTVSPropertyOp26
 70
     1
102
RTVSPropertyOp27
 70
     1
102
RTVSPropertyOp28
 70
     1
102
RTVSPropertyOp29
 70
     1
102
RTVSPropertyOp30
 70
     1
102
RTVSPropertyOp31
 70
     1
102
RTVSPropertyOp32
 70
     1
  0
XRECORD
  5
1AA2
102
{ACAD_REACTORS
330
1AA1
102
}
330
1AA1
100
AcDbXrecord
280
     1
102
RTVSPropertyOp0
 70
     1
102
RTVSPropertyOp1
 70
     1
102
RTVSPropertyOp2
 70
     1
102
RTVSPropertyOp3
 70
     1
102
RTVSPropertyOp4
 70
     1
102
RTVSPropertyOp5
 70
     1
102
RTVSPropertyOp6
 70
     1
102
RTVSPropertyOp7
 70
     1
102
RTVSPropertyOp8
 70
     1
102
RTVSPropertyOp9
 70
     1
102
RTVSPropertyOp10
 70
     1
102
RTVSPropertyOp11
 70
     1
102
RTVSPropertyOp12
 70
     1
102
RTVSPropertyOp13
 70
     1
102
RTVSPropertyOp14
 70
     1
102
RTVSPropertyOp15
 70
     1
102
RTVSPropertyOp16
 70
     1
102
RTVSPropertyOp17
 70
     1
102
RTVSPropertyOp18
 70
     1
102
RTVSPropertyOp19
 70
     1
102
RTVSPropertyOp20
 70
     1
102
RTVSPropertyOp21
 70
     1
102
RTVSPropertyOp22
 70
     1
102
RTVSPropertyOp23
 70
     1
102
RTVSPropertyOp24
 70
     1
102
RTVSPropertyOp25
 70
     1
102
RTVSPropertyOp26
 70
     1
102
RTVSPropertyOp27
 70
     1
102
RTVSPropertyOp28
 70
     1
102
RTVSPropertyOp29
 70
     1
102
RTVSPropertyOp30
 70
     1
102
RTVSPropertyOp31
 70
     1
102
RTVSPropertyOp32
 70
     1
  0
ENDSEC
  0
EOF
