  0
SECTION
  2
HEADER
  9
$ACADVER
  1
AC1015
  9
$ACADMAINTVER
 70
     6
  9
$DWGCODEPAGE
  3
DOS932
  9
$INSBASE
 10
0.0
 20
0.0
 30
0.0
  9
$EXTMIN
 10
0.0
 20
0.0
 30
0.0
  9
$EXTMAX
 10
297.0
 20
210.0
 30
0.0
  9
$LIMMIN
 10
0.0
 20
0.0
  9
$LIMMAX
 10
297.0
 20
210.0
  9
$ORTHOMODE
 70
     0
  9
$REGENMODE
 70
     1
  9
$FILLMODE
 70
     1
  9
$QTEXTMODE
 70
     0
  9
$MIRRTEXT
 70
     1
  9
$LTSCALE
 40
1.0
  9
$ATTMODE
 70
     1
  9
$TEXTSIZE
 40
3.5
  9
$TRACEWID
 40
1.0
  9
$TEXTSTYLE
  7
Standard
  9
$CLAYER
  8
0
  9
$CELTYPE
  6
ByLayer
  9
$CECOLOR
 62
   256
  9
$CELTSCALE
 40
1.0
  9
$DISPSILH
 70
     0
  9
$DIMSCALE
 40
1.0
  9
$DIMASZ
 40
3.556
  9
$DIMEXO
 40
1.0
  9
$DIMDLI
 40
3.75
  9
$DIMRND
 40
0.0
  9
$DIMDLE
 40
0.0
  9
$DIMEXE
 40
1.0
  9
$DIMTP
 40
0.0
  9
$DIMTM
 40
0.0
  9
$DIMTXT
 40
3.5
  9
$DIMCEN
 40
2.5
  9
$DIMTSZ
 40
0.0
  9
$DIMTOL
 70
     0
  9
$DIMLIM
 70
     0
  9
$DIMTIH
 70
     1
  9
$DIMTOH
 70
     1
  9
$DIMSE1
 70
     0
  9
$DIMSE2
 70
     0
  9
$DIMTAD
 70
     1
  9
$DIMZIN
 70
     1
  9
$DIMBLK
  1

  9
$DIMASO
 70
     1
  9
$DIMSHO
 70
     1
  9
$DIMPOST
  1

  9
$DIMAPOST
  1

  9
$DIMALT
 70
     0
  9
$DIMALTD
 70
     3
  9
$DIMALTF
 40
0.0393700787
  9
$DIMLFAC
 40
1.0
  9
$DIMTOFL
 70
     1
  9
$DIMTVP
 40
0.0
  9
$DIMTIX
 70
     0
  9
$DIMSOXD
 70
     0
  9
$DIMSAH
 70
     0
  9
$DIMBLK1
  1

  9
$DIMBLK2
  1

  9
$DIMSTYLE
  2
ISO-25
  9
$DIMCLRD
 70
     0
  9
$DIMCLRE
 70
     0
  9
$DIMCLRT
 70
     0
  9
$DIMTFAC
 40
1.0
  9
$DIMGAP
 40
1.524
  9
$DIMJUST
 70
     0
  9
$DIMSD1
 70
     0
  9
$DIMSD2
 70
     0
  9
$DIMTOLJ
 70
     0
  9
$DIMTZIN
 70
     1
  9
$DIMALTZ
 70
     0
  9
$DIMALTTZ
 70
     0
  9
$DIMUPT
 70
     0
  9
$DIMDEC
 70
     2
  9
$DIMTDEC
 70
     2
  9
$DIMALTU
 70
     2
  9
$DIMALTTD
 70
     3
  9
$DIMTXSTY
  7
Standard
  9
$DIMAUNIT
 70
     0
  9
$DIMADEC
 70
     2
  9
$DIMALTRND
 40
0.0
  9
$DIMAZIN
 70
     0
  9
$DIMDSEP
 70
    44
  9
$DIMATFIT
 70
     3
  9
$DIMFRAC
 70
     0
  9
$DIMLDRBLK
  1

  9
$DIMLUNIT
 70
     2
  9
$DIMLWD
 70
    -2
  9
$DIMLWE
 70
    -2
  9
$DIMTMOVE
 70
     0
  9
$LUNITS
 70
     2
  9
$LUPREC
 70
     2
  9
$SKETCHINC
 40
1.0
  9
$FILLETRAD
 40
10.0
  9
$AUNITS
 70
     0
  9
$AUPREC
 70
     2
  9
$MENU
  1
.
  9
$ELEVATION
 40
0.0
  9
$PELEVATION
 40
0.0
  9
$THICKNESS
 40
0.0
  9
$LIMCHECK
 70
     0
  9
$CHAMFERA
 40
0.0
  9
$CHAMFERB
 40
0.0
  9
$CHAMFERC
 40
0.0
  9
$CHAMFERD
 40
0.0
  9
$SKPOLY
 70
     0
  9
$TDCREATE
 40
2459241.627845694
  9
$TDUCREATE
 40
2459241.252845694
  9
$TDUPDATE
 40
2459241.627846134
  9
$TDUUPDATE
 40
2459241.252846134
  9
$TDINDWG
 40
0.0000000116
  9
$TDUSRTIMER
 40
0.0000000116
  9
$USRTIMER
 70
     1
  9
$ANGBASE
 50
0.0
  9
$ANGDIR
 70
     0
  9
$PDMODE
 70
     0
  9
$PDSIZE
 40
-1.0
  9
$PLINEWID
 40
0.0
  9
$SPLFRAME
 70
     0
  9
$SPLINETYPE
 70
     6
  9
$SPLINESEGS
 70
     8
  9
$HANDSEED
  5
11D
  9
$SURFTAB1
 70
     6
  9
$SURFTAB2
 70
     6
  9
$SURFTYPE
 70
     6
  9
$SURFU
 70
     6
  9
$SURFV
 70
     6
  9
$UCSBASE
  2

  9
$UCSNAME
  2

  9
$UCSORG
 10
0.0
 20
0.0
 30
0.0
  9
$UCSXDIR
 10
1.0
 20
0.0
 30
0.0
  9
$UCSYDIR
 10
0.0
 20
1.0
 30
0.0
  9
$UCSORTHOREF
  2

  9
$UCSORTHOVIEW
 70
     0
  9
$UCSORGTOP
 10
0.0
 20
0.0
 30
0.0
  9
$UCSORGBOTTOM
 10
0.0
 20
0.0
 30
0.0
  9
$UCSORGLEFT
 10
0.0
 20
0.0
 30
0.0
  9
$UCSORGRIGHT
 10
0.0
 20
0.0
 30
0.0
  9
$UCSORGFRONT
 10
0.0
 20
0.0
 30
0.0
  9
$UCSORGBACK
 10
0.0
 20
0.0
 30
0.0
  9
$PUCSBASE
  2

  9
$PUCSNAME
  2

  9
$PUCSORG
 10
0.0
 20
0.0
 30
0.0
  9
$PUCSXDIR
 10
1.0
 20
0.0
 30
0.0
  9
$PUCSYDIR
 10
0.0
 20
1.0
 30
0.0
  9
$PUCSORTHOREF
  2

  9
$PUCSORTHOVIEW
 70
     0
  9
$PUCSORGTOP
 10
0.0
 20
0.0
 30
0.0
  9
$PUCSORGBOTTOM
 10
0.0
 20
0.0
 30
0.0
  9
$PUCSORGLEFT
 10
0.0
 20
0.0
 30
0.0
  9
$PUCSORGRIGHT
 10
0.0
 20
0.0
 30
0.0
  9
$PUCSORGFRONT
 10
0.0
 20
0.0
 30
0.0
  9
$PUCSORGBACK
 10
0.0
 20
0.0
 30
0.0
  9
$USERI1
 70
     0
  9
$USERI2
 70
     0
  9
$USERI3
 70
     0
  9
$USERI4
 70
     0
  9
$USERI5
 70
     0
  9
$USERR1
 40
0.0
  9
$USERR2
 40
0.0
  9
$USERR3
 40
0.0
  9
$USERR4
 40
0.0
  9
$USERR5
 40
0.0
  9
$WORLDVIEW
 70
     1
  9
$SHADEDGE
 70
     3
  9
$SHADEDIF
 70
    70
  9
$TILEMODE
 70
     1
  9
$MAXACTVP
 70
    64
  9
$PINSBASE
 10
0.0
 20
0.0
 30
0.0
  9
$PLIMCHECK
 70
     0
  9
$PEXTMIN
 10
1.0000000000E+20
 20
1.0000000000E+20
 30
1.0000000000E+20
  9
$PEXTMAX
 10
-1.0000000000E+20
 20
-1.0000000000E+20
 30
-1.0000000000E+20
  9
$PLIMMIN
 10
0.0
 20
0.0
  9
$PLIMMAX
 10
420.0
 20
297.0
  9
$UNITMODE
 70
     0
  9
$VISRETAIN
 70
     1
  9
$PLINEGEN
 70
     0
  9
$PSLTSCALE
 70
     1
  9
$TREEDEPTH
 70
  3020
  9
$CMLSTYLE
  2
Standard
  9
$CMLJUST
 70
     0
  9
$CMLSCALE
 40
20.0
  9
$PROXYGRAPHICS
 70
     1
  9
$MEASUREMENT
 70
     1
  9
$CELWEIGHT
370
    -1
  9
$ENDCAPS
280
     0
  9
$JOINSTYLE
280
     0
  9
$LWDISPLAY
290
     1
  9
$INSUNITS
 70
     4
  9
$HYPERLINKBASE
  1

  9
$STYLESHEET
  1

  9
$XEDIT
290
     1
  9
$CEPSNTYPE
380
     0
  9
$PSTYLEMODE
290
     1
  9
$FINGERPRINTGUID
  2
{37296BB8-198D-4BE2-B430-6ED267C803B7}
  9
$VERSIONGUID
  2
{FAEB1C32-E019-11D5-929B-00C0DF256EC4}
  9
$EXTNAMES
290
     1
  9
$PSVPSCALE
 40
0.0
  9
$OLESTARTUP
290
     0
  0
ENDSEC
  0
SECTION
  2
CLASSES
  0
CLASS
  1
ACDBDICTIONARYWDFLT
  2
AcDbDictionaryWithDefault
  3
ObjectDBX Classes
 90
        0
280
     0
281
     0
  0
CLASS
  1
VISUALSTYLE
  2
AcDbVisualStyle
  3
ObjectDBX Classes
 90
     4095
280
     0
281
     0
  0
CLASS
  1
MATERIAL
  2
AcDbMaterial
  3
ObjectDBX Classes
 90
     1153
280
     0
281
     0
  0
CLASS
  1
SCALE
  2
AcDbScale
  3
ObjectDBX Classes
 90
     1153
280
     0
281
     0
  0
CLASS
  1
TABLESTYLE
  2
AcDbTableStyle
  3
ObjectDBX Classes
 90
     4095
280
     0
281
     0
  0
CLASS
  1
MLEADERSTYLE
  2
AcDbMLeaderStyle
  3
ACDB_MLEADERSTYLE_CLASS
 90
     4095
280
     0
281
     0
  0
CLASS
  1
SUN
  2
AcDbSun
  3
SCENEOE
 90
     1153
280
     0
281
     0
  0
CLASS
  1
ACDBPLACEHOLDER
  2
AcDbPlaceHolder
  3
ObjectDBX Classes
 90
        0
280
     0
281
     0
  0
CLASS
  1
LAYOUT
  2
AcDbLayout
  3
ObjectDBX Classes
 90
        0
280
     0
281
     0
  0
ENDSEC
  0
SECTION
  2
TABLES
  0
TABLE
  2
VPORT
  5
8
330
0
100
AcDbSymbolTable
 70
     1
  0
VPORT
  5
29
330
8
100
AcDbSymbolTableRecord
100
AcDbViewportTableRecord
  2
*Active
 70
     0
 10
0.0
 20
0.0
 11
1.0
 21
1.0
 12
148.5
 22
105.0
 13
0.0
 23
0.0
 14
10.0
 24
10.0
 15
10.0
 25
10.0
 16
0.0
 26
0.0
 36
1.0
 17
0.0
 27
0.0
 37
0.0
 40
210.0
 41
1.4142857143
 42
50.0
 43
0.0
 44
0.0
 50
0.0
 51
0.0
 71
     0
 72
  2000
 73
     1
 74
     3
 75
     0
 76
     0
 77
     0
 78
     0
281
     0
 65
     1
110
0.0
120
0.0
130
0.0
111
1.0
121
0.0
131
0.0
112
0.0
122
1.0
132
0.0
 79
     0
146
0.0
  0
ENDTAB
  0
TABLE
  2
LTYPE
  5
5
330
0
100
AcDbSymbolTable
 70
     6
  0
LTYPE
  5
14
330
5
100
AcDbSymbolTableRecord
100
AcDbLinetypeTableRecord
  2
ByBlock
 70
     0
  3

 72
    65
 73
     0
 40
0.0
  0
LTYPE
  5
15
330
5
100
AcDbSymbolTableRecord
100
AcDbLinetypeTableRecord
  2
ByLayer
 70
     0
  3

 72
    65
 73
     0
 40
0.0
  0
LTYPE
  5
16
330
5
100
AcDbSymbolTableRecord
100
AcDbLinetypeTableRecord
  2
Continuous
 70
     0
  3
Solid line
 72
    65
 73
     0
 40
0.0
  0
LTYPE
  5
6E
330
5
100
AcDbSymbolTableRecord
100
AcDbLinetypeTableRecord
  2
HIDDEN
 70
     0
  3
Hidden __ __ __ __ __ __ __ __ __ __ __ __ __ __
 72
    65
 73
     2
 40
1.905
 49
1.27
 74
     0
 49
-0.635
 74
     0
  0
LTYPE
  5
6F
330
5
100
AcDbSymbolTableRecord
100
AcDbLinetypeTableRecord
  2
PHANTOM
 70
     0
  3
Phantom ______  __  __  ______  __  __  ______
 72
    65
 73
     6
 40
12.7
 49
6.35
 74
     0
 49
-1.27
 74
     0
 49
1.27
 74
     0
 49
-1.27
 74
     0
 49
1.27
 74
     0
 49
-1.27
 74
     0
  0
LTYPE
  5
70
330
5
100
AcDbSymbolTableRecord
100
AcDbLinetypeTableRecord
  2
CENTER
 70
     0
  3
Center ____ _ ____ _ ____ _ ____ _ ____ _ ____
 72
    65
 73
     4
 40
10.16
 49
6.35
 74
     0
 49
-1.27
 74
     0
 49
1.27
 74
     0
 49
-1.27
 74
     0
  0
LTYPE
  5
71
330
5
100
AcDbSymbolTableRecord
100
AcDbLinetypeTableRecord
  2
CENTERX2
 70
     0
  3
Center (2x) ________  __  ________  __  _____
 72
    65
 73
     4
 40
20.32
 49
12.7
 74
     0
 49
-2.54
 74
     0
 49
2.54
 74
     0
 49
-2.54
 74
     0
  0
LTYPE
  5
72
330
5
100
AcDbSymbolTableRecord
100
AcDbLinetypeTableRecord
  2
DOT2
 70
     0
  3
Dot (.5x) ........................................
 72
    65
 73
     2
 40
0.635
 49
0.0
 74
     0
 49
-0.635
 74
     0
  0
ENDTAB
  0
TABLE
  2
LAYER
  5
2
330
0
100
AcDbSymbolTable
 70
     1
  0
LAYER
  5
10
330
2
100
AcDbSymbolTableRecord
100
AcDbLayerTableRecord
  2
0
 70
     0
 62
     7
  6
Continuous
370
    -3
390
F
  0
ENDTAB
  0
TABLE
  2
STYLE
  5
3
330
0
100
AcDbSymbolTable
 70
     2
  0
STYLE
  5
11
330
3
100
AcDbSymbolTableRecord
100
AcDbTextStyleTableRecord
  2
Standard
 70
     0
 40
0.0
 41
1.0
 50
0.0
 71
     0
 42
3.5
  3
txt
  4
bigfont
  0
STYLE
  5
73
330
3
100
AcDbSymbolTableRecord
100
AcDbTextStyleTableRecord
  2
SLDTEXTSTYLE0
 70
     0
 40
0.0
 41
0.75
 50
0.0
 71
     0
 42
3.5
  3
TXT
  4
bigfont
  0
ENDTAB
  0
TABLE
  2
VIEW
  5
6
330
0
100
AcDbSymbolTable
 70
     0
  0
ENDTAB
  0
TABLE
  2
UCS
  5
7
330
0
100
AcDbSymbolTable
 70
     0
  0
ENDTAB
  0
TABLE
  2
APPID
  5
9
330
0
100
AcDbSymbolTable
 70
     1
  0
APPID
  5
12
330
9
100
AcDbSymbolTableRecord
100
AcDbRegAppTableRecord
  2
ACAD
 70
     0
  0
ENDTAB
  0
TABLE
  2
DIMSTYLE
  5
A
330
0
100
AcDbSymbolTable
 70
     1
100
AcDbDimStyleTable
  0
DIMSTYLE
105
27
330
A
100
AcDbSymbolTableRecord
100
AcDbDimStyleTableRecord
  2
ISO-25
 70
     0
 41
2.5
 42
0.625
 43
3.75
 44
1.25
 73
     0
 74
     0
 77
     1
 78
     8
140
2.5
141
2.5
143
0.0393700787
147
0.625
171
     3
172
     1
178
     0
271
     2
272
     2
274
     3
278
    44
283
     0
284
     8
340
11
  0
ENDTAB
  0
TABLE
  2
BLOCK_RECORD
  5
1
330
0
100
AcDbSymbolTable
 70
     1
  0
BLOCK_RECORD
  5
1F
330
1
100
AcDbSymbolTableRecord
100
AcDbBlockTableRecord
  2
*Model_Space
340
22
  0
BLOCK_RECORD
  5
1B
330
1
100
AcDbSymbolTableRecord
100
AcDbBlockTableRecord
  2
*Paper_Space
340
1E
  0
BLOCK_RECORD
  5
23
330
1
100
AcDbSymbolTableRecord
100
AcDbBlockTableRecord
  2
*Paper_Space0
340
26
  0
ENDTAB
  0
ENDSEC
  0
SECTION
  2
BLOCKS
  0
BLOCK
  5
20
330
1F
100
AcDbEntity
  8
0
100
AcDbBlockBegin
  2
*Model_Space
 70
     0
 10
0.0
 20
0.0
 30
0.0
  3
*Model_Space
  1

  0
ENDBLK
  5
21
330
1F
100
AcDbEntity
  8
0
100
AcDbBlockEnd
  0
BLOCK
  5
1C
330
1B
100
AcDbEntity
 67
     1
  8
0
100
AcDbBlockBegin
  2
*Paper_Space
 70
     0
 10
0.0
 20
0.0
 30
0.0
  3
*Paper_Space
  1

  0
ENDBLK
  5
1D
330
1B
100
AcDbEntity
 67
     1
  8
0
100
AcDbBlockEnd
  0
BLOCK
  5
24
330
23
100
AcDbEntity
  8
0
100
AcDbBlockBegin
  2
*Paper_Space0
 70
     0
 10
0.0
 20
0.0
 30
0.0
  3
*Paper_Space0
  1

  0
ENDBLK
  5
25
330
23
100
AcDbEntity
  8
0
100
AcDbBlockEnd
  0
ENDSEC
  0
SECTION
  2
ENTITIES
  0
MTEXT
  5
74
330
1F
100
AcDbEntity
  8
0
  6
Continuous
 62
     7
370
     0
100
AcDbMText
 10
121.1329238329
 20
100.7757231484
 30
0.0
 40
3.5
 41
0.0
 71
     1
 72
     1
  1
AT-1044R
  7
SLDTEXTSTYLE0
 73
     1
 44
1.0
  0
LINE
  5
75
330
1F
100
AcDbEntity
  8
0
  6
Continuous
 62
     7
370
    25
100
AcDbLine
 10
105.7702336575
 20
64.6680729476
 30
0.0
 11
106.8970515971
 21
66.6197788698
 31
0.0
  0
LINE
  5
76
330
1F
100
AcDbEntity
  8
0
  6
Continuous
 62
     7
370
    25
100
AcDbLine
 10
106.8970515971
 20
88.1197788698
 30
0.0
 11
105.7702336575
 21
90.071484792
 31
0.0
  0
LINE
  5
77
330
1F
100
AcDbEntity
  8
0
  6
Continuous
 62
     7
370
    25
100
AcDbLine
 10
97.0238695366
 20
90.071484792
 30
0.0
 11
95.8970515971
 21
88.1197788698
 31
0.0
  0
LINE
  5
78
330
1F
100
AcDbEntity
  8
0
  6
Continuous
 62
     7
370
    25
100
AcDbLine
 10
95.8970515971
 20
66.6197788698
 30
0.0
 11
97.0238695366
 21
64.6680729476
 31
0.0
  0
LINE
  5
79
330
1F
100
AcDbEntity
  8
0
  6
Continuous
 62
     7
370
    25
100
AcDbLine
 10
95.8970515971
 20
88.0454038698
 30
0.0
 11
84.09344287
 21
87.6765410971
 31
0.0
  0
LINE
  5
7A
330
1F
100
AcDbEntity
  8
0
  6
Continuous
 62
     7
370
    25
100
AcDbLine
 10
84.09344287
 20
67.0630166425
 30
0.0
 11
95.8970515971
 21
66.6941538698
 31
0.0
  0
LINE
  5
7B
330
1F
100
AcDbEntity
  8
0
  6
Continuous
 62
     7
370
    25
100
AcDbLine
 10
106.8970515971
 20
66.6941538698
 30
0.0
 11
118.7006603241
 21
67.0630166425
 31
0.0
  0
LINE
  5
7C
330
1F
100
AcDbEntity
  8
0
  6
Continuous
 62
     7
370
    25
100
AcDbLine
 10
118.7006603241
 20
87.6765410971
 30
0.0
 11
106.8970515971
 21
88.0454038698
 31
0.0
  0
LINE
  5
7D
330
1F
100
AcDbEntity
  8
0
  6
Continuous
 62
     7
370
    25
100
AcDbLine
 10
118.7006603241
 20
67.0630166425
 30
0.0
 11
121.3970515971
 21
68.6197788698
 31
0.0
  0
LINE
  5
7E
330
1F
100
AcDbEntity
  8
0
  6
Continuous
 62
     7
370
    25
100
AcDbLine
 10
121.3970515971
 20
86.1197788698
 30
0.0
 11
118.7006603241
 21
87.6765410971
 31
0.0
  0
LINE
  5
7F
330
1F
100
AcDbEntity
  8
0
  6
Continuous
 62
     7
370
    25
100
AcDbLine
 10
84.09344287
 20
87.6765410971
 30
0.0
 11
81.3970515971
 21
86.1197788698
 31
0.0
  0
LINE
  5
80
330
1F
100
AcDbEntity
  8
0
  6
Continuous
 62
     7
370
    25
100
AcDbLine
 10
81.3970515971
 20
68.6197788698
 30
0.0
 11
84.09344287
 21
67.0630166425
 31
0.0
  0
LINE
  5
81
330
1F
100
AcDbEntity
  8
0
  6
Continuous
 62
     7
370
    25
100
AcDbLine
 10
99.4614530132
 20
67.8434994282
 30
0.0
 11
99.4614530132
 21
67.8348391741
 31
0.0
  0
LINE
  5
82
330
1F
100
AcDbEntity
  8
0
  6
Continuous
 62
     7
370
    25
100
AcDbLine
 10
98.5264220773
 20
76.8297788698
 30
0.0
 11
102.8464220773
 21
76.8297788698
 31
0.0
  0
LINE
  5
83
330
1F
100
AcDbEntity
  8
0
  6
Continuous
 62
     7
370
    25
100
AcDbLine
 10
98.5264220773
 20
77.3697788698
 30
0.0
 11
98.5264220773
 21
76.8297788698
 31
0.0
  0
LINE
  5
84
330
1F
100
AcDbEntity
  8
0
  6
Continuous
 62
     7
370
    25
100
AcDbLine
 10
98.5264220773
 20
77.9097788698
 30
0.0
 11
98.5264220773
 21
77.3697788698
 31
0.0
  0
LINE
  5
85
330
1F
100
AcDbEntity
  8
0
  6
Continuous
 62
     7
370
    25
100
AcDbLine
 10
102.8464220773
 20
77.9097788698
 30
0.0
 11
98.5264220773
 21
77.9097788698
 31
0.0
  0
LINE
  5
86
330
1F
100
AcDbEntity
  8
0
  6
Continuous
 62
     7
370
    25
100
AcDbLine
 10
102.8464220773
 20
78.6657788698
 30
0.0
 11
102.8464220773
 21
77.9097788698
 31
0.0
  0
LINE
  5
87
330
1F
100
AcDbEntity
  8
0
  6
Continuous
 62
     7
370
    25
100
AcDbLine
 10
105.0064220773
 20
77.3697788698
 30
0.0
 11
102.8464220773
 21
78.6657788698
 31
0.0
  0
LINE
  5
88
330
1F
100
AcDbEntity
  8
0
  6
Continuous
 62
     7
370
    25
100
AcDbLine
 10
102.8464220773
 20
76.8297788698
 30
0.0
 11
102.8464220773
 21
76.0737788698
 31
0.0
  0
LINE
  5
89
330
1F
100
AcDbEntity
  8
0
  6
Continuous
 62
     7
370
    25
100
AcDbLine
 10
102.8464220773
 20
76.0737788698
 30
0.0
 11
105.0064220773
 21
77.3697788698
 31
0.0
  0
SPLINE
  5
8A
330
1F
100
AcDbEntity
  8
0
  6
Continuous
 62
     7
370
    25
100
AcDbSpline
210
0.0
220
0.0
230
1.0
 70
     8
 71
     3
 72
    16
 73
    12
 74
     0
 42
0.000000001
 43
0.00000001
 40
0.0
 40
0.0
 40
0.0
 40
0.0
 40
0.2500000000000001
 40
0.2500000000000001
 40
0.5000000000000001
 40
0.5000000000000001
 40
0.6250000000000001
 40
0.6250000000000001
 40
0.7500000000000002
 40
0.7500000000000002
 40
1.0
 40
1.0
 40
1.0
 40
1.0
 10
97.02386953659637
 20
71.01892590869303
 30
0.0
 10
96.72533125217092
 20
72.05309286195164
 30
0.0
 10
96.47535426770447
 20
73.11100011767861
 30
0.0
 10
96.13358732509828
 20
75.230935436431
 30
0.0
 10
96.04126097418641
 20
76.29757107486697
 30
0.0
 10
96.04145346324931
 20
77.90929595146109
 30
0.0
 10
96.06441352175985
 20
78.44906170420369
 30
0.0
 10
96.15533066260467
 20
79.53001437257535
 30
0.0
 10
96.22261922365406
 20
80.0647315908492
 30
0.0
 10
96.48075237016798
 20
81.65403894962259
 30
0.0
 10
96.72747405882662
 20
82.69388777760307
 30
0.0
 10
97.0238695365964
 20
83.72063183086485
 30
0.0
  0
LINE
  5
8B
330
1F
100
AcDbEntity
  8
0
  6
Continuous
 62
     7
370
    25
100
AcDbLine
 10
97.0238695366
 20
83.7206318309
 30
0.0
 11
105.7702336575
 21
83.7206318309
 31
0.0
  0
SPLINE
  5
8C
330
1F
100
AcDbEntity
  8
0
  6
Continuous
 62
     7
370
    25
100
AcDbSpline
210
0.0
220
0.0
230
1.0
 70
     8
 71
     3
 72
    16
 73
    12
 74
     0
 42
0.000000001
 43
0.00000001
 40
0.0
 40
0.0
 40
0.0
 40
0.0
 40
0.2500000000000001
 40
0.2500000000000001
 40
0.5000000000000001
 40
0.5000000000000001
 40
0.625
 40
0.625
 40
0.75
 40
0.75
 40
1.0
 40
1.0
 40
1.0
 40
1.0
 10
105.7702336575067
 20
71.01892590869303
 30
0.0
 10
106.0687719419321
 20
72.05309286195164
 30
0.0
 10
106.3187489263986
 20
73.11100011767861
 30
0.0
 10
106.6605158690048
 20
75.230935436431
 30
0.0
 10
106.7528422199167
 20
76.29757107486697
 30
0.0
 10
106.7526497308538
 20
77.90929595146109
 30
0.0
 10
106.7296896723432
 20
78.44906170420369
 30
0.0
 10
106.6387725314984
 20
79.53001437257534
 30
0.0
 10
106.571483970449
 20
80.0647315908492
 30
0.0
 10
106.3133508239351
 20
81.65403894962259
 30
0.0
 10
106.0666291352765
 20
82.69388777760305
 30
0.0
 10
105.7702336575067
 20
83.72063183086483
 30
0.0
  0
LINE
  5
8D
330
1F
100
AcDbEntity
  8
0
  6
Continuous
 62
     7
370
    25
100
AcDbLine
 10
97.0238695366
 20
71.0189259087
 30
0.0
 11
105.7702336575
 21
71.0189259087
 31
0.0
  0
SPLINE
  5
8E
330
1F
100
AcDbEntity
  8
0
  6
Continuous
 62
     7
370
    25
100
AcDbSpline
210
0.0
220
0.0
230
1.0
 70
     8
 71
     3
 72
    16
 73
    12
 74
     0
 42
0.000000001
 43
0.00000001
 40
0.0
 40
0.0
 40
0.0
 40
0.0
 40
0.2500000000000001
 40
0.2500000000000001
 40
0.4999999999999999
 40
0.4999999999999999
 40
0.6249999999999999
 40
0.6249999999999999
 40
0.75
 40
0.75
 40
1.0
 40
1.0
 40
1.0
 40
1.0
 10
105.770233657507
 20
83.72063183086483
 30
0.0
 10
106.06958221569
 20
84.2391187428103
 30
0.0
 10
106.3162996425516
 20
84.76138581312692
 30
0.0
 10
106.6580833749079
 20
85.81681208625925
 30
0.0
 10
106.7520222832928
 20
86.35005226281645
 30
0.0
 10
106.7530541047723
 20
87.15995896717355
 30
0.0
 10
106.730089697916
 20
87.43119832221564
 30
0.0
 10
106.6405405716304
 20
87.96773834768489
 30
0.0
 10
106.5740467375629
 20
88.23420954183584
 30
0.0
 10
106.3172834407491
 20
89.02887897072065
 30
0.0
 10
106.0699553817286
 20
89.55235153746631
 30
0.0
 10
105.7702336575069
 20
90.07148479195062
 30
0.0
  0
SPLINE
  5
8F
330
1F
100
AcDbEntity
  8
0
  6
Continuous
 62
     7
370
    25
100
AcDbSpline
210
0.0
220
0.0
230
1.0
 70
     8
 71
     3
 72
    16
 73
    12
 74
     0
 42
0.000000001
 43
0.00000001
 40
0.0
 40
0.0
 40
0.0
 40
0.0
 40
0.2500000000000002
 40
0.2500000000000002
 40
0.5000000000000004
 40
0.5000000000000004
 40
0.6250000000000003
 40
0.6250000000000003
 40
0.7500000000000002
 40
0.7500000000000002
 40
1.0
 40
1.0
 40
1.0
 40
1.0
 10
105.770233657507
 20
64.66807294760704
 30
0.0
 10
106.06958221569
 20
65.18655985955252
 30
0.0
 10
106.3162996425516
 20
65.70882692986916
 30
0.0
 10
106.6580833749079
 20
66.76425320300154
 30
0.0
 10
106.7520222832928
 20
67.29749337955874
 30
0.0
 10
106.7530541047724
 20
68.10740008391589
 30
0.0
 10
106.730089697916
 20
68.37863943895798
 30
0.0
 10
106.6405405716304
 20
68.91517946442724
 30
0.0
 10
106.5740467375629
 20
69.1816506585782
 30
0.0
 10
106.3172834407491
 20
69.97632008746305
 30
0.0
 10
106.0699553817287
 20
70.49979265420872
 30
0.0
 10
105.7702336575069
 20
71.01892590869306
 30
0.0
  0
LINE
  5
90
330
1F
100
AcDbEntity
  8
0
  6
Continuous
 62
     7
370
    25
100
AcDbLine
 10
106.8970515971
 20
77.3697788698
 30
0.0
 11
106.8970515971
 21
88.1197788698
 31
0.0
  0
LINE
  5
91
330
1F
100
AcDbEntity
  8
0
  6
Continuous
 62
     7
370
    25
100
AcDbLine
 10
106.8970515971
 20
66.6197788698
 30
0.0
 11
106.8970515971
 21
77.3697788698
 31
0.0
  0
SPLINE
  5
92
330
1F
100
AcDbEntity
  8
0
  6
Continuous
 62
     7
370
    25
100
AcDbSpline
210
0.0
220
0.0
230
1.0
 70
     8
 71
     3
 72
    16
 73
    12
 74
     0
 42
0.000000001
 43
0.00000001
 40
0.0
 40
0.0
 40
0.0
 40
0.0
 40
0.2500000000000002
 40
0.2500000000000002
 40
0.5000000000000004
 40
0.5000000000000004
 40
0.6250000000000003
 40
0.6250000000000003
 40
0.7500000000000002
 40
0.7500000000000002
 40
1.0
 40
1.0
 40
1.0
 40
1.0
 10
97.02386953659607
 20
64.66807294760704
 30
0.0
 10
96.72452097841305
 20
65.18655985955252
 30
0.0
 10
96.47780355155147
 20
65.70882692986916
 30
0.0
 10
96.13601981919518
 20
66.76425320300154
 30
0.0
 10
96.04208091081023
 20
67.29749337955874
 30
0.0
 10
96.04104908933071
 20
68.10740008391589
 30
0.0
 10
96.06401349618706
 20
68.37863943895798
 30
0.0
 10
96.15356262247265
 20
68.91517946442724
 30
0.0
 10
96.2200564565402
 20
69.1816506585782
 30
0.0
 10
96.476819753354
 20
69.97632008746305
 30
0.0
 10
96.72414781237441
 20
70.49979265420872
 30
0.0
 10
97.02386953659622
 20
71.01892590869306
 30
0.0
  0
SPLINE
  5
93
330
1F
100
AcDbEntity
  8
0
  6
Continuous
 62
     7
370
    25
100
AcDbSpline
210
0.0
220
0.0
230
1.0
 70
     8
 71
     3
 72
    16
 73
    12
 74
     0
 42
0.000000001
 43
0.00000001
 40
0.0
 40
0.0
 40
0.0
 40
0.0
 40
0.2500000000000001
 40
0.2500000000000001
 40
0.4999999999999999
 40
0.4999999999999999
 40
0.6249999999999999
 40
0.6249999999999999
 40
0.75
 40
0.75
 40
1.0
 40
1.0
 40
1.0
 40
1.0
 10
97.02386953659607
 20
83.72063183086483
 30
0.0
 10
96.72452097841305
 20
84.2391187428103
 30
0.0
 10
96.47780355155149
 20
84.76138581312692
 30
0.0
 10
96.13601981919521
 20
85.81681208625925
 30
0.0
 10
96.04208091081024
 20
86.35005226281645
 30
0.0
 10
96.04104908933073
 20
87.15995896717355
 30
0.0
 10
96.06401349618709
 20
87.43119832221564
 30
0.0
 10
96.15356262247266
 20
87.96773834768489
 30
0.0
 10
96.22005645654022
 20
88.23420954183584
 30
0.0
 10
96.47681975335401
 20
89.02887897072065
 30
0.0
 10
96.72414781237443
 20
89.55235153746631
 30
0.0
 10
97.02386953659622
 20
90.07148479195062
 30
0.0
  0
LINE
  5
94
330
1F
100
AcDbEntity
  8
0
  6
Continuous
 62
     7
370
    25
100
AcDbLine
 10
95.8970515971
 20
77.3697788698
 30
0.0
 11
95.8970515971
 21
88.1197788698
 31
0.0
  0
LINE
  5
95
330
1F
100
AcDbEntity
  8
0
  6
Continuous
 62
     7
370
    25
100
AcDbLine
 10
95.8970515971
 20
66.6197788698
 30
0.0
 11
95.8970515971
 21
77.3697788698
 31
0.0
  0
LINE
  5
96
330
1F
100
AcDbEntity
  8
0
  6
Continuous
 62
     7
370
    25
100
AcDbLine
 10
97.0238695366
 20
64.6680729476
 30
0.0
 11
105.7702336575
 21
64.6680729476
 31
0.0
  0
ARC
  5
97
330
1F
100
AcDbEntity
  8
0
  6
Continuous
 62
     7
370
    25
100
AcDbCircle
 10
103.4304278017
 20
67.9582754936
 30
0.0
 40
0.7089010425968949
100
AcDbArc
 50
189.317604674
 51
255.022767465
  0
LINE
  5
98
330
1F
100
AcDbEntity
  8
0
  6
Continuous
 62
     7
370
    25
100
AcDbLine
 10
103.2472228208
 20
68.4135420418
 30
0.0
 11
102.1420381617
 21
68.6927465872
 31
0.0
  0
ARC
  5
99
330
1F
100
AcDbEntity
  8
0
  6
Continuous
 62
     7
370
    25
100
AcDbCircle
 10
102.105052247
 20
68.5772190357
 30
0.0
 40
0.1819275320671324
100
AcDbArc
 50
285.5004638062
 51
348.3722863437
  0
LINE
  5
9A
330
1F
100
AcDbEntity
  8
0
  6
Continuous
 62
     7
370
    25
100
AcDbLine
 10
102.1536716844
 20
68.4019085191
 30
0.0
 11
99.7106319117
 21
68.0296357918
 31
0.0
  0
LWPOLYLINE
  5
9B
330
1F
100
AcDbEntity
  8
0
  6
Continuous
 62
     7
370
    25
100
AcDbPolyline
 90
        5
 70
   128
 43
0.0
 10
99.7106319117
 20
68.0296357918
 10
99.6090508312
 20
67.9992904009
 10
99.5294966944
 20
67.9554919243
 10
99.4788392743
 20
67.9020225108
 10
99.4614530132
 20
67.8434994282
  0
ARC
  5
9C
330
1F
100
AcDbEntity
  8
0
  6
Continuous
 62
     7
370
    25
100
AcDbCircle
 10
102.0962391152
 20
67.1805357514
 30
0.0
 40
0.191830885052096
100
AcDbArc
 50
283.8125985283
 51
347.1238647497
  0
LINE
  5
9D
330
1F
100
AcDbEntity
  8
0
  6
Continuous
 62
     7
370
    25
100
AcDbLine
 10
97.0238695366
 20
90.071484792
 30
0.0
 11
105.7702336575
 21
90.071484792
 31
0.0
  0
LINE
  5
9E
330
1F
100
AcDbEntity
  8
0
  6
Continuous
 62
     7
370
    25
100
AcDbLine
 10
84.09344287
 20
67.0630166425
 30
0.0
 11
84.09344287
 21
87.6765410971
 31
0.0
  0
LINE
  5
9F
330
1F
100
AcDbEntity
  8
0
  6
Continuous
 62
     7
370
    25
100
AcDbLine
 10
118.7006603241
 20
77.3697788698
 30
0.0
 11
118.7006603241
 21
87.6765410971
 31
0.0
  0
LINE
  5
A0
330
1F
100
AcDbEntity
  8
0
  6
Continuous
 62
     7
370
    25
100
AcDbLine
 10
118.7006603241
 20
67.0630166425
 30
0.0
 11
118.7006603241
 21
77.3697788698
 31
0.0
  0
LINE
  5
A1
330
1F
100
AcDbEntity
  8
0
  6
Continuous
 62
     7
370
    25
100
AcDbLine
 10
121.3970515971
 20
77.3697788698
 30
0.0
 11
121.3970515971
 21
86.1197788698
 31
0.0
  0
LINE
  5
A2
330
1F
100
AcDbEntity
  8
0
  6
Continuous
 62
     7
370
    25
100
AcDbLine
 10
121.3970515971
 20
68.6197788698
 30
0.0
 11
121.3970515971
 21
77.3697788698
 31
0.0
  0
LINE
  5
A3
330
1F
100
AcDbEntity
  8
0
  6
Continuous
 62
     7
370
    25
100
AcDbLine
 10
81.3970515971
 20
77.3697788698
 30
0.0
 11
81.3970515971
 21
86.1197788698
 31
0.0
  0
LINE
  5
A4
330
1F
100
AcDbEntity
  8
0
  6
Continuous
 62
     7
370
    25
100
AcDbLine
 10
81.3970515971
 20
68.6197788698
 30
0.0
 11
81.3970515971
 21
77.3697788698
 31
0.0
  0
LWPOLYLINE
  5
A5
330
1F
100
AcDbEntity
  8
0
  6
Continuous
 62
     7
370
    25
100
AcDbPolyline
 90
        9
 70
   128
 43
0.0
 10
102.1420381617
 20
68.6840863332
 10
102.2003163728
 20
68.6547813715
 10
102.2445479698
 20
68.6198706322
 10
102.2726415902
 20
68.5810047683
 10
102.283268909
 20
68.540021439
 10
102.2759274441
 20
68.4988584218
 10
102.2509643155
 20
68.4594619904
 10
102.2095598321
 20
68.4236948904
 10
102.1536716844
 20
68.393248265
  0
LINE
  5
A6
330
1F
100
AcDbEntity
  8
0
  6
Continuous
 62
     7
370
    25
100
AcDbLine
 10
102.1536716844
 20
68.4019085191
 30
0.0
 11
102.1536716844
 21
68.393248265
 31
0.0
  0
LINE
  5
A7
330
1F
100
AcDbEntity
  8
0
  6
Continuous
 62
     7
370
    25
100
AcDbLine
 10
102.1420381617
 20
68.6927465872
 30
0.0
 11
102.1420381617
 21
68.6840863332
 31
0.0
  0
LINE
  5
A8
330
1F
100
AcDbEntity
  8
0
  6
Continuous
 62
     7
370
    25
100
AcDbLine
 10
103.2472228208
 20
68.4048817877
 30
0.0
 11
102.1420381617
 21
68.6840863332
 31
0.0
  0
LINE
  5
A9
330
1F
100
AcDbEntity
  8
0
  6
Continuous
 62
     7
370
    25
100
AcDbLine
 10
103.2472228208
 20
68.4135420418
 30
0.0
 11
103.2472228208
 21
68.4048817877
 31
0.0
  0
LINE
  5
AA
330
1F
100
AcDbEntity
  8
0
  6
Continuous
 62
     7
370
    25
100
AcDbLine
 10
102.1536716844
 20
68.393248265
 30
0.0
 11
99.7106319117
 21
68.0209755377
 31
0.0
  0
LWPOLYLINE
  5
AB
330
1F
100
AcDbEntity
  8
0
  6
Continuous
 62
     7
370
    25
100
AcDbPolyline
 90
       12
 70
   128
 43
0.0
 10
103.2472228208
 20
67.2647965605
 10
103.0835600032
 20
67.3486486022
 10
102.947680804
 20
67.4441041163
 10
102.8428281297
 20
67.548884952
 10
102.7715044046
 20
67.6604903996
 10
102.7354118477
 20
67.7762568723
 10
102.7354118477
 20
67.893421476
 10
102.7715044046
 20
68.0091879487
 10
102.8428281297
 20
68.1207933962
 10
102.947680804
 20
68.2255742319
 10
103.0835600032
 20
68.321029746
 10
103.2472228208
 20
68.4048817877
  0
LINE
  5
AC
330
1F
100
AcDbEntity
  8
0
  6
Continuous
 62
     7
370
    25
100
AcDbLine
 10
102.1420381617
 20
66.985592015
 30
0.0
 11
103.2472228208
 21
67.2647965605
 31
0.0
  0
LWPOLYLINE
  5
AD
330
1F
100
AcDbEntity
  8
0
  6
Continuous
 62
     7
370
    25
100
AcDbPolyline
 90
        9
 70
   128
 43
0.0
 10
102.1536716844
 20
67.2764300832
 10
102.2095598321
 20
67.2459834579
 10
102.2509643155
 20
67.2102163578
 10
102.2759274441
 20
67.1708199264
 10
102.283268909
 20
67.1296569093
 10
102.2726415902
 20
67.0886735799
 10
102.2445479698
 20
67.049807716
 10
102.2003163728
 20
67.0148969768
 10
102.1420381617
 20
66.985592015
  0
LINE
  5
AE
330
1F
100
AcDbEntity
  8
0
  6
Continuous
 62
     7
370
    25
100
AcDbLine
 10
99.7106319117
 20
67.6487028105
 30
0.0
 11
102.1536716844
 21
67.2764300832
 31
0.0
  0
LWPOLYLINE
  5
AF
330
1F
100
AcDbEntity
  8
0
  6
Continuous
 62
     7
370
    25
100
AcDbPolyline
 90
        9
 70
   128
 43
0.0
 10
99.7106319117
 20
68.0209755377
 10
99.6090508312
 20
67.9906301468
 10
99.5294966944
 20
67.9468316702
 10
99.4788392743
 20
67.8933622568
 10
99.4614530132
 20
67.8348391741
 10
99.4788392743
 20
67.7763160914
 10
99.5294966944
 20
67.722846678
 10
99.6090508312
 20
67.6790482014
 10
99.7106319117
 20
67.6487028105
  0
LINE
  5
B0
330
1F
100
AcDbEntity
  8
0
  6
Continuous
 62
     7
370
    25
100
AcDbLine
 10
100.9641439855
 20
67.8348391741
 30
0.0
 11
101.7115978208
 21
67.7209414468
 31
0.0
  0
LINE
  5
B1
330
1F
100
AcDbEntity
  8
0
  6
Continuous
 62
     7
370
    25
100
AcDbLine
 10
101.7115978208
 20
67.7209414468
 30
0.0
 11
101.7115978208
 21
67.9487369014
 31
0.0
  0
LINE
  5
B2
330
1F
100
AcDbEntity
  8
0
  6
Continuous
 62
     7
370
    25
100
AcDbLine
 10
101.7115978208
 20
67.9487369014
 30
0.0
 11
100.9641439855
 21
67.8348391741
 31
0.0
  0
LINE
  5
B3
330
1F
100
AcDbEntity
  8
0
  6
Continuous
 62
     7
370
    25
100
AcDbLine
 10
103.2472228208
 20
67.2734568145
 30
0.0
 11
103.2472228208
 21
67.2647965605
 31
0.0
  0
LINE
  5
B4
330
1F
100
AcDbEntity
  8
0
  6
Continuous
 62
     7
370
    25
100
AcDbLine
 10
99.7106319117
 20
68.0296357918
 30
0.0
 11
99.7106319117
 21
68.0209755377
 31
0.0
  0
LINE
  5
B5
330
1F
100
AcDbEntity
  8
0
  6
Continuous
 62
     7
370
    25
100
AcDbLine
 10
100.9925604441
 20
67.8391693011
 30
0.0
 11
101.7115978208
 21
67.7296017009
 31
0.0
  0
LINE
  5
B6
330
1F
100
AcDbEntity
  8
0
  6
Continuous
 62
     7
370
    25
100
AcDbLine
 10
102.1420381617
 20
66.9942522691
 30
0.0
 11
102.1420381617
 21
66.985592015
 31
0.0
  0
LINE
  5
B7
330
1F
100
AcDbEntity
  8
0
  6
Continuous
 62
     7
370
     0
100
AcDbLine
 10
82.4041926498
 20
86.7012520277
 30
0.0
 11
95.3970515971
 21
87.1072788698
 31
0.0
  0
LINE
  5
B8
330
1F
100
AcDbEntity
  8
0
  6
Continuous
 62
     7
370
     0
100
AcDbLine
 10
82.4041926498
 20
68.0383057119
 30
0.0
 11
95.3970515971
 21
67.6322788698
 31
0.0
  0
LINE
  5
B9
330
1F
100
AcDbEntity
  8
0
  6
Continuous
 62
     7
370
     0
100
AcDbLine
 10
95.3970515971
 20
66.7097788698
 30
0.0
 11
95.3970515971
 21
88.0297788698
 31
0.0
  0
LINE
  5
BA
330
1F
100
AcDbEntity
  8
0
  6
Continuous
 62
     7
370
     0
100
AcDbLine
 10
120.3899105443
 20
68.0383057119
 30
0.0
 11
107.3970515971
 21
67.6322788698
 31
0.0
  0
LINE
  5
BB
330
1F
100
AcDbEntity
  8
0
  6
Continuous
 62
     7
370
     0
100
AcDbLine
 10
120.3899105443
 20
86.7012520277
 30
0.0
 11
107.3970515971
 21
87.1072788698
 31
0.0
  0
LINE
  5
BC
330
1F
100
AcDbEntity
  8
0
  6
Continuous
 62
     7
370
     0
100
AcDbLine
 10
107.3970515971
 20
88.0297788698
 30
0.0
 11
107.3970515971
 21
66.7097788698
 31
0.0
  0
LINE
  5
BD
330
1F
100
AcDbEntity
  8
0
  6
Continuous
 62
     7
370
    25
100
AcDbLine
 10
106.7527140298
 20
112.6832923833
 30
0.0
 11
106.8970515971
 21
112.9332923833
 31
0.0
  0
LINE
  5
BE
330
1F
100
AcDbEntity
  8
0
  6
Continuous
 62
     7
370
    25
100
AcDbLine
 10
106.8970515971
 20
134.4332923833
 30
0.0
 11
106.7527140298
 21
134.6832923833
 31
0.0
  0
LINE
  5
BF
330
1F
100
AcDbEntity
  8
0
  6
Continuous
 62
     7
370
    25
100
AcDbLine
 10
96.0413891643
 20
134.6832923833
 30
0.0
 11
95.8970515971
 21
134.4332923833
 31
0.0
  0
LINE
  5
C0
330
1F
100
AcDbEntity
  8
0
  6
Continuous
 62
     7
370
    25
100
AcDbLine
 10
95.8970515971
 20
112.9332923833
 30
0.0
 11
96.0413891643
 21
112.6832923833
 31
0.0
  0
LINE
  5
C1
330
1F
100
AcDbEntity
  8
0
  6
Continuous
 62
     7
370
    25
100
AcDbLine
 10
106.8970515971
 20
113.0076673833
 30
0.0
 11
118.7006603241
 21
113.376530156
 31
0.0
  0
LINE
  5
C2
330
1F
100
AcDbEntity
  8
0
  6
Continuous
 62
     7
370
    25
100
AcDbLine
 10
118.7006603241
 20
133.9900546106
 30
0.0
 11
106.8970515971
 21
134.3589173833
 31
0.0
  0
LINE
  5
C3
330
1F
100
AcDbEntity
  8
0
  6
Continuous
 62
     7
370
    25
100
AcDbLine
 10
95.8970515971
 20
134.3589173833
 30
0.0
 11
84.09344287
 21
133.9900546106
 31
0.0
  0
LINE
  5
C4
330
1F
100
AcDbEntity
  8
0
  6
Continuous
 62
     7
370
    25
100
AcDbLine
 10
84.09344287
 20
113.376530156
 30
0.0
 11
95.8970515971
 21
113.0076673833
 31
0.0
  0
LINE
  5
C5
330
1F
100
AcDbEntity
  8
0
  6
Continuous
 62
     7
370
    25
100
AcDbLine
 10
84.09344287
 20
133.9900546106
 30
0.0
 11
81.3970515971
 21
132.4332923833
 31
0.0
  0
LINE
  5
C6
330
1F
100
AcDbEntity
  8
0
  6
Continuous
 62
     7
370
    25
100
AcDbLine
 10
81.3970515971
 20
114.9332923833
 30
0.0
 11
84.09344287
 21
113.376530156
 31
0.0
  0
LINE
  5
C7
330
1F
100
AcDbEntity
  8
0
  6
Continuous
 62
     7
370
    25
100
AcDbLine
 10
118.7006603241
 20
113.376530156
 30
0.0
 11
121.3970515971
 21
114.9332923833
 31
0.0
  0
LINE
  5
C8
330
1F
100
AcDbEntity
  8
0
  6
Continuous
 62
     7
370
    25
100
AcDbLine
 10
121.3970515971
 20
132.4332923833
 30
0.0
 11
118.7006603241
 21
133.9900546106
 31
0.0
  0
SPLINE
  5
C9
330
1F
100
AcDbEntity
  8
0
  6
Continuous
 62
     7
370
    25
100
AcDbSpline
210
0.0
220
0.0
230
1.0
 70
     8
 71
     3
 72
    16
 73
    12
 74
     0
 42
0.000000001
 43
0.00000001
 40
0.0
 40
0.0
 40
0.0
 40
0.0
 40
0.2500000000000001
 40
0.2500000000000001
 40
0.4999999999999999
 40
0.4999999999999999
 40
0.6249999999999999
 40
0.6249999999999999
 40
0.75
 40
0.75
 40
1.0
 40
1.0
 40
1.0
 40
1.0
 10
105.770233657507
 20
112.6832923832924
 30
0.0
 10
106.06958221569
 20
113.5813380578414
 30
0.0
 10
106.3162996425516
 20
114.48593115875
 30
0.0
 10
106.6580833749079
 20
116.3139830874583
 30
0.0
 10
106.7520222832928
 20
117.2375821658923
 30
0.0
 10
106.7530541047723
 20
118.6403817272295
 30
0.0
 10
106.730089697916
 20
119.1101820711746
 30
0.0
 10
106.6405405716304
 20
120.0394966555817
 30
0.0
 10
106.5740467375629
 20
120.5010383026047
 30
0.0
 10
106.3172834407491
 20
121.877446128655
 30
0.0
 10
106.0699553817286
 20
122.7841272106269
 30
0.0
 10
105.7702336575069
 20
123.6832923832924
 30
0.0
  0
SPLINE
  5
CA
330
1F
100
AcDbEntity
  8
0
  6
Continuous
 62
     7
370
    25
100
AcDbSpline
210
0.0
220
0.0
230
1.0
 70
     8
 71
     3
 72
    16
 73
    12
 74
     0
 42
0.000000001
 43
0.00000001
 40
0.0
 40
0.0
 40
0.0
 40
0.0
 40
0.2499999999999998
 40
0.2499999999999998
 40
0.4999999999999996
 40
0.4999999999999996
 40
0.6249999999999997
 40
0.6249999999999997
 40
0.7499999999999998
 40
0.7499999999999998
 40
1.0
 40
1.0
 40
1.0
 40
1.0
 10
105.770233657507
 20
123.6832923832923
 30
0.0
 10
106.06958221569
 20
124.5813380578414
 30
0.0
 10
106.3162996425516
 20
125.4859311587499
 30
0.0
 10
106.6580833749079
 20
127.3139830874582
 30
0.0
 10
106.7520222832928
 20
128.2375821658923
 30
0.0
 10
106.7530541047724
 20
129.6403817272295
 30
0.0
 10
106.730089697916
 20
130.1101820711746
 30
0.0
 10
106.6405405716304
 20
131.0394966555817
 30
0.0
 10
106.5740467375629
 20
131.5010383026047
 30
0.0
 10
106.3172834407491
 20
132.877446128655
 30
0.0
 10
106.0699553817287
 20
133.7841272106269
 30
0.0
 10
105.7702336575069
 20
134.6832923832924
 30
0.0
  0
SPLINE
  5
CB
330
1F
100
AcDbEntity
  8
0
  6
Continuous
 62
     7
370
    25
100
AcDbSpline
210
0.0
220
0.0
230
1.0
 70
    24
 71
     3
 72
    12
 73
     8
 74
     0
 42
0.000000001
 43
0.00000001
 40
0.0
 40
0.0
 40
0.0
 40
0.0
 40
0.1886308035488279
 40
0.3775987308846515
 40
0.5678824008442227
 40
0.7587623354341805
 40
1.0
 40
1.0
 40
1.0
 40
1.0
 10
105.7702336575067
 20
134.6832923832924
 30
0.0
 10
105.8785217469647
 20
134.6832923832924
 30
0.0
 10
106.0952914599703
 20
134.6832923832924
 30
0.0
 10
106.3589130211205
 20
134.6832923832924
 30
0.0
 10
106.564193964713
 20
134.6832923832923
 30
0.0
 10
106.7193516765707
 20
134.6832923832923
 30
0.0
 10
106.7392409878977
 20
134.6832923832923
 30
0.0
 10
106.7503445648493
 20
134.6832923832923
 30
0.0
  0
SPLINE
  5
CC
330
1F
100
AcDbEntity
  8
0
  6
Continuous
 62
     7
370
    25
100
AcDbSpline
210
0.0
220
0.0
230
1.0
 70
    24
 71
     3
 72
    13
 73
     9
 74
     0
 42
0.000000001
 43
0.00000001
 40
0.0
 40
0.0
 40
0.0
 40
0.0
 40
0.1119439796415356
 40
0.2412631871226533
 40
0.429611634054764
 40
0.6185802015238572
 40
0.8090967219329729
 40
1.0
 40
1.0
 40
1.0
 40
1.0
 10
106.7505891800565
 20
112.6832923832923
 30
0.0
 10
106.7487854351
 20
112.6832923832923
 30
0.0
 10
106.7448979794427
 20
112.6832923832923
 30
0.0
 10
106.6870680953025
 20
112.6832923832923
 30
0.0
 10
106.5673400184194
 20
112.6832923832924
 30
0.0
 10
106.3621446045354
 20
112.6832923832924
 30
0.0
 10
106.098752183989
 20
112.6832923832924
 30
0.0
 10
105.8798138337771
 20
112.6832923832924
 30
0.0
 10
105.7702336575067
 20
112.6832923832924
 30
0.0
  0
LINE
  5
CD
330
1F
100
AcDbEntity
  8
0
  6
Continuous
 62
     7
370
    25
100
AcDbLine
 10
106.8970515971
 20
112.9332923833
 30
0.0
 11
106.8970515971
 21
134.4332923833
 31
0.0
  0
SPLINE
  5
CE
330
1F
100
AcDbEntity
  8
0
  6
Continuous
 62
     7
370
    25
100
AcDbSpline
210
0.0
220
0.0
230
1.0
 70
     8
 71
     3
 72
    16
 73
    12
 74
     0
 42
0.000000001
 43
0.00000001
 40
0.0
 40
0.0
 40
0.0
 40
0.0
 40
0.2499999999999998
 40
0.2499999999999998
 40
0.4999999999999996
 40
0.4999999999999996
 40
0.6249999999999997
 40
0.6249999999999997
 40
0.7499999999999998
 40
0.7499999999999998
 40
1.0
 40
1.0
 40
1.0
 40
1.0
 10
97.02386953659607
 20
123.6832923832923
 30
0.0
 10
96.72452097841305
 20
124.5813380578414
 30
0.0
 10
96.47780355155147
 20
125.4859311587499
 30
0.0
 10
96.13601981919518
 20
127.3139830874582
 30
0.0
 10
96.04208091081023
 20
128.2375821658923
 30
0.0
 10
96.04104908933071
 20
129.6403817272295
 30
0.0
 10
96.06401349618706
 20
130.1101820711746
 30
0.0
 10
96.15356262247265
 20
131.0394966555817
 30
0.0
 10
96.2200564565402
 20
131.5010383026047
 30
0.0
 10
96.476819753354
 20
132.877446128655
 30
0.0
 10
96.72414781237441
 20
133.7841272106269
 30
0.0
 10
97.02386953659622
 20
134.6832923832924
 30
0.0
  0
LINE
  5
CF
330
1F
100
AcDbEntity
  8
0
  6
Continuous
 62
     7
370
    25
100
AcDbLine
 10
97.0238695366
 20
134.6832923833
 30
0.0
 11
105.7702336575
 21
134.6832923833
 31
0.0
  0
LINE
  5
D0
330
1F
100
AcDbEntity
  8
0
  6
Continuous
 62
     7
370
    25
100
AcDbLine
 10
97.0238695366
 20
123.6832923833
 30
0.0
 11
105.7702336575
 21
123.6832923833
 31
0.0
  0
SPLINE
  5
D1
330
1F
100
AcDbEntity
  8
0
  6
Continuous
 62
     7
370
    25
100
AcDbSpline
210
0.0
220
0.0
230
1.0
 70
    24
 71
     3
 72
    13
 73
     9
 74
     0
 42
0.000000001
 43
0.00000001
 40
0.0
 40
0.0
 40
0.0
 40
0.0
 40
0.1119439796415356
 40
0.2412631871226533
 40
0.429611634054764
 40
0.6185802015238572
 40
0.8090967219329729
 40
1.0
 40
1.0
 40
1.0
 40
1.0
 10
96.0435140140466
 20
112.6832923832923
 30
0.0
 10
96.04531775900308
 20
112.6832923832923
 30
0.0
 10
96.0492052146604
 20
112.6832923832923
 30
0.0
 10
96.10703509880058
 20
112.6832923832923
 30
0.0
 10
96.22676317568364
 20
112.6832923832924
 30
0.0
 10
96.43195858956767
 20
112.6832923832924
 30
0.0
 10
96.69535101011411
 20
112.6832923832924
 30
0.0
 10
96.914289360326
 20
112.6832923832924
 30
0.0
 10
97.0238695365964
 20
112.6832923832924
 30
0.0
  0
SPLINE
  5
D2
330
1F
100
AcDbEntity
  8
0
  6
Continuous
 62
     7
370
    25
100
AcDbSpline
210
0.0
220
0.0
230
1.0
 70
    24
 71
     3
 72
    12
 73
     8
 74
     0
 42
0.000000001
 43
0.00000001
 40
0.0
 40
0.0
 40
0.0
 40
0.0
 40
0.1886308035488279
 40
0.3775987308846515
 40
0.5678824008442227
 40
0.7587623354341805
 40
1.0
 40
1.0
 40
1.0
 40
1.0
 10
97.0238695365964
 20
134.6832923832924
 30
0.0
 10
96.91558144713832
 20
134.6832923832924
 30
0.0
 10
96.69881173413275
 20
134.6832923832924
 30
0.0
 10
96.43519017298252
 20
134.6832923832924
 30
0.0
 10
96.22990922939003
 20
134.6832923832923
 30
0.0
 10
96.07475151753233
 20
134.6832923832923
 30
0.0
 10
96.05486220620536
 20
134.6832923832923
 30
0.0
 10
96.04375862925382
 20
134.6832923832923
 30
0.0
  0
SPLINE
  5
D3
330
1F
100
AcDbEntity
  8
0
  6
Continuous
 62
     7
370
    25
100
AcDbSpline
210
0.0
220
0.0
230
1.0
 70
     8
 71
     3
 72
    16
 73
    12
 74
     0
 42
0.000000001
 43
0.00000001
 40
0.0
 40
0.0
 40
0.0
 40
0.0
 40
0.2500000000000001
 40
0.2500000000000001
 40
0.4999999999999999
 40
0.4999999999999999
 40
0.6249999999999999
 40
0.6249999999999999
 40
0.75
 40
0.75
 40
1.0
 40
1.0
 40
1.0
 40
1.0
 10
97.02386953659607
 20
112.6832923832924
 30
0.0
 10
96.72452097841305
 20
113.5813380578414
 30
0.0
 10
96.47780355155149
 20
114.48593115875
 30
0.0
 10
96.13601981919521
 20
116.3139830874583
 30
0.0
 10
96.04208091081024
 20
117.2375821658923
 30
0.0
 10
96.04104908933073
 20
118.6403817272295
 30
0.0
 10
96.06401349618709
 20
119.1101820711746
 30
0.0
 10
96.15356262247266
 20
120.0394966555817
 30
0.0
 10
96.22005645654022
 20
120.5010383026047
 30
0.0
 10
96.47681975335401
 20
121.877446128655
 30
0.0
 10
96.72414781237443
 20
122.7841272106269
 30
0.0
 10
97.02386953659622
 20
123.6832923832924
 30
0.0
  0
LINE
  5
D4
330
1F
100
AcDbEntity
  8
0
  6
Continuous
 62
     7
370
    25
100
AcDbLine
 10
95.8970515971
 20
112.9332923833
 30
0.0
 11
95.8970515971
 21
134.4332923833
 31
0.0
  0
LINE
  5
D5
330
1F
100
AcDbEntity
  8
0
  6
Continuous
 62
     7
370
    25
100
AcDbLine
 10
97.0238695366
 20
112.6832923833
 30
0.0
 11
105.7702336575
 21
112.6832923833
 31
0.0
  0
LINE
  5
D6
330
1F
100
AcDbEntity
  8
0
  6
Continuous
 62
     7
370
    25
100
AcDbLine
 10
118.7006603241
 20
113.376530156
 30
0.0
 11
118.7006603241
 21
133.9900546106
 31
0.0
  0
LINE
  5
D7
330
1F
100
AcDbEntity
  8
0
  6
Continuous
 62
     7
370
    25
100
AcDbLine
 10
84.09344287
 20
113.376530156
 30
0.0
 11
84.09344287
 21
133.9900546106
 31
0.0
  0
LINE
  5
D8
330
1F
100
AcDbEntity
  8
0
  6
Continuous
 62
     7
370
    25
100
AcDbLine
 10
81.3970515971
 20
114.9332923833
 30
0.0
 11
81.3970515971
 21
132.4332923833
 31
0.0
  0
LINE
  5
D9
330
1F
100
AcDbEntity
  8
0
  6
Continuous
 62
     7
370
    25
100
AcDbLine
 10
121.3970515971
 20
114.9332923833
 30
0.0
 11
121.3970515971
 21
132.4332923833
 31
0.0
  0
LINE
  5
DA
330
1F
100
AcDbEntity
  8
0
  6
Continuous
 62
     7
370
    25
100
AcDbLine
 10
105.0064220773
 20
134.6932923833
 30
0.0
 11
105.0064220773
 21
134.6832923833
 31
0.0
  0
LINE
  5
DB
330
1F
100
AcDbEntity
  8
0
  6
Continuous
 62
     7
370
    25
100
AcDbLine
 10
105.0064220773
 20
134.6932923833
 30
0.0
 11
102.8464220773
 21
134.6932923833
 31
0.0
  0
LINE
  5
DC
330
1F
100
AcDbEntity
  8
0
  6
Continuous
 62
     7
370
    25
100
AcDbLine
 10
102.8464220773
 20
134.6932923833
 30
0.0
 11
102.8464220773
 21
134.6832923833
 31
0.0
  0
LINE
  5
DD
330
1F
100
AcDbEntity
  8
0
  6
Continuous
 62
     7
370
    25
100
AcDbLine
 10
105.0064220773
 20
112.6832923833
 30
0.0
 11
105.0064220773
 21
112.6732923833
 31
0.0
  0
LINE
  5
DE
330
1F
100
AcDbEntity
  8
0
  6
Continuous
 62
     7
370
    25
100
AcDbLine
 10
105.0064220773
 20
112.6732923833
 30
0.0
 11
102.8464220773
 21
112.6732923833
 31
0.0
  0
LINE
  5
DF
330
1F
100
AcDbEntity
  8
0
  6
Continuous
 62
     7
370
    25
100
AcDbLine
 10
102.8464220773
 20
112.6832923833
 30
0.0
 11
102.8464220773
 21
112.6732923833
 31
0.0
  0
LINE
  5
E0
330
1F
100
AcDbEntity
  8
0
  6
Continuous
 62
     7
370
    25
100
AcDbLine
 10
98.5264220773
 20
134.6932923833
 30
0.0
 11
98.5264220773
 21
134.6832923833
 31
0.0
  0
LINE
  5
E1
330
1F
100
AcDbEntity
  8
0
  6
Continuous
 62
     7
370
    25
100
AcDbLine
 10
102.8464220773
 20
134.6932923833
 30
0.0
 11
98.5264220773
 21
134.6932923833
 31
0.0
  0
LINE
  5
E2
330
1F
100
AcDbEntity
  8
0
  6
Continuous
 62
     7
370
    25
100
AcDbLine
 10
98.5264220773
 20
112.6832923833
 30
0.0
 11
98.5264220773
 21
112.6732923833
 31
0.0
  0
LINE
  5
E3
330
1F
100
AcDbEntity
  8
0
  6
Continuous
 62
     7
370
    25
100
AcDbLine
 10
102.8464220773
 20
112.6732923833
 30
0.0
 11
98.5264220773
 21
112.6732923833
 31
0.0
  0
LINE
  5
E4
330
1F
100
AcDbEntity
  8
0
  6
Continuous
 62
     7
370
     0
100
AcDbLine
 10
82.4041926498
 20
133.0147655412
 30
0.0
 11
95.3970515971
 21
133.4207923833
 31
0.0
  0
LINE
  5
E5
330
1F
100
AcDbEntity
  8
0
  6
Continuous
 62
     7
370
     0
100
AcDbLine
 10
82.4041926498
 20
114.3518192254
 30
0.0
 11
95.3970515971
 21
113.9457923833
 31
0.0
  0
LINE
  5
E6
330
1F
100
AcDbEntity
  8
0
  6
Continuous
 62
     7
370
     0
100
AcDbLine
 10
95.3970515971
 20
113.0232923833
 30
0.0
 11
95.3970515971
 21
134.3432923833
 31
0.0
  0
LINE
  5
E7
330
1F
100
AcDbEntity
  8
0
  6
Continuous
 62
     7
370
     0
100
AcDbLine
 10
120.3899105443
 20
114.3518192254
 30
0.0
 11
107.3970515971
 21
113.9457923833
 31
0.0
  0
LINE
  5
E8
330
1F
100
AcDbEntity
  8
0
  6
Continuous
 62
     7
370
     0
100
AcDbLine
 10
120.3899105443
 20
133.0147655412
 30
0.0
 11
107.3970515971
 21
133.4207923833
 31
0.0
  0
LINE
  5
E9
330
1F
100
AcDbEntity
  8
0
  6
Continuous
 62
     7
370
     0
100
AcDbLine
 10
107.3970515971
 20
134.3432923833
 30
0.0
 11
107.3970515971
 21
113.0232923833
 31
0.0
  0
LINE
  5
EA
330
1F
100
AcDbEntity
  8
0
  6
Continuous
 62
     7
370
    25
100
AcDbLine
 10
153.9956283369
 20
70.3258934345
 30
0.0
 11
154.0772755523
 21
72.2849885486
 31
0.0
  0
ARC
  5
EB
330
1F
100
AcDbEntity
  8
0
  6
Continuous
 62
     7
370
    25
100
AcDbCircle
 10
155.725844484
 20
72.2162828172
 30
0.0
 40
1.650000000000016
100
AcDbArc
 50
37.2721081024
 51
177.6135230873
  0
ARC
  5
EC
330
1F
100
AcDbEntity
  8
0
  6
Continuous
 62
     7
370
    25
100
AcDbCircle
 10
158.0236256958
 20
73.9649559578
 30
0.0
 40
1.237500000000002
100
AcDbArc
 50
217.2721081024
 51
325.336513458
  0
ARC
  5
ED
330
1F
100
AcDbEntity
  8
0
  6
Continuous
 62
     7
370
    25
100
AcDbCircle
 10
154.0942654703
 20
76.6820708767
 30
0.0
 40
6.014798950680452
100
AcDbArc
 50
325.336513458
 51
183.0138203878
  0
ARC
  5
EE
330
1F
100
AcDbEntity
  8
0
  6
Continuous
 62
     7
370
    25
100
AcDbCircle
 10
149.3235740893
 20
76.430895616
 30
0.0
 40
1.237500000000019
100
AcDbArc
 50
183.0138203878
 51
291.0782257434
  0
ARC
  5
EF
330
1F
100
AcDbEntity
  8
0
  6
Continuous
 62
     7
370
    25
100
AcDbCircle
 10
150.362041027
 20
73.7365974385
 30
0.0
 40
1.650000000000016
100
AcDbArc
 50
330.7368107585
 51
111.0782257434
  0
LINE
  5
F0
330
1F
100
AcDbEntity
  8
0
  6
Continuous
 62
     7
370
    25
100
AcDbLine
 10
151.801473811
 20
72.9300410175
 30
0.0
 11
150.8429935719
 21
71.2194751563
 31
0.0
  0
CIRCLE
  5
F1
330
1F
100
AcDbEntity
  8
0
  6
Continuous
 62
     7
370
    25
100
AcDbCircle
 10
150.362041027
 20
73.7365974385
 30
0.0
 40
0.8499999999999944
  0
CIRCLE
  5
F2
330
1F
100
AcDbEntity
  8
0
  6
Continuous
 62
     7
370
    25
100
AcDbCircle
 10
155.725844484
 20
72.2162828172
 30
0.0
 40
0.8500000000000255
  0
CIRCLE
  5
F3
330
1F
100
AcDbEntity
  8
0
  6
Continuous
 62
     7
370
    25
100
AcDbCircle
 10
154.2891891892
 20
77.3697788698
 30
0.0
 40
1.799999999999997
  0
ARC
  5
F4
330
1F
100
AcDbEntity
  8
0
  6
Continuous
 62
     7
370
    25
100
AcDbCircle
 10
151.9766891892
 20
81.3751463623
 30
0.0
 40
1.500000000000009
100
AcDbArc
 50
175.5806777872
 51
52.9903446435
  0
CIRCLE
  5
F5
330
1F
100
AcDbEntity
  8
0
  6
Continuous
 62
     7
370
    25
100
AcDbCircle
 10
149.6641891892
 20
77.3697788698
 30
0.0
 40
1.5
  0
LWPOLYLINE
  5
F6
330
1F
100
AcDbEntity
  8
0
  6
Continuous
 62
     7
370
    25
100
AcDbPolyline
 90
        3
 70
   128
 43
0.0
 10
151.9766891892
 20
74.8644113773
 10
151.7420374916
 20
74.8459438882
 10
151.6079343348
 20
74.8183783155
  0
ARC
  5
F7
330
1F
100
AcDbEntity
  8
0
  6
Continuous
 62
     7
370
    25
100
AcDbCircle
 10
151.9766891892
 20
73.3644113773
 30
0.0
 40
1.500000000000015
100
AcDbArc
 50
136.2929615314
 51
197.7464473008
  0
ARC
  5
F8
330
1F
100
AcDbEntity
  8
0
  6
Continuous
 62
     7
370
    25
100
AcDbCircle
 10
151.9766891892
 20
73.3644113773
 30
0.0
 40
1.5
100
AcDbArc
 50
243.0091769823
 51
90.0
  0
ARC
  5
F9
330
1F
100
AcDbEntity
  8
0
  6
Continuous
 62
     7
370
    25
100
AcDbCircle
 10
156.6016891892
 20
73.3644113773
 30
0.0
 40
1.500000000000014
100
AcDbArc
 50
90.0
 51
164.5185705148
  0
ARC
  5
FA
330
1F
100
AcDbEntity
  8
0
  6
Continuous
 62
     7
370
    25
100
AcDbCircle
 10
156.6016891892
 20
73.3644113773
 30
0.0
 40
1.499999999999983
100
AcDbArc
 50
199.1683138923
 51
266.1556137746
  0
ARC
  5
FB
330
1F
100
AcDbEntity
  8
0
  6
Continuous
 62
     7
370
    25
100
AcDbCircle
 10
156.6016891892
 20
73.3644113773
 30
0.0
 40
1.500000000000014
100
AcDbArc
 50
334.9402899995
 51
90.0
  0
ARC
  5
FC
330
1F
100
AcDbEntity
  8
0
  6
Continuous
 62
     7
370
    25
100
AcDbCircle
 10
158.9141891892
 20
77.3697788698
 30
0.0
 40
1.5
100
AcDbArc
 50
90.0
 51
322.540859484
  0
ARC
  5
FD
330
1F
100
AcDbEntity
  8
0
  6
Continuous
 62
     7
370
    25
100
AcDbCircle
 10
158.9141891892
 20
77.3697788698
 30
0.0
 40
1.5
100
AcDbArc
 50
53.6994813875
 51
90.0
  0
ARC
  5
FE
330
1F
100
AcDbEntity
  8
0
  6
Continuous
 62
     7
370
    25
100
AcDbCircle
 10
156.6016891892
 20
81.3751463623
 30
0.0
 40
1.50000000000001
100
AcDbArc
 50
131.2878496805
 51
352.4826133107
  0
ARC
  5
FF
330
1F
100
AcDbEntity
  8
0
  6
Continuous
 62
     7
370
    25
100
AcDbCircle
 10
154.2891891892
 20
77.3697788698
 30
0.0
 40
6.875000000000005
100
AcDbArc
 50
240.7368107585
 51
267.6135230873
  0
LINE
  5
100
330
1F
100
AcDbEntity
  8
0
  6
Continuous
 62
     7
370
    25
100
AcDbLine
 10
150.5797312953
 20
72.9149460848
 30
0.0
 11
150.5341191817
 21
72.9533252872
 31
0.0
  0
ARC
  5
101
330
1F
100
AcDbEntity
  8
0
  6
Continuous
 62
     7
370
    25
100
AcDbCircle
 10
154.2891891892
 20
77.3697788698
 30
0.0
 40
5.797034846243773
100
AcDbArc
 50
169.6272966338
 51
190.3727033662
  0
ARC
  5
102
330
1F
100
AcDbEntity
  8
0
  6
Continuous
 62
     7
370
    25
100
AcDbCircle
 10
154.2891891892
 20
77.3697788698
 30
0.0
 40
5.797034846243785
100
AcDbArc
 50
349.6272966338
 51
358.5769950914
  0
LWPOLYLINE
  5
103
330
1F
100
AcDbEntity
  8
0
  6
Continuous
 62
     7
370
    25
100
AcDbPolyline
 90
        3
 70
   128
 43
0.0
 10
158.0442591967
 20
72.9533252872
 10
158.0236631301
 20
72.9358959899
 10
157.7905572497
 20
72.7496019561
  0
LWPOLYLINE
  5
104
330
1F
100
AcDbEntity
  8
0
  6
Continuous
 62
     7
370
    25
100
AcDbPolyline
 90
        3
 70
   128
 43
0.0
 10
156.5561522663
 20
72.0343790333
 10
156.4707398047
 20
71.9988897515
 10
156.2364151826
 20
71.909566059
  0
ARC
  5
105
330
1F
100
AcDbEntity
  8
0
  6
Continuous
 62
     7
370
    25
100
AcDbCircle
 10
154.2891891892
 20
77.3697788698
 30
0.0
 40
5.797034846243801
100
AcDbArc
 50
240.7368107585
 51
250.3727033662
  0
ARC
  5
106
330
1F
100
AcDbEntity
  8
0
  6
Continuous
 62
     7
370
    25
100
AcDbCircle
 10
154.2891891892
 20
77.3697788698
 30
0.0
 40
5.900000000000005
100
AcDbArc
 50
171.3248212122
 51
188.6751787878
  0
LINE
  5
107
330
1F
100
AcDbEntity
  8
0
  6
Continuous
 62
     7
370
    25
100
AcDbLine
 10
157.9761257743
 20
72.7636418096
 30
0.0
 11
157.9345469945
 21
72.7306661884
 31
0.0
  0
LWPOLYLINE
  5
108
330
1F
100
AcDbEntity
  8
0
  6
Continuous
 62
     7
370
    25
100
AcDbPolyline
 90
        3
 70
   128
 43
0.0
 10
156.5174804705
 20
71.9067469308
 10
156.5094878372
 20
71.9034936674
 10
156.4347526041
 20
71.8737295948
  0
ARC
  5
109
330
1F
100
AcDbEntity
  8
0
  6
Continuous
 62
     7
370
    25
100
AcDbCircle
 10
154.2891891892
 20
77.3697788698
 30
0.0
 40
5.9
100
AcDbArc
 50
240.7368107585
 51
248.6751787878
  0
CIRCLE
  5
10A
330
1F
100
AcDbEntity
  8
0
  6
Continuous
 62
     7
370
    25
100
AcDbCircle
 10
154.2891891892
 20
77.3697788698
 30
0.0
 40
1.450000000000008
  0
CIRCLE
  5
10B
330
1F
100
AcDbEntity
  8
0
  6
Continuous
 62
     7
370
    25
100
AcDbCircle
 10
154.2891891892
 20
77.3697788698
 30
0.0
 40
1.700000000000008
  0
ARC
  5
10C
330
1F
100
AcDbEntity
  8
0
  6
Continuous
 62
     7
370
    25
100
AcDbCircle
 10
154.2891891892
 20
77.3697788698
 30
0.0
 40
5.700000000000002
100
AcDbArc
 50
288.3059084992
 51
293.62044973
  0
ARC
  5
10D
330
1F
100
AcDbEntity
  8
0
  6
Continuous
 62
     7
370
    25
100
AcDbCircle
 10
154.2891891892
 20
77.3697788698
 30
0.0
 40
5.700000000000006
100
AcDbArc
 50
306.3598793085
 51
311.6940915008
  0
ARC
  5
10E
330
1F
100
AcDbEntity
  8
0
  6
Continuous
 62
     7
370
    25
100
AcDbCircle
 10
154.2891891892
 20
77.3697788698
 30
0.0
 40
5.7
100
AcDbArc
 50
348.3059084992
 51
7.1210589462
  0
ARC
  5
10F
330
1F
100
AcDbEntity
  8
0
  6
Continuous
 62
     7
370
    25
100
AcDbCircle
 10
154.2891891892
 20
77.3697788698
 30
0.0
 40
5.700000000000031
100
AcDbArc
 50
168.3059084992
 51
191.6940915008
  0
LWPOLYLINE
  5
110
330
1F
100
AcDbEntity
  8
0
  6
Continuous
 62
     7
370
    25
100
AcDbPolyline
 90
        3
 70
   128
 43
0.0
 10
150.4978150616
 20
73.1135502311
 10
150.5762369483
 20
73.0449683933
 10
150.6879112915
 20
72.9515442106
  0
ARC
  5
111
330
1F
100
AcDbEntity
  8
0
  6
Continuous
 62
     7
370
    25
100
AcDbCircle
 10
154.2891891892
 20
77.3697788698
 30
0.0
 40
5.699999999999991
100
AcDbArc
 50
240.7368107585
 51
251.6940915008
  0
CIRCLE
  5
112
330
1F
100
AcDbEntity
  8
0
  6
Continuous
 62
     7
370
    25
100
AcDbCircle
 10
154.2891891892
 20
77.3697788698
 30
0.0
 40
10.30676222727976
  0
CIRCLE
  5
113
330
1F
100
AcDbEntity
  8
0
  6
Continuous
 62
     7
370
    25
100
AcDbCircle
 10
154.2891891892
 20
77.3697788698
 30
0.0
 40
8.75
  0
CIRCLE
  5
114
330
1F
100
AcDbEntity
  8
0
  6
Continuous
 62
     7
370
    25
100
AcDbCircle
 10
154.2891891892
 20
77.3697788698
 30
0.0
 40
7.050000000000011
  0
CIRCLE
  5
115
330
1F
100
AcDbEntity
  8
0
  6
Continuous
 62
     7
370
    25
100
AcDbCircle
 10
154.2891891892
 20
77.3697788698
 30
0.0
 40
10.675625
  0
CIRCLE
  5
116
330
1F
100
AcDbEntity
  8
0
  6
Continuous
 62
     7
370
    25
100
AcDbCircle
 10
154.2891891892
 20
77.3697788698
 30
0.0
 40
10.75
  0
SPLINE
  5
117
330
1F
100
AcDbEntity
  8
0
  6
Continuous
 62
     7
370
    25
100
AcDbSpline
210
0.0
220
0.0
230
1.0
 70
    24
 71
     3
 72
    16
 73
    12
 74
     0
 42
0.000000001
 43
0.00000001
 40
0.0
 40
0.0
 40
0.0
 40
0.0
 40
0.2500000000000001
 40
0.2500000000000001
 40
0.4999999999999999
 40
0.4999999999999999
 40
0.6249999999999999
 40
0.6249999999999999
 40
0.75
 40
0.75
 40
1.0
 40
1.0
 40
1.0
 40
1.0
 10
143.2891891891892
 20
83.72063183086483
 30
0.0
 10
144.1872348637382
 20
84.2391187428103
 30
0.0
 10
145.0918279646468
 20
84.76138581312692
 30
0.0
 10
146.9198798933551
 20
85.81681208625925
 30
0.0
 10
147.8434789717891
 20
86.35005226281645
 30
0.0
 10
149.2462785331263
 20
87.15995896717355
 30
0.0
 10
149.7160788770714
 20
87.43119832221564
 30
0.0
 10
150.6453934614785
 20
87.96773834768489
 30
0.0
 10
151.1069351085015
 20
88.23420954183584
 30
0.0
 10
152.4833429345517
 20
89.02887897072065
 30
0.0
 10
153.3900240165237
 20
89.55235153746631
 30
0.0
 10
154.2891891891892
 20
90.07148479195062
 30
0.0
  0
SPLINE
  5
118
330
1F
100
AcDbEntity
  8
0
  6
Continuous
 62
     7
370
    25
100
AcDbSpline
210
0.0
220
0.0
230
1.0
 70
    24
 71
     3
 72
    16
 73
    12
 74
     0
 42
0.000000001
 43
0.00000001
 40
0.0
 40
0.0
 40
0.0
 40
0.0
 40
0.2499999999999998
 40
0.2499999999999998
 40
0.4999999999999996
 40
0.4999999999999996
 40
0.6249999999999997
 40
0.6249999999999997
 40
0.7499999999999998
 40
0.7499999999999998
 40
1.0
 40
1.0
 40
1.0
 40
1.0
 10
154.2891891891891
 20
90.07148479195062
 30
0.0
 10
155.1872348637382
 20
89.55299788000515
 30
0.0
 10
156.0918279646467
 20
89.0307308096885
 30
0.0
 10
157.919879893355
 20
87.97530453655615
 30
0.0
 10
158.8434789717891
 20
87.44206435999895
 30
0.0
 10
160.2462785331263
 20
86.63215765564182
 30
0.0
 10
160.7160788770714
 20
86.36091830059974
 30
0.0
 10
161.6453934614785
 20
85.82437827513047
 30
0.0
 10
162.1069351085015
 20
85.55790708097952
 30
0.0
 10
163.4833429345518
 20
84.76323765209467
 30
0.0
 10
164.3900240165237
 20
84.239765085349
 30
0.0
 10
165.2891891891892
 20
83.72063183086469
 30
0.0
  0
SPLINE
  5
119
330
1F
100
AcDbEntity
  8
0
  6
Continuous
 62
     7
370
    25
100
AcDbSpline
210
0.0
220
0.0
230
1.0
 70
    24
 71
     3
 72
    16
 73
    12
 74
     0
 42
0.000000001
 43
0.00000001
 40
0.0
 40
0.0
 40
0.0
 40
0.0
 40
0.25
 40
0.25
 40
0.5000000000000001
 40
0.5000000000000001
 40
0.6250000000000001
 40
0.6250000000000001
 40
0.7500000000000001
 40
0.7500000000000001
 40
1.0
 40
1.0
 40
1.0
 40
1.0
 10
165.2891891891891
 20
71.01892590869288
 30
0.0
 10
165.2891891891891
 20
72.05309286195148
 30
0.0
 10
165.2891891891891
 20
73.11100011767846
 30
0.0
 10
165.2891891891891
 20
75.23093543643085
 30
0.0
 10
165.2891891891891
 20
76.29757107486681
 30
0.0
 10
165.2891891891891
 20
77.90929595146095
 30
0.0
 10
165.2891891891891
 20
78.44906170420353
 30
0.0
 10
165.2891891891891
 20
79.53001437257521
 30
0.0
 10
165.2891891891891
 20
80.06473159084905
 30
0.0
 10
165.2891891891891
 20
81.65403894962243
 30
0.0
 10
165.2891891891891
 20
82.69388777760292
 30
0.0
 10
165.2891891891891
 20
83.7206318308647
 30
0.0
  0
SPLINE
  5
11A
330
1F
100
AcDbEntity
  8
0
  6
Continuous
 62
     7
370
    25
100
AcDbSpline
210
0.0
220
0.0
230
1.0
 70
    24
 71
     3
 72
    16
 73
    12
 74
     0
 42
0.000000001
 43
0.00000001
 40
0.0
 40
0.0
 40
0.0
 40
0.0
 40
0.25
 40
0.25
 40
0.5
 40
0.5
 40
0.625
 40
0.625
 40
0.75
 40
0.75
 40
1.0
 40
1.0
 40
1.0
 40
1.0
 10
165.2891891891891
 20
71.0189259086929
 30
0.0
 10
164.3911435146401
 20
70.50043899674743
 30
0.0
 10
163.4865504137315
 20
69.9781719264308
 30
0.0
 10
161.6584984850232
 20
68.92274565329846
 30
0.0
 10
160.7348994065891
 20
68.38950547674126
 30
0.0
 10
159.3320998452519
 20
67.57959877238414
 30
0.0
 10
158.8622995013068
 20
67.30835941734206
 30
0.0
 10
157.9329849168997
 20
66.7718193918728
 30
0.0
 10
157.4714432698767
 20
66.50534819772186
 30
0.0
 10
156.0950354438264
 20
65.71067876883701
 30
0.0
 10
155.1883543618545
 20
65.18720620209137
 30
0.0
 10
154.289189189189
 20
64.66807294760704
 30
0.0
  0
SPLINE
  5
11B
330
1F
100
AcDbEntity
  8
0
  6
Continuous
 62
     7
370
    25
100
AcDbSpline
210
0.0
220
0.0
230
1.0
 70
    24
 71
     3
 72
    16
 73
    12
 74
     0
 42
0.000000001
 43
0.00000001
 40
0.0
 40
0.0
 40
0.0
 40
0.0
 40
0.2500000000000002
 40
0.2500000000000002
 40
0.5000000000000004
 40
0.5000000000000004
 40
0.6250000000000003
 40
0.6250000000000003
 40
0.7500000000000002
 40
0.7500000000000002
 40
1.0
 40
1.0
 40
1.0
 40
1.0
 10
154.2891891891891
 20
64.66807294760704
 30
0.0
 10
153.39114351464
 20
65.18655985955252
 30
0.0
 10
152.4865504137315
 20
65.70882692986916
 30
0.0
 10
150.6584984850232
 20
66.76425320300154
 30
0.0
 10
149.7348994065891
 20
67.29749337955874
 30
0.0
 10
148.3320998452519
 20
68.10740008391589
 30
0.0
 10
147.8622995013068
 20
68.37863943895798
 30
0.0
 10
146.9329849168997
 20
68.91517946442724
 30
0.0
 10
146.4714432698767
 20
69.1816506585782
 30
0.0
 10
145.0950354438264
 20
69.97632008746305
 30
0.0
 10
144.1883543618545
 20
70.49979265420872
 30
0.0
 10
143.289189189189
 20
71.01892590869306
 30
0.0
  0
SPLINE
  5
11C
330
1F
100
AcDbEntity
  8
0
  6
Continuous
 62
     7
370
    25
100
AcDbSpline
210
0.0
220
0.0
230
1.0
 70
    24
 71
     3
 72
    16
 73
    12
 74
     0
 42
0.000000001
 43
0.00000001
 40
0.0
 40
0.0
 40
0.0
 40
0.0
 40
0.2500000000000001
 40
0.2500000000000001
 40
0.5000000000000001
 40
0.5000000000000001
 40
0.625
 40
0.625
 40
0.75
 40
0.75
 40
1.0
 40
1.0
 40
1.0
 40
1.0
 10
143.2891891891891
 20
71.01892590869303
 30
0.0
 10
143.2891891891891
 20
72.05309286195164
 30
0.0
 10
143.2891891891891
 20
73.11100011767861
 30
0.0
 10
143.2891891891891
 20
75.230935436431
 30
0.0
 10
143.2891891891891
 20
76.29757107486697
 30
0.0
 10
143.2891891891892
 20
77.90929595146109
 30
0.0
 10
143.2891891891892
 20
78.44906170420369
 30
0.0
 10
143.2891891891892
 20
79.53001437257534
 30
0.0
 10
143.2891891891892
 20
80.0647315908492
 30
0.0
 10
143.2891891891892
 20
81.65403894962259
 30
0.0
 10
143.2891891891892
 20
82.69388777760305
 30
0.0
 10
143.2891891891892
 20
83.72063183086483
 30
0.0
  0
ENDSEC
  0
SECTION
  2
OBJECTS
  0
DICTIONARY
  5
C
330
0
100
AcDbDictionary
281
     1
  3
ACAD_GROUP
350
D
  3
ACAD_LAYOUT
350
1A
  3
ACAD_MLINESTYLE
350
17
  3
ACAD_PLOTSETTINGS
350
19
  3
ACAD_PLOTSTYLENAME
350
E
  3
ACAD_SCALELIST
350
47
  0
DICTIONARY
  5
D
102
{ACAD_REACTORS
330
C
102
}
330
C
100
AcDbDictionary
281
     1
  0
DICTIONARY
  5
1A
102
{ACAD_REACTORS
330
C
102
}
330
C
100
AcDbDictionary
281
     1
  3
Layout1
350
1E
  3
Layout2
350
26
  3
Model
350
22
  0
DICTIONARY
  5
17
102
{ACAD_REACTORS
330
C
102
}
330
C
100
AcDbDictionary
281
     1
  3
Standard
350
18
  0
DICTIONARY
  5
19
102
{ACAD_REACTORS
330
C
102
}
330
C
100
AcDbDictionary
281
     1
  0
ACDBDICTIONARYWDFLT
  5
E
102
{ACAD_REACTORS
330
C
102
}
330
C
100
AcDbDictionary
281
     1
  3
Normal
350
F
100
AcDbDictionaryWithDefault
340
F
  0
DICTIONARY
  5
47
102
{ACAD_REACTORS
330
C
102
}
330
C
100
AcDbDictionary
281
     1
  3
A0
350
48
  3
A1
350
49
  3
A2
350
4A
  3
A3
350
4B
  3
A4
350
4C
  3
A5
350
4D
  3
A6
350
4E
  3
A7
350
4F
  3
A8
350
50
  3
A9
350
51
  3
B0
350
52
  3
B1
350
53
  3
B2
350
54
  3
B3
350
55
  3
B4
350
56
  3
B5
350
57
  3
B6
350
58
  3
B7
350
59
  3
B8
350
5A
  3
B9
350
5B
  3
C0
350
5C
  3
C1
350
5D
  3
C2
350
5E
  3
C3
350
5F
  3
C4
350
60
  3
C5
350
61
  3
C6
350
62
  3
C7
350
63
  3
C8
350
64
  3
C9
350
65
  3
D0
350
66
  3
D1
350
67
  3
D2
350
68
  0
LAYOUT
  5
1E
102
{ACAD_REACTORS
330
1A
102
}
330
1A
100
AcDbPlotSettings
  1

  2
none_device
  4

  6

 40
0.0
 41
0.0
 42
0.0
 43
0.0
 44
0.0
 45
0.0
 46
0.0
 47
0.0
 48
0.0
 49
0.0
140
0.0
141
0.0
142
1.0
143
1.0
 70
   688
 72
     1
 73
     0
 74
     5
  7

 75
    16
147
1.0
148
0.0
149
0.0
100
AcDbLayout
  1
Layout1
 70
     1
 71
     1
 10
0.0
 20
0.0
 11
420.0
 21
297.0
 12
0.0
 22
0.0
 32
0.0
 14
1.0000000000E+20
 24
1.0000000000E+20
 34
1.0000000000E+20
 15
-1.0000000000E+20
 25
-1.0000000000E+20
 35
-1.0000000000E+20
146
0.0
 13
0.0
 23
0.0
 33
0.0
 16
1.0
 26
0.0
 36
0.0
 17
0.0
 27
1.0
 37
0.0
 76
     0
330
1B
  0
LAYOUT
  5
26
102
{ACAD_REACTORS
330
1A
102
}
330
1A
100
AcDbPlotSettings
  1

  2
none_device
  4

  6

 40
0.0
 41
0.0
 42
0.0
 43
0.0
 44
0.0
 45
0.0
 46
0.0
 47
0.0
 48
0.0
 49
0.0
140
0.0
141
0.0
142
1.0
143
1.0
 70
   688
 72
     1
 73
     0
 74
     5
  7

 75
    16
147
1.0
148
0.0
149
0.0
100
AcDbLayout
  1
Layout2
 70
     1
 71
     2
 10
0.0
 20
0.0
 11
0.0
 21
0.0
 12
0.0
 22
0.0
 32
0.0
 14
0.0
 24
0.0
 34
0.0
 15
0.0
 25
0.0
 35
0.0
146
0.0
 13
0.0
 23
0.0
 33
0.0
 16
1.0
 26
0.0
 36
0.0
 17
0.0
 27
1.0
 37
0.0
 76
     0
330
23
  0
LAYOUT
  5
22
102
{ACAD_REACTORS
330
1A
102
}
330
1A
100
AcDbPlotSettings
  1

  2
none_device
  4
Letter_(8.50_x_11.00_Inches)
  6

 40
6.35
 41
6.35
 42
6.35000508
 43
6.35000508
 44
215.9
 45
279.4
 46
0.0
 47
0.0
 48
0.0
 49
0.0
140
0.0
141
0.0
142
1.0
143
1.0
 70
  1712
 72
     1
 73
     0
 74
     0
  7

 75
     0
147
1.0
148
0.0
149
0.0
100
AcDbLayout
  1
Model
 70
     1
 71
     0
 10
0.0
 20
0.0
 11
297.0
 21
210.0
 12
0.0
 22
0.0
 32
0.0
 14
0.0
 24
0.0
 34
0.0
 15
297.0
 25
210.0
 35
0.0
146
0.0
 13
0.0
 23
0.0
 33
0.0
 16
1.0
 26
0.0
 36
0.0
 17
0.0
 27
1.0
 37
0.0
 76
     0
330
1F
331
29
  0
MLINESTYLE
  5
18
102
{ACAD_REACTORS
330
17
102
}
330
17
100
AcDbMlineStyle
  2
Standard
 70
     0
  3

 62
   256
 51
90.0
 52
90.0
 71
     2
 49
0.5
 62
   256
  6
BYLAYER
 49
-0.5
 62
   256
  6
BYLAYER
  0
ACDBPLACEHOLDER
  5
F
102
{ACAD_REACTORS
330
E
102
}
330
E
  0
SCALE
  5
48
102
{ACAD_REACTORS
330
47
102
}
330
47
100
AcDbScale
 70
     0
300
1:1
140
1.0
141
1.0
290
     1
  0
SCALE
  5
49
102
{ACAD_REACTORS
330
47
102
}
330
47
100
AcDbScale
 70
     0
300
1:2
140
1.0
141
2.0
290
     0
  0
SCALE
  5
4A
102
{ACAD_REACTORS
330
47
102
}
330
47
100
AcDbScale
 70
     0
300
1:4
140
1.0
141
4.0
290
     0
  0
SCALE
  5
4B
102
{ACAD_REACTORS
330
47
102
}
330
47
100
AcDbScale
 70
     0
300
1:5
140
1.0
141
5.0
290
     0
  0
SCALE
  5
4C
102
{ACAD_REACTORS
330
47
102
}
330
47
100
AcDbScale
 70
     0
300
1:8
140
1.0
141
8.0
290
     0
  0
SCALE
  5
4D
102
{ACAD_REACTORS
330
47
102
}
330
47
100
AcDbScale
 70
     0
300
1:10
140
1.0
141
10.0
290
     0
  0
SCALE
  5
4E
102
{ACAD_REACTORS
330
47
102
}
330
47
100
AcDbScale
 70
     0
300
1:16
140
1.0
141
16.0
290
     0
  0
SCALE
  5
4F
102
{ACAD_REACTORS
330
47
102
}
330
47
100
AcDbScale
 70
     0
300
1:20
140
1.0
141
20.0
290
     0
  0
SCALE
  5
50
102
{ACAD_REACTORS
330
47
102
}
330
47
100
AcDbScale
 70
     0
300
1:30
140
1.0
141
30.0
290
     0
  0
SCALE
  5
51
102
{ACAD_REACTORS
330
47
102
}
330
47
100
AcDbScale
 70
     0
300
1:40
140
1.0
141
40.0
290
     0
  0
SCALE
  5
52
102
{ACAD_REACTORS
330
47
102
}
330
47
100
AcDbScale
 70
     0
300
1:50
140
1.0
141
50.0
290
     0
  0
SCALE
  5
53
102
{ACAD_REACTORS
330
47
102
}
330
47
100
AcDbScale
 70
     0
300
1:100
140
1.0
141
100.0
290
     0
  0
SCALE
  5
54
102
{ACAD_REACTORS
330
47
102
}
330
47
100
AcDbScale
 70
     0
300
2:1
140
2.0
141
1.0
290
     0
  0
SCALE
  5
55
102
{ACAD_REACTORS
330
47
102
}
330
47
100
AcDbScale
 70
     0
300
4:1
140
4.0
141
1.0
290
     0
  0
SCALE
  5
56
102
{ACAD_REACTORS
330
47
102
}
330
47
100
AcDbScale
 70
     0
300
8:1
140
8.0
141
1.0
290
     0
  0
SCALE
  5
57
102
{ACAD_REACTORS
330
47
102
}
330
47
100
AcDbScale
 70
     0
300
10:1
140
10.0
141
1.0
290
     0
  0
SCALE
  5
58
102
{ACAD_REACTORS
330
47
102
}
330
47
100
AcDbScale
 70
     0
300
100:1
140
100.0
141
1.0
290
     0
  0
SCALE
  5
59
102
{ACAD_REACTORS
330
47
102
}
330
47
100
AcDbScale
 70
     0
300
1/128" = 1'-0"
140
0.0078125
141
12.0
290
     0
  0
SCALE
  5
5A
102
{ACAD_REACTORS
330
47
102
}
330
47
100
AcDbScale
 70
     0
300
1/64" = 1'-0"
140
0.015625
141
12.0
290
     0
  0
SCALE
  5
5B
102
{ACAD_REACTORS
330
47
102
}
330
47
100
AcDbScale
 70
     0
300
1/32" = 1'-0"
140
0.03125
141
12.0
290
     0
  0
SCALE
  5
5C
102
{ACAD_REACTORS
330
47
102
}
330
47
100
AcDbScale
 70
     0
300
1/16" = 1'-0"
140
0.0625
141
12.0
290
     0
  0
SCALE
  5
5D
102
{ACAD_REACTORS
330
47
102
}
330
47
100
AcDbScale
 70
     0
300
3/32" = 1'-0"
140
0.09375
141
12.0
290
     0
  0
SCALE
  5
5E
102
{ACAD_REACTORS
330
47
102
}
330
47
100
AcDbScale
 70
     0
300
1/8" = 1'-0"
140
0.125
141
12.0
290
     0
  0
SCALE
  5
5F
102
{ACAD_REACTORS
330
47
102
}
330
47
100
AcDbScale
 70
     0
300
3/16" = 1'-0"
140
0.1875
141
12.0
290
     0
  0
SCALE
  5
60
102
{ACAD_REACTORS
330
47
102
}
330
47
100
AcDbScale
 70
     0
300
1/4" = 1'-0"
140
0.25
141
12.0
290
     0
  0
SCALE
  5
61
102
{ACAD_REACTORS
330
47
102
}
330
47
100
AcDbScale
 70
     0
300
3/8" = 1'-0"
140
0.375
141
12.0
290
     0
  0
SCALE
  5
62
102
{ACAD_REACTORS
330
47
102
}
330
47
100
AcDbScale
 70
     0
300
1/2" = 1'-0"
140
0.5
141
12.0
290
     0
  0
SCALE
  5
63
102
{ACAD_REACTORS
330
47
102
}
330
47
100
AcDbScale
 70
     0
300
3/4" = 1'-0"
140
0.75
141
12.0
290
     0
  0
SCALE
  5
64
102
{ACAD_REACTORS
330
47
102
}
330
47
100
AcDbScale
 70
     0
300
1" = 1'-0"
140
1.0
141
12.0
290
     0
  0
SCALE
  5
65
102
{ACAD_REACTORS
330
47
102
}
330
47
100
AcDbScale
 70
     0
300
1-1/2" = 1'-0"
140
1.5
141
12.0
290
     0
  0
SCALE
  5
66
102
{ACAD_REACTORS
330
47
102
}
330
47
100
AcDbScale
 70
     0
300
3" = 1'-0"
140
3.0
141
12.0
290
     0
  0
SCALE
  5
67
102
{ACAD_REACTORS
330
47
102
}
330
47
100
AcDbScale
 70
     0
300
6" = 1'-0"
140
6.0
141
12.0
290
     0
  0
SCALE
  5
68
102
{ACAD_REACTORS
330
47
102
}
330
47
100
AcDbScale
 70
     0
300
1'-0" = 1'-0"
140
12.0
141
12.0
290
     0
  0
ENDSEC
  0
EOF
