  0
SECTION
  2
HEADER
  9
$ACADVER
  1
AC1015
  9
$ACADMAINTVER
 70
     6
  9
$DWGCODEPAGE
  3
DOS932
  9
$INSBASE
 10
0.0
 20
0.0
 30
0.0
  9
$EXTMIN
 10
0.0
 20
0.0
 30
0.0
  9
$EXTMAX
 10
148.5
 20
105.0
 30
0.0
  9
$LIMMIN
 10
0.0
 20
0.0
  9
$LIMMAX
 10
148.5
 20
105.0
  9
$ORTHOMODE
 70
     0
  9
$REGENMODE
 70
     1
  9
$FILLMODE
 70
     1
  9
$QTEXTMODE
 70
     0
  9
$MIRRTEXT
 70
     1
  9
$LTSCALE
 40
0.5
  9
$ATTMODE
 70
     1
  9
$TEXTSIZE
 40
1.75
  9
$TRACEWID
 40
1.0
  9
$TEXTSTYLE
  7
Standard
  9
$CLAYER
  8
0
  9
$CELTYPE
  6
ByLayer
  9
$CECOLOR
 62
   256
  9
$CELTSCALE
 40
1.0
  9
$DISPSILH
 70
     0
  9
$DIMSCALE
 40
1.0
  9
$DIMASZ
 40
1.778
  9
$DIMEXO
 40
0.5
  9
$DIMDLI
 40
3.75
  9
$DIMRND
 40
0.0
  9
$DIMDLE
 40
0.0
  9
$DIMEXE
 40
0.5
  9
$DIMTP
 40
0.0
  9
$DIMTM
 40
0.0
  9
$DIMTXT
 40
1.75
  9
$DIMCEN
 40
2.5
  9
$DIMTSZ
 40
0.0
  9
$DIMTOL
 70
     0
  9
$DIMLIM
 70
     0
  9
$DIMTIH
 70
     1
  9
$DIMTOH
 70
     1
  9
$DIMSE1
 70
     0
  9
$DIMSE2
 70
     0
  9
$DIMTAD
 70
     1
  9
$DIMZIN
 70
     1
  9
$DIMBLK
  1

  9
$DIMASO
 70
     1
  9
$DIMSHO
 70
     1
  9
$DIMPOST
  1

  9
$DIMAPOST
  1

  9
$DIMALT
 70
     0
  9
$DIMALTD
 70
     3
  9
$DIMALTF
 40
0.0393700787
  9
$DIMLFAC
 40
1.0
  9
$DIMTOFL
 70
     1
  9
$DIMTVP
 40
0.0
  9
$DIMTIX
 70
     0
  9
$DIMSOXD
 70
     0
  9
$DIMSAH
 70
     0
  9
$DIMBLK1
  1

  9
$DIMBLK2
  1

  9
$DIMSTYLE
  2
ISO-25
  9
$DIMCLRD
 70
     0
  9
$DIMCLRE
 70
     0
  9
$DIMCLRT
 70
     0
  9
$DIMTFAC
 40
1.0
  9
$DIMGAP
 40
0.762
  9
$DIMJUST
 70
     0
  9
$DIMSD1
 70
     0
  9
$DIMSD2
 70
     0
  9
$DIMTOLJ
 70
     0
  9
$DIMTZIN
 70
     1
  9
$DIMALTZ
 70
     0
  9
$DIMALTTZ
 70
     0
  9
$DIMUPT
 70
     0
  9
$DIMDEC
 70
     2
  9
$DIMTDEC
 70
     2
  9
$DIMALTU
 70
     2
  9
$DIMALTTD
 70
     3
  9
$DIMTXSTY
  7
Standard
  9
$DIMAUNIT
 70
     0
  9
$DIMADEC
 70
     2
  9
$DIMALTRND
 40
0.0
  9
$DIMAZIN
 70
     0
  9
$DIMDSEP
 70
    44
  9
$DIMATFIT
 70
     3
  9
$DIMFRAC
 70
     0
  9
$DIMLDRBLK
  1

  9
$DIMLUNIT
 70
     2
  9
$DIMLWD
 70
    -2
  9
$DIMLWE
 70
    -2
  9
$DIMTMOVE
 70
     0
  9
$LUNITS
 70
     2
  9
$LUPREC
 70
     2
  9
$SKETCHINC
 40
1.0
  9
$FILLETRAD
 40
10.0
  9
$AUNITS
 70
     0
  9
$AUPREC
 70
     2
  9
$MENU
  1
.
  9
$ELEVATION
 40
0.0
  9
$PELEVATION
 40
0.0
  9
$THICKNESS
 40
0.0
  9
$LIMCHECK
 70
     0
  9
$CHAMFERA
 40
0.0
  9
$CHAMFERB
 40
0.0
  9
$CHAMFERC
 40
0.0
  9
$CHAMFERD
 40
0.0
  9
$SKPOLY
 70
     0
  9
$TDCREATE
 40
2459241.626920718
  9
$TDUCREATE
 40
2459241.251920718
  9
$TDUPDATE
 40
2459241.626921215
  9
$TDUUPDATE
 40
2459241.251921215
  9
$TDINDWG
 40
0.0000000116
  9
$TDUSRTIMER
 40
0.0000000116
  9
$USRTIMER
 70
     1
  9
$ANGBASE
 50
0.0
  9
$ANGDIR
 70
     0
  9
$PDMODE
 70
     0
  9
$PDSIZE
 40
-1.0
  9
$PLINEWID
 40
0.0
  9
$SPLFRAME
 70
     0
  9
$SPLINETYPE
 70
     6
  9
$SPLINESEGS
 70
     8
  9
$HANDSEED
  5
13B
  9
$SURFTAB1
 70
     6
  9
$SURFTAB2
 70
     6
  9
$SURFTYPE
 70
     6
  9
$SURFU
 70
     6
  9
$SURFV
 70
     6
  9
$UCSBASE
  2

  9
$UCSNAME
  2

  9
$UCSORG
 10
0.0
 20
0.0
 30
0.0
  9
$UCSXDIR
 10
1.0
 20
0.0
 30
0.0
  9
$UCSYDIR
 10
0.0
 20
1.0
 30
0.0
  9
$UCSORTHOREF
  2

  9
$UCSORTHOVIEW
 70
     0
  9
$UCSORGTOP
 10
0.0
 20
0.0
 30
0.0
  9
$UCSORGBOTTOM
 10
0.0
 20
0.0
 30
0.0
  9
$UCSORGLEFT
 10
0.0
 20
0.0
 30
0.0
  9
$UCSORGRIGHT
 10
0.0
 20
0.0
 30
0.0
  9
$UCSORGFRONT
 10
0.0
 20
0.0
 30
0.0
  9
$UCSORGBACK
 10
0.0
 20
0.0
 30
0.0
  9
$PUCSBASE
  2

  9
$PUCSNAME
  2

  9
$PUCSORG
 10
0.0
 20
0.0
 30
0.0
  9
$PUCSXDIR
 10
1.0
 20
0.0
 30
0.0
  9
$PUCSYDIR
 10
0.0
 20
1.0
 30
0.0
  9
$PUCSORTHOREF
  2

  9
$PUCSORTHOVIEW
 70
     0
  9
$PUCSORGTOP
 10
0.0
 20
0.0
 30
0.0
  9
$PUCSORGBOTTOM
 10
0.0
 20
0.0
 30
0.0
  9
$PUCSORGLEFT
 10
0.0
 20
0.0
 30
0.0
  9
$PUCSORGRIGHT
 10
0.0
 20
0.0
 30
0.0
  9
$PUCSORGFRONT
 10
0.0
 20
0.0
 30
0.0
  9
$PUCSORGBACK
 10
0.0
 20
0.0
 30
0.0
  9
$USERI1
 70
     0
  9
$USERI2
 70
     0
  9
$USERI3
 70
     0
  9
$USERI4
 70
     0
  9
$USERI5
 70
     0
  9
$USERR1
 40
0.0
  9
$USERR2
 40
0.0
  9
$USERR3
 40
0.0
  9
$USERR4
 40
0.0
  9
$USERR5
 40
0.0
  9
$WORLDVIEW
 70
     1
  9
$SHADEDGE
 70
     3
  9
$SHADEDIF
 70
    70
  9
$TILEMODE
 70
     1
  9
$MAXACTVP
 70
    64
  9
$PINSBASE
 10
0.0
 20
0.0
 30
0.0
  9
$PLIMCHECK
 70
     0
  9
$PEXTMIN
 10
1.0000000000E+20
 20
1.0000000000E+20
 30
1.0000000000E+20
  9
$PEXTMAX
 10
-1.0000000000E+20
 20
-1.0000000000E+20
 30
-1.0000000000E+20
  9
$PLIMMIN
 10
0.0
 20
0.0
  9
$PLIMMAX
 10
420.0
 20
297.0
  9
$UNITMODE
 70
     0
  9
$VISRETAIN
 70
     1
  9
$PLINEGEN
 70
     0
  9
$PSLTSCALE
 70
     1
  9
$TREEDEPTH
 70
  3020
  9
$CMLSTYLE
  2
Standard
  9
$CMLJUST
 70
     0
  9
$CMLSCALE
 40
20.0
  9
$PROXYGRAPHICS
 70
     1
  9
$MEASUREMENT
 70
     1
  9
$CELWEIGHT
370
    -1
  9
$ENDCAPS
280
     0
  9
$JOINSTYLE
280
     0
  9
$LWDISPLAY
290
     1
  9
$INSUNITS
 70
     4
  9
$HYPERLINKBASE
  1

  9
$STYLESHEET
  1

  9
$XEDIT
290
     1
  9
$CEPSNTYPE
380
     0
  9
$PSTYLEMODE
290
     1
  9
$FINGERPRINTGUID
  2
{849DE52B-ADDE-42A3-BC9C-A4846B7A8A4D}
  9
$VERSIONGUID
  2
{FAEB1C32-E019-11D5-929B-00C0DF256EC4}
  9
$EXTNAMES
290
     1
  9
$PSVPSCALE
 40
0.0
  9
$OLESTARTUP
290
     0
  0
ENDSEC
  0
SECTION
  2
CLASSES
  0
CLASS
  1
ACDBDICTIONARYWDFLT
  2
AcDbDictionaryWithDefault
  3
ObjectDBX Classes
 90
        0
280
     0
281
     0
  0
CLASS
  1
VISUALSTYLE
  2
AcDbVisualStyle
  3
ObjectDBX Classes
 90
     4095
280
     0
281
     0
  0
CLASS
  1
MATERIAL
  2
AcDbMaterial
  3
ObjectDBX Classes
 90
     1153
280
     0
281
     0
  0
CLASS
  1
SCALE
  2
AcDbScale
  3
ObjectDBX Classes
 90
     1153
280
     0
281
     0
  0
CLASS
  1
TABLESTYLE
  2
AcDbTableStyle
  3
ObjectDBX Classes
 90
     4095
280
     0
281
     0
  0
CLASS
  1
MLEADERSTYLE
  2
AcDbMLeaderStyle
  3
ACDB_MLEADERSTYLE_CLASS
 90
     4095
280
     0
281
     0
  0
CLASS
  1
SUN
  2
AcDbSun
  3
SCENEOE
 90
     1153
280
     0
281
     0
  0
CLASS
  1
ACDBPLACEHOLDER
  2
AcDbPlaceHolder
  3
ObjectDBX Classes
 90
        0
280
     0
281
     0
  0
CLASS
  1
LAYOUT
  2
AcDbLayout
  3
ObjectDBX Classes
 90
        0
280
     0
281
     0
  0
ENDSEC
  0
SECTION
  2
TABLES
  0
TABLE
  2
VPORT
  5
8
330
0
100
AcDbSymbolTable
 70
     1
  0
VPORT
  5
29
330
8
100
AcDbSymbolTableRecord
100
AcDbViewportTableRecord
  2
*Active
 70
     0
 10
0.0
 20
0.0
 11
1.0
 21
1.0
 12
74.25
 22
52.5
 13
0.0
 23
0.0
 14
10.0
 24
10.0
 15
10.0
 25
10.0
 16
0.0
 26
0.0
 36
1.0
 17
0.0
 27
0.0
 37
0.0
 40
105.0
 41
1.4142857143
 42
50.0
 43
0.0
 44
0.0
 50
0.0
 51
0.0
 71
     0
 72
  2000
 73
     1
 74
     3
 75
     0
 76
     0
 77
     0
 78
     0
281
     0
 65
     1
110
0.0
120
0.0
130
0.0
111
1.0
121
0.0
131
0.0
112
0.0
122
1.0
132
0.0
 79
     0
146
0.0
  0
ENDTAB
  0
TABLE
  2
LTYPE
  5
5
330
0
100
AcDbSymbolTable
 70
     6
  0
LTYPE
  5
14
330
5
100
AcDbSymbolTableRecord
100
AcDbLinetypeTableRecord
  2
ByBlock
 70
     0
  3

 72
    65
 73
     0
 40
0.0
  0
LTYPE
  5
15
330
5
100
AcDbSymbolTableRecord
100
AcDbLinetypeTableRecord
  2
ByLayer
 70
     0
  3

 72
    65
 73
     0
 40
0.0
  0
LTYPE
  5
16
330
5
100
AcDbSymbolTableRecord
100
AcDbLinetypeTableRecord
  2
Continuous
 70
     0
  3
Solid line
 72
    65
 73
     0
 40
0.0
  0
LTYPE
  5
6E
330
5
100
AcDbSymbolTableRecord
100
AcDbLinetypeTableRecord
  2
HIDDEN
 70
     0
  3
Hidden __ __ __ __ __ __ __ __ __ __ __ __ __ __
 72
    65
 73
     2
 40
1.905
 49
1.27
 74
     0
 49
-0.635
 74
     0
  0
LTYPE
  5
6F
330
5
100
AcDbSymbolTableRecord
100
AcDbLinetypeTableRecord
  2
PHANTOM
 70
     0
  3
Phantom ______  __  __  ______  __  __  ______
 72
    65
 73
     6
 40
12.7
 49
6.35
 74
     0
 49
-1.27
 74
     0
 49
1.27
 74
     0
 49
-1.27
 74
     0
 49
1.27
 74
     0
 49
-1.27
 74
     0
  0
LTYPE
  5
70
330
5
100
AcDbSymbolTableRecord
100
AcDbLinetypeTableRecord
  2
CENTER
 70
     0
  3
Center ____ _ ____ _ ____ _ ____ _ ____ _ ____
 72
    65
 73
     4
 40
10.16
 49
6.35
 74
     0
 49
-1.27
 74
     0
 49
1.27
 74
     0
 49
-1.27
 74
     0
  0
LTYPE
  5
71
330
5
100
AcDbSymbolTableRecord
100
AcDbLinetypeTableRecord
  2
CENTERX2
 70
     0
  3
Center (2x) ________  __  ________  __  _____
 72
    65
 73
     4
 40
20.32
 49
12.7
 74
     0
 49
-2.54
 74
     0
 49
2.54
 74
     0
 49
-2.54
 74
     0
  0
LTYPE
  5
72
330
5
100
AcDbSymbolTableRecord
100
AcDbLinetypeTableRecord
  2
DOT2
 70
     0
  3
Dot (.5x) ........................................
 72
    65
 73
     2
 40
0.635
 49
0.0
 74
     0
 49
-0.635
 74
     0
  0
ENDTAB
  0
TABLE
  2
LAYER
  5
2
330
0
100
AcDbSymbolTable
 70
     1
  0
LAYER
  5
10
330
2
100
AcDbSymbolTableRecord
100
AcDbLayerTableRecord
  2
0
 70
     0
 62
     7
  6
Continuous
370
    -3
390
F
  0
ENDTAB
  0
TABLE
  2
STYLE
  5
3
330
0
100
AcDbSymbolTable
 70
     2
  0
STYLE
  5
11
330
3
100
AcDbSymbolTableRecord
100
AcDbTextStyleTableRecord
  2
Standard
 70
     0
 40
0.0
 41
1.0
 50
0.0
 71
     0
 42
1.75
  3
txt
  4
bigfont
  0
STYLE
  5
73
330
3
100
AcDbSymbolTableRecord
100
AcDbTextStyleTableRecord
  2
SLDTEXTSTYLE0
 70
     0
 40
0.0
 41
0.75
 50
0.0
 71
     0
 42
1.75
  3
TXT
  4
bigfont
  0
ENDTAB
  0
TABLE
  2
VIEW
  5
6
330
0
100
AcDbSymbolTable
 70
     0
  0
ENDTAB
  0
TABLE
  2
UCS
  5
7
330
0
100
AcDbSymbolTable
 70
     0
  0
ENDTAB
  0
TABLE
  2
APPID
  5
9
330
0
100
AcDbSymbolTable
 70
     1
  0
APPID
  5
12
330
9
100
AcDbSymbolTableRecord
100
AcDbRegAppTableRecord
  2
ACAD
 70
     0
  0
ENDTAB
  0
TABLE
  2
DIMSTYLE
  5
A
330
0
100
AcDbSymbolTable
 70
     1
100
AcDbDimStyleTable
  0
DIMSTYLE
105
27
330
A
100
AcDbSymbolTableRecord
100
AcDbDimStyleTableRecord
  2
ISO-25
 70
     0
 41
2.5
 42
0.625
 43
3.75
 44
1.25
 73
     0
 74
     0
 77
     1
 78
     8
140
2.5
141
2.5
143
0.0393700787
147
0.625
171
     3
172
     1
178
     0
271
     2
272
     2
274
     3
278
    44
283
     0
284
     8
340
11
  0
ENDTAB
  0
TABLE
  2
BLOCK_RECORD
  5
1
330
0
100
AcDbSymbolTable
 70
     1
  0
BLOCK_RECORD
  5
1F
330
1
100
AcDbSymbolTableRecord
100
AcDbBlockTableRecord
  2
*Model_Space
340
22
  0
BLOCK_RECORD
  5
1B
330
1
100
AcDbSymbolTableRecord
100
AcDbBlockTableRecord
  2
*Paper_Space
340
1E
  0
BLOCK_RECORD
  5
23
330
1
100
AcDbSymbolTableRecord
100
AcDbBlockTableRecord
  2
*Paper_Space0
340
26
  0
ENDTAB
  0
ENDSEC
  0
SECTION
  2
BLOCKS
  0
BLOCK
  5
20
330
1F
100
AcDbEntity
  8
0
100
AcDbBlockBegin
  2
*Model_Space
 70
     0
 10
0.0
 20
0.0
 30
0.0
  3
*Model_Space
  1

  0
ENDBLK
  5
21
330
1F
100
AcDbEntity
  8
0
100
AcDbBlockEnd
  0
BLOCK
  5
1C
330
1B
100
AcDbEntity
 67
     1
  8
0
100
AcDbBlockBegin
  2
*Paper_Space
 70
     0
 10
0.0
 20
0.0
 30
0.0
  3
*Paper_Space
  1

  0
ENDBLK
  5
1D
330
1B
100
AcDbEntity
 67
     1
  8
0
100
AcDbBlockEnd
  0
BLOCK
  5
24
330
23
100
AcDbEntity
  8
0
100
AcDbBlockBegin
  2
*Paper_Space0
 70
     0
 10
0.0
 20
0.0
 30
0.0
  3
*Paper_Space0
  1

  0
ENDBLK
  5
25
330
23
100
AcDbEntity
  8
0
100
AcDbBlockEnd
  0
ENDSEC
  0
SECTION
  2
ENTITIES
  0
MTEXT
  5
74
330
1F
100
AcDbEntity
  8
0
  6
Continuous
 62
     7
370
     0
100
AcDbMText
 10
64.5136363636
 20
63.9398271762
 30
0.0
 40
1.75
 41
0.0
 71
     1
 72
     1
  1
AT-1033R
  7
SLDTEXTSTYLE0
 73
     1
 44
1.0
  0
LINE
  5
75
330
1F
100
AcDbEntity
  8
0
  6
Continuous
 62
     7
370
    25
100
AcDbLine
 10
48.2406781327
 20
53.3687960688
 30
0.0
 11
37.780612064
 21
53.0419190042
 31
0.0
  0
LINE
  5
76
330
1F
100
AcDbEntity
  8
0
  6
Continuous
 62
     7
370
    25
100
AcDbLine
 10
37.780612064
 20
36.6956731334
 30
0.0
 11
48.2406781327
 21
36.3687960688
 31
0.0
  0
LINE
  5
77
330
1F
100
AcDbEntity
  8
0
  6
Continuous
 62
     7
370
    25
100
AcDbLine
 10
54.8826781327
 20
36.3687960688
 30
0.0
 11
55.5246781327
 21
36.3687960688
 31
0.0
  0
LINE
  5
78
330
1F
100
AcDbEntity
  8
0
  6
Continuous
 62
     7
370
    25
100
AcDbLine
 10
55.5246781327
 20
53.3687960688
 30
0.0
 11
54.8826781327
 21
53.3687960688
 31
0.0
  0
LINE
  5
79
330
1F
100
AcDbEntity
  8
0
  6
Continuous
 62
     7
370
    25
100
AcDbLine
 10
48.8826781327
 20
53.3687960688
 30
0.0
 11
48.2406781327
 21
53.3687960688
 31
0.0
  0
LINE
  5
7A
330
1F
100
AcDbEntity
  8
0
  6
Continuous
 62
     7
370
    25
100
AcDbLine
 10
48.2406781327
 20
36.3687960688
 30
0.0
 11
48.8826781327
 21
36.3687960688
 31
0.0
  0
LINE
  5
7B
330
1F
100
AcDbEntity
  8
0
  6
Continuous
 62
     7
370
    25
100
AcDbLine
 10
55.5246781327
 20
36.3687960688
 30
0.0
 11
65.9847442013
 21
36.6956731334
 31
0.0
  0
LINE
  5
7C
330
1F
100
AcDbEntity
  8
0
  6
Continuous
 62
     7
370
    25
100
AcDbLine
 10
65.9847442013
 20
53.0419190042
 30
0.0
 11
55.5246781327
 21
53.3687960688
 31
0.0
  0
LINE
  5
7D
330
1F
100
AcDbEntity
  8
0
  6
Continuous
 62
     7
370
    25
100
AcDbLine
 10
65.9847442013
 20
36.6956731334
 30
0.0
 11
68.8826781327
 21
38.3687960688
 31
0.0
  0
LINE
  5
7E
330
1F
100
AcDbEntity
  8
0
  6
Continuous
 62
     7
370
    25
100
AcDbLine
 10
68.8826781327
 20
51.3687960688
 30
0.0
 11
65.9847442013
 21
53.0419190042
 31
0.0
  0
LINE
  5
7F
330
1F
100
AcDbEntity
  8
0
  6
Continuous
 62
     7
370
    25
100
AcDbLine
 10
37.780612064
 20
53.0419190042
 30
0.0
 11
34.8826781327
 21
51.3687960688
 31
0.0
  0
LINE
  5
80
330
1F
100
AcDbEntity
  8
0
  6
Continuous
 62
     7
370
    25
100
AcDbLine
 10
34.8826781327
 20
38.3687960688
 30
0.0
 11
37.780612064
 21
36.6956731334
 31
0.0
  0
LINE
  5
81
330
1F
100
AcDbEntity
  8
0
  6
Continuous
 62
     7
370
    25
100
AcDbLine
 10
50.3013069488
 20
37.5075801366
 30
0.0
 11
50.3013069488
 21
37.4989198826
 31
0.0
  0
LINE
  5
82
330
1F
100
AcDbEntity
  8
0
  6
Continuous
 62
     7
370
    25
100
AcDbLine
 10
48.8826781327
 20
36.3687960688
 30
0.0
 11
49.6418675112
 21
35.0538414926
 31
0.0
  0
LINE
  5
83
330
1F
100
AcDbEntity
  8
0
  6
Continuous
 62
     7
370
    25
100
AcDbLine
 10
54.1234887541
 20
35.0538414926
 30
0.0
 11
54.8826781327
 21
36.3687960688
 31
0.0
  0
LINE
  5
84
330
1F
100
AcDbEntity
  8
0
  6
Continuous
 62
     7
370
    25
100
AcDbLine
 10
49.6418675112
 20
54.683750645
 30
0.0
 11
48.8826781327
 21
53.3687960688
 31
0.0
  0
LINE
  5
85
330
1F
100
AcDbEntity
  8
0
  6
Continuous
 62
     7
370
    25
100
AcDbLine
 10
54.8826781327
 20
53.3687960688
 30
0.0
 11
54.1234887541
 21
54.683750645
 31
0.0
  0
LINE
  5
86
330
1F
100
AcDbEntity
  8
0
  6
Continuous
 62
     7
370
    25
100
AcDbLine
 10
52.4792766812
 20
44.5447960688
 30
0.0
 11
52.4792766812
 21
44.0911960688
 31
0.0
  0
LINE
  5
87
330
1F
100
AcDbEntity
  8
0
  6
Continuous
 62
     7
370
    25
100
AcDbLine
 10
49.8872766812
 20
44.5447960688
 30
0.0
 11
52.4792766812
 21
44.5447960688
 31
0.0
  0
LINE
  5
88
330
1F
100
AcDbEntity
  8
0
  6
Continuous
 62
     7
370
    25
100
AcDbLine
 10
49.8872766812
 20
44.8687960688
 30
0.0
 11
49.8872766812
 21
44.5447960688
 31
0.0
  0
LINE
  5
89
330
1F
100
AcDbEntity
  8
0
  6
Continuous
 62
     7
370
    25
100
AcDbLine
 10
49.8872766812
 20
45.1927960688
 30
0.0
 11
49.8872766812
 21
44.8687960688
 31
0.0
  0
LINE
  5
8A
330
1F
100
AcDbEntity
  8
0
  6
Continuous
 62
     7
370
    25
100
AcDbLine
 10
52.4792766812
 20
45.1927960688
 30
0.0
 11
49.8872766812
 21
45.1927960688
 31
0.0
  0
LINE
  5
8B
330
1F
100
AcDbEntity
  8
0
  6
Continuous
 62
     7
370
    25
100
AcDbLine
 10
52.4792766812
 20
45.6463960688
 30
0.0
 11
52.4792766812
 21
45.1927960688
 31
0.0
  0
LINE
  5
8C
330
1F
100
AcDbEntity
  8
0
  6
Continuous
 62
     7
370
    25
100
AcDbLine
 10
53.7752766812
 20
44.8687960688
 30
0.0
 11
52.4792766812
 21
45.6463960688
 31
0.0
  0
LINE
  5
8D
330
1F
100
AcDbEntity
  8
0
  6
Continuous
 62
     7
370
    25
100
AcDbLine
 10
52.4792766812
 20
44.0911960688
 30
0.0
 11
53.7752766812
 21
44.8687960688
 31
0.0
  0
SPLINE
  5
8E
330
1F
100
AcDbEntity
  8
0
  6
Continuous
 62
     7
370
    25
100
AcDbSpline
210
0.0
220
0.0
230
1.0
 70
     8
 71
     3
 72
    10
 73
     6
 74
     0
 42
0.000000001
 43
0.00000001
 40
0.0
 40
0.0
 40
0.0
 40
0.0
 40
0.5
 40
0.5
 40
1.0
 40
1.0
 40
1.0
 40
1.0
 10
49.64186751123293
 20
39.96131878068429
 30
0.0
 10
49.41123880805452
 20
40.76024004386176
 30
0.0
 10
49.21814838345972
 20
41.57736818683022
 30
0.0
 10
48.95407902472564
 20
43.21480555672628
 30
0.0
 10
48.8826781326781
 20
44.03873360322317
 30
0.0
 10
48.8826781326781
 20
44.86879606879614
 30
0.0
  0
SPLINE
  5
8F
330
1F
100
AcDbEntity
  8
0
  6
Continuous
 62
     7
370
    25
100
AcDbSpline
210
0.0
220
0.0
230
1.0
 70
     8
 71
     3
 72
    12
 73
     8
 74
     0
 42
0.000000001
 43
0.00000001
 40
0.0
 40
0.0
 40
0.0
 40
0.0
 40
0.25
 40
0.25
 40
0.5
 40
0.5
 40
1.0
 40
1.0
 40
1.0
 40
1.0
 10
48.8826781326781
 20
44.86879606879614
 30
0.0
 10
48.8826781326781
 20
45.28412595946629
 30
0.0
 10
48.90039621023826
 20
45.70153729711684
 30
0.0
 10
48.970603781539
 20
46.53701706476219
 30
0.0
 10
49.02258690432181
 20
46.95031860019894
 30
0.0
 10
49.22205160605306
 20
48.17878103859896
 30
0.0
 10
49.41274765271962
 20
48.98257888497178
 30
0.0
 10
49.64186751123295
 20
49.77627335690797
 30
0.0
  0
LINE
  5
90
330
1F
100
AcDbEntity
  8
0
  6
Continuous
 62
     7
370
    25
100
AcDbLine
 10
49.6418675112
 20
49.7762733569
 30
0.0
 11
54.1234887541
 21
49.7762733569
 31
0.0
  0
SPLINE
  5
91
330
1F
100
AcDbEntity
  8
0
  6
Continuous
 62
     7
370
    25
100
AcDbSpline
210
0.0
220
0.0
230
1.0
 70
     8
 71
     3
 72
    12
 73
     8
 74
     0
 42
0.000000001
 43
0.00000001
 40
0.0
 40
0.0
 40
0.0
 40
0.0
 40
0.25
 40
0.25
 40
0.5
 40
0.5
 40
1.0
 40
1.0
 40
1.0
 40
1.0
 10
54.88267813267811
 20
44.86879606879614
 30
0.0
 10
54.88267813267811
 20
45.28412595946629
 30
0.0
 10
54.86496005511795
 20
45.70153729711684
 30
0.0
 10
54.79475248381722
 20
46.53701706476219
 30
0.0
 10
54.7427693610344
 20
46.95031860019894
 30
0.0
 10
54.54330465930315
 20
48.17878103859896
 30
0.0
 10
54.35260861263659
 20
48.98257888497178
 30
0.0
 10
54.12348875412326
 20
49.77627335690797
 30
0.0
  0
SPLINE
  5
92
330
1F
100
AcDbEntity
  8
0
  6
Continuous
 62
     7
370
    25
100
AcDbSpline
210
0.0
220
0.0
230
1.0
 70
     8
 71
     3
 72
    10
 73
     6
 74
     0
 42
0.000000001
 43
0.00000001
 40
0.0
 40
0.0
 40
0.0
 40
0.0
 40
0.5
 40
0.5
 40
1.0
 40
1.0
 40
1.0
 40
1.0
 10
54.12348875412328
 20
39.96131878068429
 30
0.0
 10
54.35411745730169
 20
40.76024004386176
 30
0.0
 10
54.54720788189649
 20
41.57736818683022
 30
0.0
 10
54.81127724063057
 20
43.21480555672628
 30
0.0
 10
54.88267813267811
 20
44.03873360322317
 30
0.0
 10
54.88267813267811
 20
44.86879606879614
 30
0.0
  0
LINE
  5
93
330
1F
100
AcDbEntity
  8
0
  6
Continuous
 62
     7
370
    25
100
AcDbLine
 10
49.6418675112
 20
39.9613187807
 30
0.0
 11
54.1234887541
 21
39.9613187807
 31
0.0
  0
LINE
  5
94
330
1F
100
AcDbEntity
  8
0
  6
Continuous
 62
     7
370
    25
100
AcDbLine
 10
48.8826781327
 20
37.5075801366
 30
0.0
 11
48.8826781327
 21
44.8687960688
 31
0.0
  0
SPLINE
  5
95
330
1F
100
AcDbEntity
  8
0
  6
Continuous
 62
     7
370
    25
100
AcDbSpline
210
0.0
220
0.0
230
1.0
 70
     8
 71
     3
 72
    12
 73
     8
 74
     0
 42
0.000000001
 43
0.00000001
 40
0.0
 40
0.0
 40
0.0
 40
0.0
 40
0.2499999999999999
 40
0.2499999999999999
 40
0.4999999999999999
 40
0.4999999999999999
 40
1.0
 40
1.0
 40
1.0
 40
1.0
 10
48.8826781326781
 20
37.50758013662836
 30
0.0
 10
48.8826781326781
 20
37.715820938709
 30
0.0
 10
48.90062253958931
 20
37.92499577161235
 30
0.0
 10
48.9700653464095
 20
38.33878721119318
 30
0.0
 10
49.02149698589422
 20
38.54429896605208
 30
0.0
 10
49.21986339798519
 20
39.15718416839147
 30
0.0
 10
49.41069818129971
 20
39.56092175608865
 30
0.0
 10
49.64186751123275
 20
39.96131878068432
 30
0.0
  0
SPLINE
  5
96
330
1F
100
AcDbEntity
  8
0
  6
Continuous
 62
     7
370
    25
100
AcDbSpline
210
0.0
220
0.0
230
1.0
 70
     8
 71
     3
 72
    10
 73
     6
 74
     0
 42
0.000000001
 43
0.00000001
 40
0.0
 40
0.0
 40
0.0
 40
0.0
 40
0.5
 40
0.5
 40
1.0
 40
1.0
 40
1.0
 40
1.0
 10
54.12348875412366
 20
49.77627335690794
 30
0.0
 10
54.35523673201622
 20
50.1776726291692
 30
0.0
 10
54.54616268000134
 20
50.58200394350419
 30
0.0
 10
54.81032325846878
 20
51.39911975040695
 30
0.0
 10
54.88267813267809
 20
51.81196743146419
 30
0.0
 10
54.88267813267809
 20
52.23001200096383
 30
0.0
  0
LINE
  5
97
330
1F
100
AcDbEntity
  8
0
  6
Continuous
 62
     7
370
    25
100
AcDbLine
 10
54.8826781327
 20
44.8687960688
 30
0.0
 11
54.8826781327
 21
52.230012001
 31
0.0
  0
SPLINE
  5
98
330
1F
100
AcDbEntity
  8
0
  6
Continuous
 62
     7
370
    25
100
AcDbSpline
210
0.0
220
0.0
230
1.0
 70
     8
 71
     3
 72
    12
 73
     8
 74
     0
 42
0.000000001
 43
0.00000001
 40
0.0
 40
0.0
 40
0.0
 40
0.0
 40
0.2499999999999999
 40
0.2499999999999999
 40
0.4999999999999999
 40
0.4999999999999999
 40
1.0
 40
1.0
 40
1.0
 40
1.0
 10
54.88267813267811
 20
37.50758013662836
 30
0.0
 10
54.88267813267811
 20
37.715820938709
 30
0.0
 10
54.8647337257669
 20
37.92499577161235
 30
0.0
 10
54.79529091894671
 20
38.33878721119318
 30
0.0
 10
54.74385927946199
 20
38.54429896605208
 30
0.0
 10
54.54549286737102
 20
39.15718416839147
 30
0.0
 10
54.3546580840565
 20
39.56092175608865
 30
0.0
 10
54.12348875412347
 20
39.96131878068432
 30
0.0
  0
LINE
  5
99
330
1F
100
AcDbEntity
  8
0
  6
Continuous
 62
     7
370
    25
100
AcDbLine
 10
54.8826781327
 20
37.5075801366
 30
0.0
 11
54.8826781327
 21
44.8687960688
 31
0.0
  0
LINE
  5
9A
330
1F
100
AcDbEntity
  8
0
  6
Continuous
 62
     7
370
    25
100
AcDbLine
 10
48.8826781327
 20
44.8687960688
 30
0.0
 11
48.8826781327
 21
52.230012001
 31
0.0
  0
SPLINE
  5
9B
330
1F
100
AcDbEntity
  8
0
  6
Continuous
 62
     7
370
    25
100
AcDbSpline
210
0.0
220
0.0
230
1.0
 70
     8
 71
     3
 72
    10
 73
     6
 74
     0
 42
0.000000001
 43
0.00000001
 40
0.0
 40
0.0
 40
0.0
 40
0.0
 40
0.5
 40
0.5
 40
1.0
 40
1.0
 40
1.0
 40
1.0
 10
49.64186751123255
 20
49.77627335690794
 30
0.0
 10
49.41011953333999
 20
50.17767262916919
 30
0.0
 10
49.21919358535488
 20
50.58200394350419
 30
0.0
 10
48.95503300688744
 20
51.39911975040694
 30
0.0
 10
48.88267813267812
 20
51.81196743146417
 30
0.0
 10
48.88267813267812
 20
52.23001200096381
 30
0.0
  0
SPLINE
  5
9C
330
1F
100
AcDbEntity
  8
0
  6
Continuous
 62
     7
370
    25
100
AcDbSpline
210
0.0
220
0.0
230
1.0
 70
     8
 71
     3
 72
    10
 73
     6
 74
     0
 42
0.000000001
 43
0.00000001
 40
0.0
 40
0.0
 40
0.0
 40
0.0
 40
0.5
 40
0.5
 40
1.0
 40
1.0
 40
1.0
 40
1.0
 10
49.64186751123254
 20
35.05384149257237
 30
0.0
 10
49.41011953333998
 20
35.45524076483365
 30
0.0
 10
49.21919358535487
 20
35.85957207916866
 30
0.0
 10
48.95503300688742
 20
36.67668788607144
 30
0.0
 10
48.8826781326781
 20
37.0895355671287
 30
0.0
 10
48.8826781326781
 20
37.50758013662836
 30
0.0
  0
SPLINE
  5
9D
330
1F
100
AcDbEntity
  8
0
  6
Continuous
 62
     7
370
    25
100
AcDbSpline
210
0.0
220
0.0
230
1.0
 70
     8
 71
     3
 72
    10
 73
     6
 74
     0
 42
0.000000001
 43
0.00000001
 40
0.0
 40
0.0
 40
0.0
 40
0.0
 40
0.5
 40
0.5
 40
1.0
 40
1.0
 40
1.0
 40
1.0
 10
54.12348875412367
 20
35.05384149257237
 30
0.0
 10
54.35523673201623
 20
35.45524076483365
 30
0.0
 10
54.54616268000135
 20
35.85957207916866
 30
0.0
 10
54.8103232584688
 20
36.67668788607144
 30
0.0
 10
54.88267813267811
 20
37.0895355671287
 30
0.0
 10
54.88267813267811
 20
37.50758013662836
 30
0.0
  0
LINE
  5
9E
330
1F
100
AcDbEntity
  8
0
  6
Continuous
 62
     7
370
    25
100
AcDbLine
 10
49.6418675112
 20
35.0538414926
 30
0.0
 11
54.1234887541
 21
35.0538414926
 31
0.0
  0
ARC
  5
9F
330
1F
100
AcDbEntity
  8
0
  6
Continuous
 62
     7
370
    25
100
AcDbCircle
 10
53.4767100588
 20
37.5996032345
 30
0.0
 40
0.5673739358371293
100
AcDbArc
 50
189.3341081815
 51
255.0062639575
  0
LINE
  5
A0
330
1F
100
AcDbEntity
  8
0
  6
Continuous
 62
     7
370
    25
100
AcDbLine
 10
53.3299227949
 20
37.9636142275
 30
0.0
 11
52.4457750676
 21
38.1869778639
 31
0.0
  0
ARC
  5
A1
330
1F
100
AcDbEntity
  8
0
  6
Continuous
 62
     7
370
    25
100
AcDbCircle
 10
52.4158705309
 20
38.0950299019
 30
0.0
 40
0.1460833674781839
100
AcDbArc
 50
285.5701297616
 51
347.8789146011
  0
LINE
  5
A2
330
1F
100
AcDbEntity
  8
0
  6
Continuous
 62
     7
370
    25
100
AcDbLine
 10
52.4550818858
 20
37.9543074094
 30
0.0
 11
50.5006500676
 21
37.6564892275
 31
0.0
  0
LWPOLYLINE
  5
A3
330
1F
100
AcDbEntity
  8
0
  6
Continuous
 62
     7
370
    25
100
AcDbPolyline
 90
        5
 70
   128
 43
0.0
 10
50.5006500676
 20
37.6564892275
 10
50.4193852033
 20
37.6322129148
 10
50.3557418938
 20
37.5971741335
 10
50.3152159577
 20
37.5543986028
 10
50.3013069488
 20
37.5075801366
  0
ARC
  5
A4
330
1F
100
AcDbEntity
  8
0
  6
Continuous
 62
     7
370
    25
100
AcDbCircle
 10
52.4088139994
 20
36.9777329729
 30
0.0
 40
0.1540502893013279
100
AcDbArc
 50
283.8823255407
 51
346.6429423365
  0
LINE
  5
A5
330
1F
100
AcDbEntity
  8
0
  6
Continuous
 62
     7
370
    25
100
AcDbLine
 10
37.780612064
 20
36.6956731334
 30
0.0
 11
37.780612064
 21
53.0419190042
 31
0.0
  0
LINE
  5
A6
330
1F
100
AcDbEntity
  8
0
  6
Continuous
 62
     7
370
    25
100
AcDbLine
 10
48.2406781327
 20
53.3687960688
 30
0.0
 11
48.2406781327
 21
36.3687960688
 31
0.0
  0
LINE
  5
A7
330
1F
100
AcDbEntity
  8
0
  6
Continuous
 62
     7
370
    25
100
AcDbLine
 10
54.8826781327
 20
36.3687960688
 30
0.0
 11
54.8826781327
 21
37.5075801366
 31
0.0
  0
LINE
  5
A8
330
1F
100
AcDbEntity
  8
0
  6
Continuous
 62
     7
370
    25
100
AcDbLine
 10
54.8826781327
 20
52.230012001
 30
0.0
 11
54.8826781327
 21
53.3687960688
 31
0.0
  0
LINE
  5
A9
330
1F
100
AcDbEntity
  8
0
  6
Continuous
 62
     7
370
    25
100
AcDbLine
 10
55.5246781327
 20
53.3687960688
 30
0.0
 11
55.5246781327
 21
36.3687960688
 31
0.0
  0
LINE
  5
AA
330
1F
100
AcDbEntity
  8
0
  6
Continuous
 62
     7
370
    25
100
AcDbLine
 10
48.8826781327
 20
52.230012001
 30
0.0
 11
48.8826781327
 21
53.3687960688
 31
0.0
  0
LINE
  5
AB
330
1F
100
AcDbEntity
  8
0
  6
Continuous
 62
     7
370
    25
100
AcDbLine
 10
48.8826781327
 20
36.3687960688
 30
0.0
 11
48.8826781327
 21
37.5075801366
 31
0.0
  0
LINE
  5
AC
330
1F
100
AcDbEntity
  8
0
  6
Continuous
 62
     7
370
    25
100
AcDbLine
 10
65.9847442013
 20
36.6956731334
 30
0.0
 11
65.9847442013
 21
53.0419190042
 31
0.0
  0
SPLINE
  5
AD
330
1F
100
AcDbEntity
  8
0
  6
Continuous
 62
     7
370
    25
100
AcDbSpline
210
0.0
220
0.0
230
1.0
 70
     8
 71
     3
 72
    12
 73
     8
 74
     0
 42
0.000000001
 43
0.00000001
 40
0.0
 40
0.0
 40
0.0
 40
0.0
 40
0.2500000000000001
 40
0.2500000000000001
 40
0.5000000000000001
 40
0.5000000000000001
 40
1.0
 40
1.0
 40
1.0
 40
1.0
 10
48.88267813267812
 20
52.23001200096381
 30
0.0
 10
48.88267813267812
 20
52.43825280304445
 30
0.0
 10
48.90062253958932
 20
52.6474276359478
 30
0.0
 10
48.97006534640951
 20
53.06121907552861
 30
0.0
 10
49.02149698589423
 20
53.26673083038751
 30
0.0
 10
49.21986339798519
 20
53.87961603272688
 30
0.0
 10
49.41069818129971
 20
54.28335362042405
 30
0.0
 10
49.64186751123275
 20
54.68375064501971
 30
0.0
  0
LINE
  5
AE
330
1F
100
AcDbEntity
  8
0
  6
Continuous
 62
     7
370
    25
100
AcDbLine
 10
49.6418675112
 20
54.683750645
 30
0.0
 11
54.1234887541
 21
54.683750645
 31
0.0
  0
SPLINE
  5
AF
330
1F
100
AcDbEntity
  8
0
  6
Continuous
 62
     7
370
    25
100
AcDbSpline
210
0.0
220
0.0
230
1.0
 70
     8
 71
     3
 72
    12
 73
     8
 74
     0
 42
0.000000001
 43
0.00000001
 40
0.0
 40
0.0
 40
0.0
 40
0.0
 40
0.25
 40
0.25
 40
0.5
 40
0.5
 40
1.0
 40
1.0
 40
1.0
 40
1.0
 10
54.88267813267809
 20
52.23001200096383
 30
0.0
 10
54.88267813267809
 20
52.43825280304448
 30
0.0
 10
54.86473372576689
 20
52.64742763594781
 30
0.0
 10
54.79529091894669
 20
53.06121907552863
 30
0.0
 10
54.74385927946198
 20
53.26673083038752
 30
0.0
 10
54.54549286737102
 20
53.87961603272689
 30
0.0
 10
54.35465808405649
 20
54.28335362042405
 30
0.0
 10
54.12348875412347
 20
54.68375064501971
 30
0.0
  0
LINE
  5
B0
330
1F
100
AcDbEntity
  8
0
  6
Continuous
 62
     7
370
    25
100
AcDbLine
 10
68.8826781327
 20
44.8687960688
 30
0.0
 11
68.8826781327
 21
51.3687960688
 31
0.0
  0
LINE
  5
B1
330
1F
100
AcDbEntity
  8
0
  6
Continuous
 62
     7
370
    25
100
AcDbLine
 10
68.8826781327
 20
38.3687960688
 30
0.0
 11
68.8826781327
 21
44.8687960688
 31
0.0
  0
LINE
  5
B2
330
1F
100
AcDbEntity
  8
0
  6
Continuous
 62
     7
370
    25
100
AcDbLine
 10
34.8826781327
 20
44.8687960688
 30
0.0
 11
34.8826781327
 21
51.3687960688
 31
0.0
  0
LINE
  5
B3
330
1F
100
AcDbEntity
  8
0
  6
Continuous
 62
     7
370
    25
100
AcDbLine
 10
34.8826781327
 20
38.3687960688
 30
0.0
 11
34.8826781327
 21
44.8687960688
 31
0.0
  0
LINE
  5
B4
330
1F
100
AcDbEntity
  8
0
  6
Continuous
 62
     7
370
    25
100
AcDbLine
 10
53.3299227949
 20
37.9549539735
 30
0.0
 11
52.4457750676
 21
38.1783176099
 31
0.0
  0
LINE
  5
B5
330
1F
100
AcDbEntity
  8
0
  6
Continuous
 62
     7
370
    25
100
AcDbLine
 10
52.4457750676
 20
38.1869778639
 30
0.0
 11
52.4457750676
 21
38.1783176099
 31
0.0
  0
LINE
  5
B6
330
1F
100
AcDbEntity
  8
0
  6
Continuous
 62
     7
370
    25
100
AcDbLine
 10
53.3299227949
 20
37.9636142275
 30
0.0
 11
53.3299227949
 21
37.9549539735
 31
0.0
  0
LWPOLYLINE
  5
B7
330
1F
100
AcDbEntity
  8
0
  6
Continuous
 62
     7
370
    25
100
AcDbPolyline
 90
        9
 70
   128
 43
0.0
 10
52.4457750676
 20
38.1783176099
 10
52.4923976365
 20
38.1548736405
 10
52.5277829141
 20
38.1269450491
 10
52.5502578105
 20
38.0958523579
 10
52.5587596654
 20
38.0630656945
 10
52.5528864935
 20
38.0301352808
 10
52.5329159907
 20
37.9986181356
 10
52.4997924039
 20
37.9700044556
 10
52.4550818858
 20
37.9456471553
  0
LINE
  5
B8
330
1F
100
AcDbEntity
  8
0
  6
Continuous
 62
     7
370
    25
100
AcDbLine
 10
52.4550818858
 20
37.9543074094
 30
0.0
 11
52.4550818858
 21
37.9456471553
 31
0.0
  0
LINE
  5
B9
330
1F
100
AcDbEntity
  8
0
  6
Continuous
 62
     7
370
    25
100
AcDbLine
 10
52.4550818858
 20
37.9456471553
 30
0.0
 11
50.5006500676
 21
37.6478289735
 31
0.0
  0
LWPOLYLINE
  5
BA
330
1F
100
AcDbEntity
  8
0
  6
Continuous
 62
     7
370
    25
100
AcDbPolyline
 90
       11
 70
   128
 43
0.0
 10
53.3299227949
 20
37.0428857917
 10
53.1870748056
 20
37.1172146119
 10
53.0714541173
 20
37.2025616952
 10
52.9863982243
 20
37.2964634219
 10
52.9343623408
 20
37.396209235
 10
52.916848529
 20
37.4989198826
 10
52.9343623408
 20
37.6016305301
 10
52.9863982243
 20
37.7013763432
 10
53.0714541173
 20
37.79527807
 10
53.1870748056
 20
37.8806251533
 10
53.3299227949
 20
37.9549539735
  0
LINE
  5
BB
330
1F
100
AcDbEntity
  8
0
  6
Continuous
 62
     7
370
    25
100
AcDbLine
 10
52.4457750676
 20
36.8195221553
 30
0.0
 11
53.3299227949
 21
37.0428857917
 31
0.0
  0
LWPOLYLINE
  5
BC
330
1F
100
AcDbEntity
  8
0
  6
Continuous
 62
     7
370
    25
100
AcDbPolyline
 90
        9
 70
   128
 43
0.0
 10
52.4550818858
 20
37.0521926099
 10
52.4997924039
 20
37.0278353096
 10
52.5329159907
 20
36.9992216296
 10
52.5528864935
 20
36.9677044844
 10
52.5587596654
 20
36.9347740707
 10
52.5502578105
 20
36.9019874073
 10
52.5277829141
 20
36.8708947161
 10
52.4923976365
 20
36.8429661247
 10
52.4457750676
 20
36.8195221553
  0
LINE
  5
BD
330
1F
100
AcDbEntity
  8
0
  6
Continuous
 62
     7
370
    25
100
AcDbLine
 10
50.5006500676
 20
37.3500107917
 30
0.0
 11
52.4550818858
 21
37.0521926099
 31
0.0
  0
LWPOLYLINE
  5
BE
330
1F
100
AcDbEntity
  8
0
  6
Continuous
 62
     7
370
    25
100
AcDbPolyline
 90
        9
 70
   128
 43
0.0
 10
50.5006500676
 20
37.6478289735
 10
50.4193852033
 20
37.6235526608
 10
50.3557418938
 20
37.5885138795
 10
50.3152159577
 20
37.5457383487
 10
50.3013069488
 20
37.4989198826
 10
50.3152159577
 20
37.4521014164
 10
50.3557418938
 20
37.4093258857
 10
50.4193852033
 20
37.3742871044
 10
50.5006500676
 20
37.3500107917
  0
LINE
  5
BF
330
1F
100
AcDbEntity
  8
0
  6
Continuous
 62
     7
370
    25
100
AcDbLine
 10
51.5034597267
 20
37.4989198826
 30
0.0
 11
52.1014227949
 21
37.4078017008
 31
0.0
  0
LINE
  5
C0
330
1F
100
AcDbEntity
  8
0
  6
Continuous
 62
     7
370
    25
100
AcDbLine
 10
52.1014227949
 20
37.4078017008
 30
0.0
 11
52.1014227949
 21
37.5900380644
 31
0.0
  0
LINE
  5
C1
330
1F
100
AcDbEntity
  8
0
  6
Continuous
 62
     7
370
    25
100
AcDbLine
 10
52.1014227949
 20
37.5900380644
 30
0.0
 11
51.5034597267
 21
37.4989198826
 31
0.0
  0
LINE
  5
C2
330
1F
100
AcDbEntity
  8
0
  6
Continuous
 62
     7
370
    25
100
AcDbLine
 10
53.3299227949
 20
37.0515460457
 30
0.0
 11
53.3299227949
 21
37.0428857917
 31
0.0
  0
LINE
  5
C3
330
1F
100
AcDbEntity
  8
0
  6
Continuous
 62
     7
370
    25
100
AcDbLine
 10
50.5006500676
 20
37.6564892275
 30
0.0
 11
50.5006500676
 21
37.6478289735
 31
0.0
  0
LINE
  5
C4
330
1F
100
AcDbEntity
  8
0
  6
Continuous
 62
     7
370
    25
100
AcDbLine
 10
51.5318761853
 20
37.5032500096
 30
0.0
 11
52.1014227949
 21
37.4164619548
 31
0.0
  0
LINE
  5
C5
330
1F
100
AcDbEntity
  8
0
  6
Continuous
 62
     7
370
    25
100
AcDbLine
 10
52.4457750676
 20
36.8281824094
 30
0.0
 11
52.4457750676
 21
36.8195221553
 31
0.0
  0
LINE
  5
C6
330
1F
100
AcDbEntity
  8
0
  6
Continuous
 62
     7
370
     0
100
AcDbLine
 10
36.5022333949
 20
52.3038467354
 30
0.0
 11
48.2405881327
 21
52.6706703209
 31
0.0
  0
LINE
  5
C7
330
1F
100
AcDbEntity
  8
0
  6
Continuous
 62
     7
370
     0
100
AcDbLine
 10
36.5022333949
 20
37.4337454022
 30
0.0
 11
48.2405881327
 21
37.0669218167
 31
0.0
  0
LINE
  5
C8
330
1F
100
AcDbEntity
  8
0
  6
Continuous
 62
     7
370
     0
100
AcDbLine
 10
48.2405881327
 20
36.3687988813
 30
0.0
 11
48.2405881327
 21
53.3687932563
 31
0.0
  0
LINE
  5
C9
330
1F
100
AcDbEntity
  8
0
  6
Continuous
 62
     7
370
     0
100
AcDbLine
 10
67.2631228705
 20
37.4337454022
 30
0.0
 11
55.5247681327
 21
37.0669218167
 31
0.0
  0
LINE
  5
CA
330
1F
100
AcDbEntity
  8
0
  6
Continuous
 62
     7
370
     0
100
AcDbLine
 10
67.2631228705
 20
52.3038467354
 30
0.0
 11
55.5247681327
 21
52.6706703209
 31
0.0
  0
LINE
  5
CB
330
1F
100
AcDbEntity
  8
0
  6
Continuous
 62
     7
370
     0
100
AcDbLine
 10
55.5247681327
 20
53.3687932563
 30
0.0
 11
55.5247681327
 21
36.3687988813
 31
0.0
  0
LINE
  5
CC
330
1F
100
AcDbEntity
  8
0
  6
Continuous
 62
     7
370
    25
100
AcDbLine
 10
54.8826781327
 20
71.1039312039
 30
0.0
 11
55.5246781327
 21
71.1039312039
 31
0.0
  0
LINE
  5
CD
330
1F
100
AcDbEntity
  8
0
  6
Continuous
 62
     7
370
    25
100
AcDbLine
 10
55.5246781327
 20
88.1039312039
 30
0.0
 11
54.8826781327
 21
88.1039312039
 31
0.0
  0
LINE
  5
CE
330
1F
100
AcDbEntity
  8
0
  6
Continuous
 62
     7
370
    25
100
AcDbLine
 10
55.5246781327
 20
71.1039312039
 30
0.0
 11
65.9847442013
 21
71.4308082686
 31
0.0
  0
LINE
  5
CF
330
1F
100
AcDbEntity
  8
0
  6
Continuous
 62
     7
370
    25
100
AcDbLine
 10
65.9847442013
 20
87.7770541393
 30
0.0
 11
55.5246781327
 21
88.1039312039
 31
0.0
  0
LINE
  5
D0
330
1F
100
AcDbEntity
  8
0
  6
Continuous
 62
     7
370
    25
100
AcDbLine
 10
48.8826781327
 20
88.1039312039
 30
0.0
 11
48.2406781327
 21
88.1039312039
 31
0.0
  0
LINE
  5
D1
330
1F
100
AcDbEntity
  8
0
  6
Continuous
 62
     7
370
    25
100
AcDbLine
 10
48.2406781327
 20
71.1039312039
 30
0.0
 11
48.8826781327
 21
71.1039312039
 31
0.0
  0
LINE
  5
D2
330
1F
100
AcDbEntity
  8
0
  6
Continuous
 62
     7
370
    25
100
AcDbLine
 10
48.2406781327
 20
88.1039312039
 30
0.0
 11
37.780612064
 21
87.7770541393
 31
0.0
  0
LINE
  5
D3
330
1F
100
AcDbEntity
  8
0
  6
Continuous
 62
     7
370
    25
100
AcDbLine
 10
37.780612064
 20
71.4308082686
 30
0.0
 11
48.2406781327
 21
71.1039312039
 31
0.0
  0
LINE
  5
D4
330
1F
100
AcDbEntity
  8
0
  6
Continuous
 62
     7
370
    25
100
AcDbLine
 10
37.780612064
 20
87.7770541393
 30
0.0
 11
34.8826781327
 21
86.1039312039
 31
0.0
  0
LINE
  5
D5
330
1F
100
AcDbEntity
  8
0
  6
Continuous
 62
     7
370
    25
100
AcDbLine
 10
34.8826781327
 20
73.1039312039
 30
0.0
 11
37.780612064
 21
71.4308082686
 31
0.0
  0
LINE
  5
D6
330
1F
100
AcDbEntity
  8
0
  6
Continuous
 62
     7
370
    25
100
AcDbLine
 10
65.9847442013
 20
71.4308082686
 30
0.0
 11
68.8826781327
 21
73.1039312039
 31
0.0
  0
LINE
  5
D7
330
1F
100
AcDbEntity
  8
0
  6
Continuous
 62
     7
370
    25
100
AcDbLine
 10
68.8826781327
 20
86.1039312039
 30
0.0
 11
65.9847442013
 21
87.7770541393
 31
0.0
  0
SPLINE
  5
D8
330
1F
100
AcDbEntity
  8
0
  6
Continuous
 62
     7
370
    25
100
AcDbSpline
210
0.0
220
0.0
230
1.0
 70
     8
 71
     3
 72
    10
 73
     6
 74
     0
 42
0.000000001
 43
0.00000001
 40
0.0
 40
0.0
 40
0.0
 40
0.0
 40
0.5
 40
0.5
 40
1.0
 40
1.0
 40
1.0
 40
1.0
 10
49.64186751123254
 20
79.60393120393111
 30
0.0
 10
49.41011953333998
 20
80.29917513760881
 30
0.0
 10
49.21919358535487
 20
80.99949751712813
 30
0.0
 10
48.95503300688742
 20
82.41478361035139
 30
0.0
 10
48.8826781326781
 20
83.12985676972953
 30
0.0
 10
48.8826781326781
 20
83.85393120393117
 30
0.0
  0
SPLINE
  5
D9
330
1F
100
AcDbEntity
  8
0
  6
Continuous
 62
     7
370
    25
100
AcDbSpline
210
0.0
220
0.0
230
1.0
 70
     8
 71
     3
 72
    12
 73
     8
 74
     0
 42
0.000000001
 43
0.00000001
 40
0.0
 40
0.0
 40
0.0
 40
0.0
 40
0.2500000000000001
 40
0.2500000000000001
 40
0.5000000000000001
 40
0.5000000000000001
 40
1.0
 40
1.0
 40
1.0
 40
1.0
 10
48.8826781326781
 20
83.85393120393117
 30
0.0
 10
48.8826781326781
 20
84.21461485334375
 30
0.0
 10
48.90062253958931
 20
84.57691629159709
 30
0.0
 10
48.9700653464095
 20
85.29362408868812
 30
0.0
 10
49.02149698589422
 20
85.64958088965638
 30
0.0
 10
49.21986339798519
 20
86.71112919931531
 30
0.0
 10
49.41069818129971
 20
87.41042321413211
 30
0.0
 10
49.64186751123275
 20
88.10393120393121
 30
0.0
  0
LINE
  5
DA
330
1F
100
AcDbEntity
  8
0
  6
Continuous
 62
     7
370
    25
100
AcDbLine
 10
49.6418675112
 20
88.1039312039
 30
0.0
 11
54.1234887541
 21
88.1039312039
 31
0.0
  0
SPLINE
  5
DB
330
1F
100
AcDbEntity
  8
0
  6
Continuous
 62
     7
370
    25
100
AcDbSpline
210
0.0
220
0.0
230
1.0
 70
     8
 71
     3
 72
    12
 73
     8
 74
     0
 42
0.000000001
 43
0.00000001
 40
0.0
 40
0.0
 40
0.0
 40
0.0
 40
0.2500000000000001
 40
0.2500000000000001
 40
0.5000000000000002
 40
0.5000000000000002
 40
1.0
 40
1.0
 40
1.0
 40
1.0
 10
54.88267813267811
 20
83.85393120393117
 30
0.0
 10
54.88267813267811
 20
84.21461485334375
 30
0.0
 10
54.8647337257669
 20
84.57691629159709
 30
0.0
 10
54.79529091894671
 20
85.29362408868812
 30
0.0
 10
54.74385927946199
 20
85.64958088965638
 30
0.0
 10
54.54549286737102
 20
86.71112919931531
 30
0.0
 10
54.3546580840565
 20
87.41042321413211
 30
0.0
 10
54.12348875412346
 20
88.10393120393121
 30
0.0
  0
SPLINE
  5
DC
330
1F
100
AcDbEntity
  8
0
  6
Continuous
 62
     7
370
    25
100
AcDbSpline
210
0.0
220
0.0
230
1.0
 70
     8
 71
     3
 72
    10
 73
     6
 74
     0
 42
0.000000001
 43
0.00000001
 40
0.0
 40
0.0
 40
0.0
 40
0.0
 40
0.5
 40
0.5
 40
1.0
 40
1.0
 40
1.0
 40
1.0
 10
54.12348875412367
 20
79.60393120393111
 30
0.0
 10
54.35523673201623
 20
80.29917513760881
 30
0.0
 10
54.54616268000135
 20
80.99949751712813
 30
0.0
 10
54.8103232584688
 20
82.41478361035139
 30
0.0
 10
54.88267813267811
 20
83.12985676972953
 30
0.0
 10
54.88267813267811
 20
83.85393120393118
 30
0.0
  0
LINE
  5
DD
330
1F
100
AcDbEntity
  8
0
  6
Continuous
 62
     7
370
    25
100
AcDbLine
 10
49.6418675112
 20
79.6039312039
 30
0.0
 11
54.1234887541
 21
79.6039312039
 31
0.0
  0
SPLINE
  5
DE
330
1F
100
AcDbEntity
  8
0
  6
Continuous
 62
     7
370
    25
100
AcDbSpline
210
0.0
220
0.0
230
1.0
 70
     8
 71
     3
 72
    12
 73
     8
 74
     0
 42
0.000000001
 43
0.00000001
 40
0.0
 40
0.0
 40
0.0
 40
0.0
 40
0.25
 40
0.25
 40
0.5
 40
0.5
 40
1.0
 40
1.0
 40
1.0
 40
1.0
 10
54.88267813267809
 20
75.3539312039312
 30
0.0
 10
54.88267813267809
 20
75.71461485334376
 30
0.0
 10
54.86473372576689
 20
76.07691629159709
 30
0.0
 10
54.79529091894669
 20
76.79362408868813
 30
0.0
 10
54.74385927946198
 20
77.14958088965639
 30
0.0
 10
54.54549286737102
 20
78.21112919931531
 30
0.0
 10
54.35465808405649
 20
78.91042321413211
 30
0.0
 10
54.12348875412347
 20
79.6039312039312
 30
0.0
  0
LINE
  5
DF
330
1F
100
AcDbEntity
  8
0
  6
Continuous
 62
     7
370
    25
100
AcDbLine
 10
54.8826781327
 20
75.3539312039
 30
0.0
 11
54.8826781327
 21
83.8539312039
 31
0.0
  0
LINE
  5
E0
330
1F
100
AcDbEntity
  8
0
  6
Continuous
 62
     7
370
    25
100
AcDbLine
 10
48.8826781327
 20
75.3539312039
 30
0.0
 11
48.8826781327
 21
83.8539312039
 31
0.0
  0
SPLINE
  5
E1
330
1F
100
AcDbEntity
  8
0
  6
Continuous
 62
     7
370
    25
100
AcDbSpline
210
0.0
220
0.0
230
1.0
 70
     8
 71
     3
 72
    12
 73
     8
 74
     0
 42
0.000000001
 43
0.00000001
 40
0.0
 40
0.0
 40
0.0
 40
0.0
 40
0.2500000000000001
 40
0.2500000000000001
 40
0.5000000000000001
 40
0.5000000000000001
 40
1.0
 40
1.0
 40
1.0
 40
1.0
 10
48.88267813267812
 20
75.35393120393115
 30
0.0
 10
48.88267813267812
 20
75.71461485334373
 30
0.0
 10
48.90062253958932
 20
76.07691629159706
 30
0.0
 10
48.97006534640951
 20
76.7936240886881
 30
0.0
 10
49.02149698589423
 20
77.14958088965636
 30
0.0
 10
49.21986339798519
 20
78.2111291993153
 30
0.0
 10
49.41069818129971
 20
78.9104232141321
 30
0.0
 10
49.64186751123275
 20
79.6039312039312
 30
0.0
  0
SPLINE
  5
E2
330
1F
100
AcDbEntity
  8
0
  6
Continuous
 62
     7
370
    25
100
AcDbSpline
210
0.0
220
0.0
230
1.0
 70
     8
 71
     3
 72
    10
 73
     6
 74
     0
 42
0.000000001
 43
0.00000001
 40
0.0
 40
0.0
 40
0.0
 40
0.0
 40
0.5
 40
0.5
 40
1.0
 40
1.0
 40
1.0
 40
1.0
 10
49.64186751123255
 20
71.10393120393115
 30
0.0
 10
49.41011953333999
 20
71.79917513760884
 30
0.0
 10
49.21919358535488
 20
72.49949751712816
 30
0.0
 10
48.95503300688744
 20
73.91478361035139
 30
0.0
 10
48.88267813267812
 20
74.62985676972951
 30
0.0
 10
48.88267813267812
 20
75.35393120393115
 30
0.0
  0
SPLINE
  5
E3
330
1F
100
AcDbEntity
  8
0
  6
Continuous
 62
     7
370
    25
100
AcDbSpline
210
0.0
220
0.0
230
1.0
 70
     8
 71
     3
 72
    10
 73
     6
 74
     0
 42
0.000000001
 43
0.00000001
 40
0.0
 40
0.0
 40
0.0
 40
0.0
 40
0.5
 40
0.5
 40
1.0
 40
1.0
 40
1.0
 40
1.0
 10
54.12348875412366
 20
71.10393120393115
 30
0.0
 10
54.35523673201622
 20
71.79917513760884
 30
0.0
 10
54.54616268000134
 20
72.49949751712818
 30
0.0
 10
54.81032325846878
 20
73.9147836103514
 30
0.0
 10
54.88267813267809
 20
74.62985676972956
 30
0.0
 10
54.88267813267809
 20
75.3539312039312
 30
0.0
  0
LINE
  5
E4
330
1F
100
AcDbEntity
  8
0
  6
Continuous
 62
     7
370
    25
100
AcDbLine
 10
49.6418675112
 20
71.1039312039
 30
0.0
 11
54.1234887541
 21
71.1039312039
 31
0.0
  0
LINE
  5
E5
330
1F
100
AcDbEntity
  8
0
  6
Continuous
 62
     7
370
    25
100
AcDbLine
 10
54.8826781327
 20
71.1039312039
 30
0.0
 11
54.8826781327
 21
75.3539312039
 31
0.0
  0
LINE
  5
E6
330
1F
100
AcDbEntity
  8
0
  6
Continuous
 62
     7
370
    25
100
AcDbLine
 10
54.8826781327
 20
83.8539312039
 30
0.0
 11
54.8826781327
 21
88.1039312039
 31
0.0
  0
LINE
  5
E7
330
1F
100
AcDbEntity
  8
0
  6
Continuous
 62
     7
370
    25
100
AcDbLine
 10
55.5246781327
 20
88.1039312039
 30
0.0
 11
55.5246781327
 21
71.1039312039
 31
0.0
  0
LINE
  5
E8
330
1F
100
AcDbEntity
  8
0
  6
Continuous
 62
     7
370
    25
100
AcDbLine
 10
65.9847442013
 20
71.4308082686
 30
0.0
 11
65.9847442013
 21
87.7770541393
 31
0.0
  0
LINE
  5
E9
330
1F
100
AcDbEntity
  8
0
  6
Continuous
 62
     7
370
    25
100
AcDbLine
 10
48.8826781327
 20
71.1039312039
 30
0.0
 11
48.8826781327
 21
75.3539312039
 31
0.0
  0
LINE
  5
EA
330
1F
100
AcDbEntity
  8
0
  6
Continuous
 62
     7
370
    25
100
AcDbLine
 10
48.8826781327
 20
83.8539312039
 30
0.0
 11
48.8826781327
 21
88.1039312039
 31
0.0
  0
LINE
  5
EB
330
1F
100
AcDbEntity
  8
0
  6
Continuous
 62
     7
370
    25
100
AcDbLine
 10
48.2406781327
 20
88.1039312039
 30
0.0
 11
48.2406781327
 21
71.1039312039
 31
0.0
  0
LINE
  5
EC
330
1F
100
AcDbEntity
  8
0
  6
Continuous
 62
     7
370
    25
100
AcDbLine
 10
37.780612064
 20
79.6039312039
 30
0.0
 11
37.780612064
 21
87.7770541393
 31
0.0
  0
LINE
  5
ED
330
1F
100
AcDbEntity
  8
0
  6
Continuous
 62
     7
370
    25
100
AcDbLine
 10
37.780612064
 20
71.4308082686
 30
0.0
 11
37.780612064
 21
79.6039312039
 31
0.0
  0
LINE
  5
EE
330
1F
100
AcDbEntity
  8
0
  6
Continuous
 62
     7
370
    25
100
AcDbLine
 10
34.8826781327
 20
73.1039312039
 30
0.0
 11
34.8826781327
 21
86.1039312039
 31
0.0
  0
LINE
  5
EF
330
1F
100
AcDbEntity
  8
0
  6
Continuous
 62
     7
370
    25
100
AcDbLine
 10
68.8826781327
 20
73.1039312039
 30
0.0
 11
68.8826781327
 21
86.1039312039
 31
0.0
  0
SPLINE
  5
F0
330
1F
100
AcDbEntity
  8
0
  6
Continuous
 62
     7
370
    25
100
AcDbSpline
210
0.0
220
0.0
230
1.0
 70
    24
 71
     3
 72
    12
 73
     8
 74
     0
 42
0.000000001
 43
0.00000001
 40
0.0
 40
0.0
 40
0.0
 40
0.0
 40
0.2500000000000001
 40
0.2500000000000001
 40
0.5000000000000001
 40
0.5000000000000001
 40
1.0
 40
1.0
 40
1.0
 40
1.0
 10
48.8826781326781
 20
88.10393120393117
 30
0.0
 10
48.8826781326781
 20
88.10393120393117
 30
0.0
 10
48.90039621023904
 20
88.10393120393117
 30
0.0
 10
48.97060378153984
 20
88.10393120393117
 30
0.0
 10
49.02258690432249
 20
88.10393120393117
 30
0.0
 10
49.22205160605321
 20
88.10393120393117
 30
0.0
 10
49.4127476527194
 20
88.10393120393118
 30
0.0
 10
49.64186751123295
 20
88.10393120393118
 30
0.0
  0
SPLINE
  5
F1
330
1F
100
AcDbEntity
  8
0
  6
Continuous
 62
     7
370
    25
100
AcDbSpline
210
0.0
220
0.0
230
1.0
 70
    24
 71
     3
 72
    12
 73
     8
 74
     0
 42
0.000000001
 43
0.00000001
 40
0.0
 40
0.0
 40
0.0
 40
0.0
 40
0.25
 40
0.25
 40
0.5
 40
0.5
 40
1.0
 40
1.0
 40
1.0
 40
1.0
 10
54.88267813267811
 20
71.10393120393115
 30
0.0
 10
54.88267813267811
 20
71.10393120393117
 30
0.0
 10
54.86496005511795
 20
71.10393120393117
 30
0.0
 10
54.79475248381722
 20
71.10393120393118
 30
0.0
 10
54.7427693610344
 20
71.10393120393118
 30
0.0
 10
54.54330465930315
 20
71.1039312039312
 30
0.0
 10
54.35260861263659
 20
71.10393120393121
 30
0.0
 10
54.12348875412326
 20
71.10393120393121
 30
0.0
  0
SPLINE
  5
F2
330
1F
100
AcDbEntity
  8
0
  6
Continuous
 62
     7
370
    25
100
AcDbSpline
210
0.0
220
0.0
230
1.0
 70
    24
 71
     3
 72
    12
 73
     8
 74
     0
 42
0.000000001
 43
0.00000001
 40
0.0
 40
0.0
 40
0.0
 40
0.0
 40
0.2500000000000001
 40
0.2500000000000001
 40
0.5000000000000001
 40
0.5000000000000001
 40
1.0
 40
1.0
 40
1.0
 40
1.0
 10
54.88267813267811
 20
88.10393120393117
 30
0.0
 10
54.88267813267811
 20
88.10393120393117
 30
0.0
 10
54.86496005511717
 20
88.10393120393117
 30
0.0
 10
54.79475248381638
 20
88.10393120393117
 30
0.0
 10
54.74276936103373
 20
88.10393120393117
 30
0.0
 10
54.54330465930301
 20
88.10393120393117
 30
0.0
 10
54.35260861263681
 20
88.10393120393118
 30
0.0
 10
54.12348875412326
 20
88.10393120393118
 30
0.0
  0
SPLINE
  5
F3
330
1F
100
AcDbEntity
  8
0
  6
Continuous
 62
     7
370
    25
100
AcDbSpline
210
0.0
220
0.0
230
1.0
 70
    24
 71
     3
 72
    12
 73
     8
 74
     0
 42
0.000000001
 43
0.00000001
 40
0.0
 40
0.0
 40
0.0
 40
0.0
 40
0.25
 40
0.25
 40
0.5
 40
0.5
 40
1.0
 40
1.0
 40
1.0
 40
1.0
 10
48.8826781326781
 20
71.10393120393115
 30
0.0
 10
48.8826781326781
 20
71.10393120393117
 30
0.0
 10
48.90039621023826
 20
71.10393120393117
 30
0.0
 10
48.970603781539
 20
71.10393120393118
 30
0.0
 10
49.02258690432181
 20
71.10393120393118
 30
0.0
 10
49.22205160605306
 20
71.1039312039312
 30
0.0
 10
49.41274765271962
 20
71.10393120393121
 30
0.0
 10
49.64186751123295
 20
71.10393120393121
 30
0.0
  0
LINE
  5
F4
330
1F
100
AcDbEntity
  8
0
  6
Continuous
 62
     7
370
    25
100
AcDbLine
 10
53.7752766812
 20
71.1039312039
 30
0.0
 11
53.7752766812
 21
71.0939312039
 31
0.0
  0
LINE
  5
F5
330
1F
100
AcDbEntity
  8
0
  6
Continuous
 62
     7
370
    25
100
AcDbLine
 10
53.7752766812
 20
71.0939312039
 30
0.0
 11
52.4792766812
 21
71.0939312039
 31
0.0
  0
LINE
  5
F6
330
1F
100
AcDbEntity
  8
0
  6
Continuous
 62
     7
370
    25
100
AcDbLine
 10
52.4792766812
 20
71.1039312039
 30
0.0
 11
52.4792766812
 21
71.0939312039
 31
0.0
  0
LINE
  5
F7
330
1F
100
AcDbEntity
  8
0
  6
Continuous
 62
     7
370
    25
100
AcDbLine
 10
53.7752766812
 20
88.1139312039
 30
0.0
 11
53.7752766812
 21
88.1039312039
 31
0.0
  0
LINE
  5
F8
330
1F
100
AcDbEntity
  8
0
  6
Continuous
 62
     7
370
    25
100
AcDbLine
 10
52.4792766812
 20
88.1139312039
 30
0.0
 11
52.4792766812
 21
88.1039312039
 31
0.0
  0
LINE
  5
F9
330
1F
100
AcDbEntity
  8
0
  6
Continuous
 62
     7
370
    25
100
AcDbLine
 10
53.7752766812
 20
88.1139312039
 30
0.0
 11
52.4792766812
 21
88.1139312039
 31
0.0
  0
LINE
  5
FA
330
1F
100
AcDbEntity
  8
0
  6
Continuous
 62
     7
370
    25
100
AcDbLine
 10
49.8872766812
 20
71.1039312039
 30
0.0
 11
49.8872766812
 21
71.0939312039
 31
0.0
  0
LINE
  5
FB
330
1F
100
AcDbEntity
  8
0
  6
Continuous
 62
     7
370
    25
100
AcDbLine
 10
52.4792766812
 20
71.0939312039
 30
0.0
 11
49.8872766812
 21
71.0939312039
 31
0.0
  0
LINE
  5
FC
330
1F
100
AcDbEntity
  8
0
  6
Continuous
 62
     7
370
    25
100
AcDbLine
 10
49.8872766812
 20
88.1139312039
 30
0.0
 11
49.8872766812
 21
88.1039312039
 31
0.0
  0
LINE
  5
FD
330
1F
100
AcDbEntity
  8
0
  6
Continuous
 62
     7
370
    25
100
AcDbLine
 10
52.4792766812
 20
88.1139312039
 30
0.0
 11
49.8872766812
 21
88.1139312039
 31
0.0
  0
LINE
  5
FE
330
1F
100
AcDbEntity
  8
0
  6
Continuous
 62
     7
370
     0
100
AcDbLine
 10
36.5022333949
 20
87.0389818705
 30
0.0
 11
48.2405881327
 21
87.4058054561
 31
0.0
  0
LINE
  5
FF
330
1F
100
AcDbEntity
  8
0
  6
Continuous
 62
     7
370
     0
100
AcDbLine
 10
36.5022333949
 20
72.1688805373
 30
0.0
 11
48.2405881327
 21
71.8020569518
 31
0.0
  0
LINE
  5
100
330
1F
100
AcDbEntity
  8
0
  6
Continuous
 62
     7
370
     0
100
AcDbLine
 10
48.2405881327
 20
71.1039340164
 30
0.0
 11
48.2405881327
 21
88.1039283914
 31
0.0
  0
LINE
  5
101
330
1F
100
AcDbEntity
  8
0
  6
Continuous
 62
     7
370
     0
100
AcDbLine
 10
67.2631228705
 20
72.1688805373
 30
0.0
 11
55.5247681327
 21
71.8020569518
 31
0.0
  0
LINE
  5
102
330
1F
100
AcDbEntity
  8
0
  6
Continuous
 62
     7
370
     0
100
AcDbLine
 10
67.2631228705
 20
87.0389818705
 30
0.0
 11
55.5247681327
 21
87.4058054561
 31
0.0
  0
LINE
  5
103
330
1F
100
AcDbEntity
  8
0
  6
Continuous
 62
     7
370
     0
100
AcDbLine
 10
55.5247681327
 20
88.1039283914
 30
0.0
 11
55.5247681327
 21
71.1039340164
 31
0.0
  0
LINE
  5
104
330
1F
100
AcDbEntity
  8
0
  6
Continuous
 62
     7
370
    25
100
AcDbLine
 10
93.3936583172
 20
39.3786491106
 30
0.0
 11
93.5008690282
 21
41.1673397447
 31
0.0
  0
ARC
  5
105
330
1F
100
AcDbEntity
  8
0
  6
Continuous
 62
     7
370
    25
100
AcDbCircle
 10
94.998181835
 20
41.0775936659
 30
0.0
 40
1.499999999999991
100
AcDbArc
 50
45.5516513461
 51
176.569903765
  0
ARC
  5
106
330
1F
100
AcDbEntity
  8
0
  6
Continuous
 62
     7
370
    25
100
AcDbCircle
 10
96.8363800699
 20
42.9515339662
 30
0.0
 40
1.125000000000013
100
AcDbArc
 50
225.5516513461
 51
340.2144419238
  0
ARC
  5
107
330
1F
100
AcDbEntity
  8
0
  6
Continuous
 62
     7
370
    25
100
AcDbCircle
 10
93.5176860122
 20
44.1453925003
 30
0.0
 40
4.651900685881784
100
AcDbArc
 50
340.2144419238
 51
168.135891922
  0
ARC
  5
108
330
1F
100
AcDbEntity
  8
0
  6
Continuous
 62
     7
370
    25
100
AcDbCircle
 10
90.0661270985
 20
44.8704921579
 30
0.0
 40
1.125000000000011
100
AcDbArc
 50
168.135891922
 51
282.7986824997
  0
ARC
  5
109
330
1F
100
AcDbEntity
  8
0
  6
Continuous
 62
     7
370
    25
100
AcDbCircle
 10
90.6476330435
 20
42.3107117306
 30
0.0
 40
1.5
100
AcDbArc
 50
331.7804300808
 51
102.7986824997
  0
LINE
  5
10A
330
1F
100
AcDbEntity
  8
0
  6
Continuous
 62
     7
370
    25
100
AcDbLine
 10
91.9693460381
 20
41.6014340983
 30
0.0
 11
91.1220426209
 21
40.0225150883
 31
0.0
  0
CIRCLE
  5
10B
330
1F
100
AcDbEntity
  8
0
  6
Continuous
 62
     7
370
    25
100
AcDbCircle
 10
90.6476330435
 20
42.3107117306
 30
0.0
 40
0.5999999999999968
  0
CIRCLE
  5
10C
330
1F
100
AcDbEntity
  8
0
  6
Continuous
 62
     7
370
    25
100
AcDbCircle
 10
94.998181835
 20
41.0775936659
 30
0.0
 40
0.5999999999999968
  0
CIRCLE
  5
10D
330
1F
100
AcDbEntity
  8
0
  6
Continuous
 62
     7
370
    25
100
AcDbCircle
 10
93.7227272727
 20
44.8687960688
 30
0.0
 40
1.650000000000006
  0
ARC
  5
10E
330
1F
100
AcDbEntity
  8
0
  6
Continuous
 62
     7
370
    25
100
AcDbCircle
 10
91.8891630537
 20
48.0446224552
 30
0.0
 40
1.050000000000009
100
AcDbArc
 50
185.0787314865
 51
40.8503818885
  0
CIRCLE
  5
10F
330
1F
100
AcDbEntity
  8
0
  6
Continuous
 62
     7
370
    25
100
AcDbCircle
 10
90.0555988346
 20
44.8687960688
 30
0.0
 40
1.049999999999997
  0
ARC
  5
110
330
1F
100
AcDbEntity
  8
0
  6
Continuous
 62
     7
370
    25
100
AcDbCircle
 10
91.8891630537
 20
41.6929696824
 30
0.0
 40
1.05
100
AcDbArc
 50
129.7969456589
 51
177.2963812126
  0
ARC
  5
111
330
1F
100
AcDbEntity
  8
0
  6
Continuous
 62
     7
370
    25
100
AcDbCircle
 10
91.8891630537
 20
41.6929696824
 30
0.0
 40
1.05
100
AcDbArc
 50
248.0098529309
 51
79.4759720347
  0
ARC
  5
112
330
1F
100
AcDbEntity
  8
0
  6
Continuous
 62
     7
370
    25
100
AcDbCircle
 10
95.5562914918
 20
41.6929696824
 30
0.0
 40
1.050000000000001
100
AcDbArc
 50
90.0
 51
122.5969663554
  0
ARC
  5
113
330
1F
100
AcDbEntity
  8
0
  6
Continuous
 62
     7
370
    25
100
AcDbCircle
 10
95.5562914918
 20
41.6929696824
 30
0.0
 40
1.05
100
AcDbArc
 50
192.9989004919
 51
262.5887600765
  0
ARC
  5
114
330
1F
100
AcDbEntity
  8
0
  6
Continuous
 62
     7
370
    25
100
AcDbCircle
 10
95.5562914918
 20
41.6929696824
 30
0.0
 40
1.049999999999997
100
AcDbArc
 50
8.7636913284
 51
90.0
  0
ARC
  5
115
330
1F
100
AcDbEntity
  8
0
  6
Continuous
 62
     7
370
    25
100
AcDbCircle
 10
97.3898557109
 20
44.8687960688
 30
0.0
 40
1.050000000000004
100
AcDbArc
 50
90.0
 51
317.9498995696
  0
ARC
  5
116
330
1F
100
AcDbEntity
  8
0
  6
Continuous
 62
     7
370
    25
100
AcDbCircle
 10
97.3898557109
 20
44.8687960688
 30
0.0
 40
1.050000000000009
100
AcDbArc
 50
63.2142638612
 51
90.0
  0
ARC
  5
117
330
1F
100
AcDbEntity
  8
0
  6
Continuous
 62
     7
370
    25
100
AcDbCircle
 10
95.5562914918
 20
48.0446224552
 30
0.0
 40
1.049999999999999
100
AcDbArc
 50
145.0752884424
 51
339.7215421923
  0
ARC
  5
118
330
1F
100
AcDbEntity
  8
0
  6
Continuous
 62
     7
370
    25
100
AcDbCircle
 10
93.7227272727
 20
44.8687960688
 30
0.0
 40
5.350000000000011
100
AcDbArc
 50
241.7804300808
 51
266.569903765
  0
ARC
  5
119
330
1F
100
AcDbEntity
  8
0
  6
Continuous
 62
     7
370
    25
100
AcDbCircle
 10
93.7227272727
 20
44.8687960688
 30
0.0
 40
4.29703484624379
100
AcDbArc
 50
241.7804300808
 51
252.1479912909
  0
ARC
  5
11A
330
1F
100
AcDbEntity
  8
0
  6
Continuous
 62
     7
370
    25
100
AcDbCircle
 10
93.7227272727
 20
44.8687960688
 30
0.0
 40
4.297034846243804
100
AcDbArc
 50
167.8520087091
 51
192.1479912909
  0
ARC
  5
11B
330
1F
100
AcDbEntity
  8
0
  6
Continuous
 62
     7
370
    25
100
AcDbCircle
 10
93.7227272727
 20
44.8687960688
 30
0.0
 40
4.297034846243784
100
AcDbArc
 50
347.8520087091
 51
8.0008774923
  0
LWPOLYLINE
  5
11C
330
1F
100
AcDbEntity
  8
0
  6
Continuous
 62
     7
370
    25
100
AcDbPolyline
 90
        3
 70
   128
 43
0.0
 10
95.593170866
 20
41.0002111551
 10
95.3700121792
 20
40.9000480412
 10
95.0400239069
 20
40.7786569456
  0
ARC
  5
11D
330
1F
100
AcDbEntity
  8
0
  6
Continuous
 62
     7
370
    25
100
AcDbCircle
 10
93.7227272727
 20
44.8687960688
 30
0.0
 40
4.400000000000011
100
AcDbArc
 50
241.7804300808
 51
250.7410562622
  0
ARC
  5
11E
330
1F
100
AcDbEntity
  8
0
  6
Continuous
 62
     7
370
    25
100
AcDbCircle
 10
93.7227272727
 20
44.8687960688
 30
0.0
 40
4.400000000000015
100
AcDbArc
 50
169.2589437378
 51
190.7410562622
  0
ARC
  5
11F
330
1F
100
AcDbEntity
  8
0
  6
Continuous
 62
     7
370
    25
100
AcDbCircle
 10
93.7227272727
 20
44.8687960688
 30
0.0
 40
4.399999999999985
100
AcDbArc
 50
349.2589437378
 51
359.1957027676
  0
LWPOLYLINE
  5
120
330
1F
100
AcDbEntity
  8
0
  6
Continuous
 62
     7
370
    25
100
AcDbPolyline
 90
        3
 70
   128
 43
0.0
 10
95.5616816643
 20
40.8715161504
 10
95.3832697815
 20
40.794167426
 10
95.1740145226
 20
40.715030871
  0
CIRCLE
  5
121
330
1F
100
AcDbEntity
  8
0
  6
Continuous
 62
     7
370
    25
100
AcDbCircle
 10
93.7227272727
 20
44.8687960688
 30
0.0
 40
1.249999999999995
  0
CIRCLE
  5
122
330
1F
100
AcDbEntity
  8
0
  6
Continuous
 62
     7
370
    25
100
AcDbCircle
 10
93.7227272727
 20
44.8687960688
 30
0.0
 40
1.499999999999998
  0
LINE
  5
123
330
1F
100
AcDbEntity
  8
0
  6
Continuous
 62
     7
370
    25
100
AcDbLine
 10
95.4964716633
 20
41.2835721097
 30
0.0
 11
95.5509116625
 21
41.3110240361
 31
0.0
  0
LINE
  5
124
330
1F
100
AcDbEntity
  8
0
  6
Continuous
 62
     7
370
    25
100
AcDbLine
 10
96.4134454469
 20
41.9090603192
 30
0.0
 11
96.5481899385
 21
42.0374075889
 31
0.0
  0
ARC
  5
125
330
1F
100
AcDbEntity
  8
0
  6
Continuous
 62
     7
370
    25
100
AcDbCircle
 10
93.7227272727
 20
44.8687960688
 30
0.0
 40
4.000000000000005
100
AcDbArc
 50
345.0600199664
 51
14.9399800336
  0
ARC
  5
126
330
1F
100
AcDbEntity
  8
0
  6
Continuous
 62
     7
370
    25
100
AcDbCircle
 10
93.7227272727
 20
44.8687960688
 30
0.0
 40
4.000000000000012
100
AcDbArc
 50
106.6458599612
 51
134.9399800336
  0
ARC
  5
127
330
1F
100
AcDbEntity
  8
0
  6
Continuous
 62
     7
370
    25
100
AcDbCircle
 10
93.7227272727
 20
44.8687960688
 30
0.0
 40
4.000000000000007
100
AcDbArc
 50
165.0600199664
 51
194.9399800336
  0
LWPOLYLINE
  5
128
330
1F
100
AcDbEntity
  8
0
  6
Continuous
 62
     7
370
    25
100
AcDbPolyline
 90
        3
 70
   128
 43
0.0
 10
90.8972646069
 20
42.0374075889
 10
91.0091769107
 20
41.9299792265
 10
91.0648597905
 20
41.8795251799
  0
ARC
  5
129
330
1F
100
AcDbEntity
  8
0
  6
Continuous
 62
     7
370
    25
100
AcDbCircle
 10
93.7227272727
 20
44.8687960688
 30
0.0
 40
4.000000000000011
100
AcDbArc
 50
241.7804300808
 51
254.9399800336
  0
ARC
  5
12A
330
1F
100
AcDbEntity
  8
0
  6
Continuous
 62
     7
370
    25
100
AcDbCircle
 10
93.7227272727
 20
44.8687960688
 30
0.0
 40
4.000000000000013
100
AcDbArc
 50
285.0600199664
 51
296.3233240841
  0
CIRCLE
  5
12B
330
1F
100
AcDbEntity
  8
0
  6
Continuous
 62
     7
370
    25
100
AcDbCircle
 10
93.7227272727
 20
44.8687960688
 30
0.0
 40
8.173122935354435
  0
CIRCLE
  5
12C
330
1F
100
AcDbEntity
  8
0
  6
Continuous
 62
     7
370
    25
100
AcDbCircle
 10
93.7227272727
 20
44.8687960688
 30
0.0
 40
6.500000000000014
  0
CIRCLE
  5
12D
330
1F
100
AcDbEntity
  8
0
  6
Continuous
 62
     7
370
    25
100
AcDbCircle
 10
93.7227272727
 20
44.8687960688
 30
0.0
 40
5.500000000000014
  0
CIRCLE
  5
12E
330
1F
100
AcDbEntity
  8
0
  6
Continuous
 62
     7
370
    25
100
AcDbCircle
 10
93.7227272727
 20
44.8687960688
 30
0.0
 40
8.499999999999986
  0
SPLINE
  5
12F
330
1F
100
AcDbEntity
  8
0
  6
Continuous
 62
     7
370
    25
100
AcDbSpline
210
0.0
220
0.0
230
1.0
 70
    24
 71
     3
 72
    12
 73
     8
 74
     0
 42
0.000000001
 43
0.00000001
 40
0.0
 40
0.0
 40
0.0
 40
0.0
 40
0.2500000000000001
 40
0.2500000000000001
 40
0.5000000000000002
 40
0.5000000000000002
 40
1.0
 40
1.0
 40
1.0
 40
1.0
 10
97.97272727272724
 20
52.23001200096377
 30
0.0
 10
98.3334109221398
 20
52.02177119888313
 30
0.0
 10
98.69571236039313
 20
51.81259636597978
 30
0.0
 10
99.41242015748418
 20
51.39880492639896
 30
0.0
 10
99.76837695845244
 20
51.19329317154006
 30
0.0
 10
100.8299252681114
 20
50.58040796920067
 30
0.0
 10
101.5292192829282
 20
50.1766703815035
 30
0.0
 10
102.2227272727273
 20
49.77627335690783
 30
0.0
  0
SPLINE
  5
130
330
1F
100
AcDbEntity
  8
0
  6
Continuous
 62
     7
370
    25
100
AcDbSpline
210
0.0
220
0.0
230
1.0
 70
    24
 71
     3
 72
    12
 73
     8
 74
     0
 42
0.000000001
 43
0.00000001
 40
0.0
 40
0.0
 40
0.0
 40
0.0
 40
0.2500000000000001
 40
0.2500000000000001
 40
0.5000000000000001
 40
0.5000000000000001
 40
1.0
 40
1.0
 40
1.0
 40
1.0
 10
102.2227272727272
 20
44.86879606879602
 30
0.0
 10
102.2227272727272
 20
45.28412595946942
 30
0.0
 10
102.2227272727272
 20
45.70153729712938
 30
0.0
 10
102.2227272727272
 20
46.53701706476888
 30
0.0
 10
102.2227272727272
 20
46.95031860020346
 30
0.0
 10
102.2227272727272
 20
48.17878103859881
 30
0.0
 10
102.2227272727272
 20
48.98257888497092
 30
0.0
 10
102.2227272727272
 20
49.77627335690785
 30
0.0
  0
SPLINE
  5
131
330
1F
100
AcDbEntity
  8
0
  6
Continuous
 62
     7
370
    25
100
AcDbSpline
210
0.0
220
0.0
230
1.0
 70
    24
 71
     3
 72
    12
 73
     8
 74
     0
 42
0.000000001
 43
0.00000001
 40
0.0
 40
0.0
 40
0.0
 40
0.0
 40
0.25
 40
0.25
 40
0.5
 40
0.5
 40
1.0
 40
1.0
 40
1.0
 40
1.0
 10
89.47272727272724
 20
52.23001200096383
 30
0.0
 10
89.8334109221398
 20
52.43825280304448
 30
0.0
 10
90.19571236039314
 20
52.64742763594781
 30
0.0
 10
90.91242015748419
 20
53.06121907552863
 30
0.0
 10
91.26837695845244
 20
53.26673083038752
 30
0.0
 10
92.32992526811135
 20
53.87961603272689
 30
0.0
 10
93.02921928292817
 20
54.28335362042405
 30
0.0
 10
93.72272727272725
 20
54.68375064501971
 30
0.0
  0
SPLINE
  5
132
330
1F
100
AcDbEntity
  8
0
  6
Continuous
 62
     7
370
    25
100
AcDbSpline
210
0.0
220
0.0
230
1.0
 70
    24
 71
     3
 72
    10
 73
     6
 74
     0
 42
0.000000001
 43
0.00000001
 40
0.0
 40
0.0
 40
0.0
 40
0.0
 40
0.5
 40
0.5
 40
1.0
 40
1.0
 40
1.0
 40
1.0
 10
93.72272727272717
 20
54.68375064501972
 30
0.0
 10
94.41797120640487
 20
54.28235137275846
 30
0.0
 10
95.11829358592419
 20
53.87802005842345
 30
0.0
 10
96.53357967914744
 20
53.06090425152067
 30
0.0
 10
97.24865283852559
 20
52.64805657046342
 30
0.0
 10
97.97272727272724
 20
52.23001200096377
 30
0.0
  0
SPLINE
  5
133
330
1F
100
AcDbEntity
  8
0
  6
Continuous
 62
     7
370
    25
100
AcDbSpline
210
0.0
220
0.0
230
1.0
 70
    24
 71
     3
 72
    10
 73
     6
 74
     0
 42
0.000000001
 43
0.00000001
 40
0.0
 40
0.0
 40
0.0
 40
0.0
 40
0.5000000000000001
 40
0.5000000000000001
 40
1.0
 40
1.0
 40
1.0
 40
1.0
 10
102.2227272727272
 20
39.96131878068418
 30
0.0
 10
102.2227272727272
 20
40.76024004385935
 30
0.0
 10
102.2227272727272
 20
41.57736818682586
 30
0.0
 10
102.2227272727272
 20
43.21480555672223
 30
0.0
 10
102.2227272727272
 20
44.0387336032204
 30
0.0
 10
102.2227272727272
 20
44.86879606879602
 30
0.0
  0
SPLINE
  5
134
330
1F
100
AcDbEntity
  8
0
  6
Continuous
 62
     7
370
    25
100
AcDbSpline
210
0.0
220
0.0
230
1.0
 70
    24
 71
     3
 72
    10
 73
     6
 74
     0
 42
0.000000001
 43
0.00000001
 40
0.0
 40
0.0
 40
0.0
 40
0.0
 40
0.5
 40
0.5
 40
1.0
 40
1.0
 40
1.0
 40
1.0
 10
102.2227272727273
 20
39.96131878068422
 30
0.0
 10
101.5274833390496
 20
39.55991950842295
 30
0.0
 10
100.8271609595302
 20
39.15558819408795
 30
0.0
 10
99.41187486630699
 20
38.33847238718518
 30
0.0
 10
98.69680170692884
 20
37.92562470612794
 30
0.0
 10
97.97272727272718
 20
37.5075801366283
 30
0.0
  0
SPLINE
  5
135
330
1F
100
AcDbEntity
  8
0
  6
Continuous
 62
     7
370
    25
100
AcDbSpline
210
0.0
220
0.0
230
1.0
 70
    24
 71
     3
 72
    10
 73
     6
 74
     0
 42
0.000000001
 43
0.00000001
 40
0.0
 40
0.0
 40
0.0
 40
0.0
 40
0.5
 40
0.5
 40
1.0
 40
1.0
 40
1.0
 40
1.0
 10
93.72272727272721
 20
35.05384149257237
 30
0.0
 10
93.02748333904952
 20
35.45524076483365
 30
0.0
 10
92.3271609595302
 20
35.85957207916866
 30
0.0
 10
90.91187486630695
 20
36.67668788607144
 30
0.0
 10
90.19680170692881
 20
37.0895355671287
 30
0.0
 10
89.47272727272716
 20
37.50758013662836
 30
0.0
  0
SPLINE
  5
136
330
1F
100
AcDbEntity
  8
0
  6
Continuous
 62
     7
370
    25
100
AcDbSpline
210
0.0
220
0.0
230
1.0
 70
    24
 71
     3
 72
    12
 73
     8
 74
     0
 42
0.000000001
 43
0.00000001
 40
0.0
 40
0.0
 40
0.0
 40
0.0
 40
0.2500000000000004
 40
0.2500000000000004
 40
0.5000000000000006
 40
0.5000000000000006
 40
1.0
 40
1.0
 40
1.0
 40
1.0
 10
97.97272727272718
 20
37.5075801366283
 30
0.0
 10
97.6120436233146
 20
37.29933933454765
 30
0.0
 10
97.24974218506127
 20
37.0901645016443
 30
0.0
 10
96.53303438797023
 20
36.67637306206349
 30
0.0
 10
96.17707758700197
 20
36.47086130720459
 30
0.0
 10
95.11552927734303
 20
35.85797610486523
 30
0.0
 10
94.41623526252623
 20
35.45423851716805
 30
0.0
 10
93.72272727272713
 20
35.05384149257239
 30
0.0
  0
SPLINE
  5
137
330
1F
100
AcDbEntity
  8
0
  6
Continuous
 62
     7
370
    25
100
AcDbSpline
210
0.0
220
0.0
230
1.0
 70
    24
 71
     3
 72
    10
 73
     6
 74
     0
 42
0.000000001
 43
0.00000001
 40
0.0
 40
0.0
 40
0.0
 40
0.0
 40
0.5
 40
0.5
 40
1.0
 40
1.0
 40
1.0
 40
1.0
 10
85.22272727272717
 20
39.96131878068429
 30
0.0
 10
85.22272727272717
 20
40.76024004386176
 30
0.0
 10
85.22272727272718
 20
41.57736818683022
 30
0.0
 10
85.2227272727272
 20
43.21480555672628
 30
0.0
 10
85.22272727272721
 20
44.03873360322317
 30
0.0
 10
85.22272727272723
 20
44.86879606879614
 30
0.0
  0
SPLINE
  5
138
330
1F
100
AcDbEntity
  8
0
  6
Continuous
 62
     7
370
    25
100
AcDbSpline
210
0.0
220
0.0
230
1.0
 70
    24
 71
     3
 72
    12
 73
     8
 74
     0
 42
0.000000001
 43
0.00000001
 40
0.0
 40
0.0
 40
0.0
 40
0.0
 40
0.2499999999999999
 40
0.2499999999999999
 40
0.4999999999999999
 40
0.4999999999999999
 40
1.0
 40
1.0
 40
1.0
 40
1.0
 10
89.47272727272716
 20
37.50758013662836
 30
0.0
 10
89.11204362331459
 20
37.715820938709
 30
0.0
 10
88.74974218506127
 20
37.92499577161235
 30
0.0
 10
88.03303438797022
 20
38.33878721119318
 30
0.0
 10
87.67707758700196
 20
38.54429896605208
 30
0.0
 10
86.61552927734303
 20
39.15718416839147
 30
0.0
 10
85.91623526252624
 20
39.56092175608865
 30
0.0
 10
85.22272727272714
 20
39.96131878068432
 30
0.0
  0
SPLINE
  5
139
330
1F
100
AcDbEntity
  8
0
  6
Continuous
 62
     7
370
    25
100
AcDbSpline
210
0.0
220
0.0
230
1.0
 70
    24
 71
     3
 72
    10
 73
     6
 74
     0
 42
0.000000001
 43
0.00000001
 40
0.0
 40
0.0
 40
0.0
 40
0.0
 40
0.5
 40
0.5
 40
1.0
 40
1.0
 40
1.0
 40
1.0
 10
85.22272727272723
 20
49.77627335690794
 30
0.0
 10
85.9179712064049
 20
50.1776726291692
 30
0.0
 10
86.61829358592422
 20
50.58200394350419
 30
0.0
 10
88.03357967914746
 20
51.39911975040695
 30
0.0
 10
88.7486528385256
 20
51.81196743146419
 30
0.0
 10
89.47272727272724
 20
52.23001200096383
 30
0.0
  0
SPLINE
  5
13A
330
1F
100
AcDbEntity
  8
0
  6
Continuous
 62
     7
370
    25
100
AcDbSpline
210
0.0
220
0.0
230
1.0
 70
    24
 71
     3
 72
    12
 73
     8
 74
     0
 42
0.000000001
 43
0.00000001
 40
0.0
 40
0.0
 40
0.0
 40
0.0
 40
0.25
 40
0.25
 40
0.5
 40
0.5
 40
1.0
 40
1.0
 40
1.0
 40
1.0
 10
85.22272727272723
 20
44.86879606879614
 30
0.0
 10
85.22272727272723
 20
45.28412595946629
 30
0.0
 10
85.22272727272723
 20
45.70153729711684
 30
0.0
 10
85.22272727272724
 20
46.53701706476219
 30
0.0
 10
85.22272727272724
 20
46.95031860019894
 30
0.0
 10
85.22272727272725
 20
48.17878103859896
 30
0.0
 10
85.22272727272727
 20
48.98257888497178
 30
0.0
 10
85.22272727272727
 20
49.77627335690797
 30
0.0
  0
ENDSEC
  0
SECTION
  2
OBJECTS
  0
DICTIONARY
  5
C
330
0
100
AcDbDictionary
281
     1
  3
ACAD_GROUP
350
D
  3
ACAD_LAYOUT
350
1A
  3
ACAD_MLINESTYLE
350
17
  3
ACAD_PLOTSETTINGS
350
19
  3
ACAD_PLOTSTYLENAME
350
E
  3
ACAD_SCALELIST
350
47
  0
DICTIONARY
  5
D
102
{ACAD_REACTORS
330
C
102
}
330
C
100
AcDbDictionary
281
     1
  0
DICTIONARY
  5
1A
102
{ACAD_REACTORS
330
C
102
}
330
C
100
AcDbDictionary
281
     1
  3
Layout1
350
1E
  3
Layout2
350
26
  3
Model
350
22
  0
DICTIONARY
  5
17
102
{ACAD_REACTORS
330
C
102
}
330
C
100
AcDbDictionary
281
     1
  3
Standard
350
18
  0
DICTIONARY
  5
19
102
{ACAD_REACTORS
330
C
102
}
330
C
100
AcDbDictionary
281
     1
  0
ACDBDICTIONARYWDFLT
  5
E
102
{ACAD_REACTORS
330
C
102
}
330
C
100
AcDbDictionary
281
     1
  3
Normal
350
F
100
AcDbDictionaryWithDefault
340
F
  0
DICTIONARY
  5
47
102
{ACAD_REACTORS
330
C
102
}
330
C
100
AcDbDictionary
281
     1
  3
A0
350
48
  3
A1
350
49
  3
A2
350
4A
  3
A3
350
4B
  3
A4
350
4C
  3
A5
350
4D
  3
A6
350
4E
  3
A7
350
4F
  3
A8
350
50
  3
A9
350
51
  3
B0
350
52
  3
B1
350
53
  3
B2
350
54
  3
B3
350
55
  3
B4
350
56
  3
B5
350
57
  3
B6
350
58
  3
B7
350
59
  3
B8
350
5A
  3
B9
350
5B
  3
C0
350
5C
  3
C1
350
5D
  3
C2
350
5E
  3
C3
350
5F
  3
C4
350
60
  3
C5
350
61
  3
C6
350
62
  3
C7
350
63
  3
C8
350
64
  3
C9
350
65
  3
D0
350
66
  3
D1
350
67
  3
D2
350
68
  0
LAYOUT
  5
1E
102
{ACAD_REACTORS
330
1A
102
}
330
1A
100
AcDbPlotSettings
  1

  2
none_device
  4

  6

 40
0.0
 41
0.0
 42
0.0
 43
0.0
 44
0.0
 45
0.0
 46
0.0
 47
0.0
 48
0.0
 49
0.0
140
0.0
141
0.0
142
1.0
143
1.0
 70
   688
 72
     1
 73
     0
 74
     5
  7

 75
    16
147
1.0
148
0.0
149
0.0
100
AcDbLayout
  1
Layout1
 70
     1
 71
     1
 10
0.0
 20
0.0
 11
420.0
 21
297.0
 12
0.0
 22
0.0
 32
0.0
 14
1.0000000000E+20
 24
1.0000000000E+20
 34
1.0000000000E+20
 15
-1.0000000000E+20
 25
-1.0000000000E+20
 35
-1.0000000000E+20
146
0.0
 13
0.0
 23
0.0
 33
0.0
 16
1.0
 26
0.0
 36
0.0
 17
0.0
 27
1.0
 37
0.0
 76
     0
330
1B
  0
LAYOUT
  5
26
102
{ACAD_REACTORS
330
1A
102
}
330
1A
100
AcDbPlotSettings
  1

  2
none_device
  4

  6

 40
0.0
 41
0.0
 42
0.0
 43
0.0
 44
0.0
 45
0.0
 46
0.0
 47
0.0
 48
0.0
 49
0.0
140
0.0
141
0.0
142
1.0
143
1.0
 70
   688
 72
     1
 73
     0
 74
     5
  7

 75
    16
147
1.0
148
0.0
149
0.0
100
AcDbLayout
  1
Layout2
 70
     1
 71
     2
 10
0.0
 20
0.0
 11
0.0
 21
0.0
 12
0.0
 22
0.0
 32
0.0
 14
0.0
 24
0.0
 34
0.0
 15
0.0
 25
0.0
 35
0.0
146
0.0
 13
0.0
 23
0.0
 33
0.0
 16
1.0
 26
0.0
 36
0.0
 17
0.0
 27
1.0
 37
0.0
 76
     0
330
23
  0
LAYOUT
  5
22
102
{ACAD_REACTORS
330
1A
102
}
330
1A
100
AcDbPlotSettings
  1

  2
none_device
  4
Letter_(8.50_x_11.00_Inches)
  6

 40
6.35
 41
6.35
 42
6.35000508
 43
6.35000508
 44
215.9
 45
279.4
 46
0.0
 47
0.0
 48
0.0
 49
0.0
140
0.0
141
0.0
142
1.0
143
1.0
 70
  1712
 72
     1
 73
     0
 74
     0
  7

 75
     0
147
1.0
148
0.0
149
0.0
100
AcDbLayout
  1
Model
 70
     1
 71
     0
 10
0.0
 20
0.0
 11
148.5
 21
105.0
 12
0.0
 22
0.0
 32
0.0
 14
0.0
 24
0.0
 34
0.0
 15
148.5
 25
105.0
 35
0.0
146
0.0
 13
0.0
 23
0.0
 33
0.0
 16
1.0
 26
0.0
 36
0.0
 17
0.0
 27
1.0
 37
0.0
 76
     0
330
1F
331
29
  0
MLINESTYLE
  5
18
102
{ACAD_REACTORS
330
17
102
}
330
17
100
AcDbMlineStyle
  2
Standard
 70
     0
  3

 62
   256
 51
90.0
 52
90.0
 71
     2
 49
0.5
 62
   256
  6
BYLAYER
 49
-0.5
 62
   256
  6
BYLAYER
  0
ACDBPLACEHOLDER
  5
F
102
{ACAD_REACTORS
330
E
102
}
330
E
  0
SCALE
  5
48
102
{ACAD_REACTORS
330
47
102
}
330
47
100
AcDbScale
 70
     0
300
1:1
140
1.0
141
1.0
290
     1
  0
SCALE
  5
49
102
{ACAD_REACTORS
330
47
102
}
330
47
100
AcDbScale
 70
     0
300
1:2
140
1.0
141
2.0
290
     0
  0
SCALE
  5
4A
102
{ACAD_REACTORS
330
47
102
}
330
47
100
AcDbScale
 70
     0
300
1:4
140
1.0
141
4.0
290
     0
  0
SCALE
  5
4B
102
{ACAD_REACTORS
330
47
102
}
330
47
100
AcDbScale
 70
     0
300
1:5
140
1.0
141
5.0
290
     0
  0
SCALE
  5
4C
102
{ACAD_REACTORS
330
47
102
}
330
47
100
AcDbScale
 70
     0
300
1:8
140
1.0
141
8.0
290
     0
  0
SCALE
  5
4D
102
{ACAD_REACTORS
330
47
102
}
330
47
100
AcDbScale
 70
     0
300
1:10
140
1.0
141
10.0
290
     0
  0
SCALE
  5
4E
102
{ACAD_REACTORS
330
47
102
}
330
47
100
AcDbScale
 70
     0
300
1:16
140
1.0
141
16.0
290
     0
  0
SCALE
  5
4F
102
{ACAD_REACTORS
330
47
102
}
330
47
100
AcDbScale
 70
     0
300
1:20
140
1.0
141
20.0
290
     0
  0
SCALE
  5
50
102
{ACAD_REACTORS
330
47
102
}
330
47
100
AcDbScale
 70
     0
300
1:30
140
1.0
141
30.0
290
     0
  0
SCALE
  5
51
102
{ACAD_REACTORS
330
47
102
}
330
47
100
AcDbScale
 70
     0
300
1:40
140
1.0
141
40.0
290
     0
  0
SCALE
  5
52
102
{ACAD_REACTORS
330
47
102
}
330
47
100
AcDbScale
 70
     0
300
1:50
140
1.0
141
50.0
290
     0
  0
SCALE
  5
53
102
{ACAD_REACTORS
330
47
102
}
330
47
100
AcDbScale
 70
     0
300
1:100
140
1.0
141
100.0
290
     0
  0
SCALE
  5
54
102
{ACAD_REACTORS
330
47
102
}
330
47
100
AcDbScale
 70
     0
300
2:1
140
2.0
141
1.0
290
     0
  0
SCALE
  5
55
102
{ACAD_REACTORS
330
47
102
}
330
47
100
AcDbScale
 70
     0
300
4:1
140
4.0
141
1.0
290
     0
  0
SCALE
  5
56
102
{ACAD_REACTORS
330
47
102
}
330
47
100
AcDbScale
 70
     0
300
8:1
140
8.0
141
1.0
290
     0
  0
SCALE
  5
57
102
{ACAD_REACTORS
330
47
102
}
330
47
100
AcDbScale
 70
     0
300
10:1
140
10.0
141
1.0
290
     0
  0
SCALE
  5
58
102
{ACAD_REACTORS
330
47
102
}
330
47
100
AcDbScale
 70
     0
300
100:1
140
100.0
141
1.0
290
     0
  0
SCALE
  5
59
102
{ACAD_REACTORS
330
47
102
}
330
47
100
AcDbScale
 70
     0
300
1/128" = 1'-0"
140
0.0078125
141
12.0
290
     0
  0
SCALE
  5
5A
102
{ACAD_REACTORS
330
47
102
}
330
47
100
AcDbScale
 70
     0
300
1/64" = 1'-0"
140
0.015625
141
12.0
290
     0
  0
SCALE
  5
5B
102
{ACAD_REACTORS
330
47
102
}
330
47
100
AcDbScale
 70
     0
300
1/32" = 1'-0"
140
0.03125
141
12.0
290
     0
  0
SCALE
  5
5C
102
{ACAD_REACTORS
330
47
102
}
330
47
100
AcDbScale
 70
     0
300
1/16" = 1'-0"
140
0.0625
141
12.0
290
     0
  0
SCALE
  5
5D
102
{ACAD_REACTORS
330
47
102
}
330
47
100
AcDbScale
 70
     0
300
3/32" = 1'-0"
140
0.09375
141
12.0
290
     0
  0
SCALE
  5
5E
102
{ACAD_REACTORS
330
47
102
}
330
47
100
AcDbScale
 70
     0
300
1/8" = 1'-0"
140
0.125
141
12.0
290
     0
  0
SCALE
  5
5F
102
{ACAD_REACTORS
330
47
102
}
330
47
100
AcDbScale
 70
     0
300
3/16" = 1'-0"
140
0.1875
141
12.0
290
     0
  0
SCALE
  5
60
102
{ACAD_REACTORS
330
47
102
}
330
47
100
AcDbScale
 70
     0
300
1/4" = 1'-0"
140
0.25
141
12.0
290
     0
  0
SCALE
  5
61
102
{ACAD_REACTORS
330
47
102
}
330
47
100
AcDbScale
 70
     0
300
3/8" = 1'-0"
140
0.375
141
12.0
290
     0
  0
SCALE
  5
62
102
{ACAD_REACTORS
330
47
102
}
330
47
100
AcDbScale
 70
     0
300
1/2" = 1'-0"
140
0.5
141
12.0
290
     0
  0
SCALE
  5
63
102
{ACAD_REACTORS
330
47
102
}
330
47
100
AcDbScale
 70
     0
300
3/4" = 1'-0"
140
0.75
141
12.0
290
     0
  0
SCALE
  5
64
102
{ACAD_REACTORS
330
47
102
}
330
47
100
AcDbScale
 70
     0
300
1" = 1'-0"
140
1.0
141
12.0
290
     0
  0
SCALE
  5
65
102
{ACAD_REACTORS
330
47
102
}
330
47
100
AcDbScale
 70
     0
300
1-1/2" = 1'-0"
140
1.5
141
12.0
290
     0
  0
SCALE
  5
66
102
{ACAD_REACTORS
330
47
102
}
330
47
100
AcDbScale
 70
     0
300
3" = 1'-0"
140
3.0
141
12.0
290
     0
  0
SCALE
  5
67
102
{ACAD_REACTORS
330
47
102
}
330
47
100
AcDbScale
 70
     0
300
6" = 1'-0"
140
6.0
141
12.0
290
     0
  0
SCALE
  5
68
102
{ACAD_REACTORS
330
47
102
}
330
47
100
AcDbScale
 70
     0
300
1'-0" = 1'-0"
140
12.0
141
12.0
290
     0
  0
ENDSEC
  0
EOF
