  0
SECTION
  2
HEADER
  9
$ACADVER
  1
AC1015
  9
$ACADMAINTVER
 70
     6
  9
$DWGCODEPAGE
  3
DOS932
  9
$INSBASE
 10
0.0
 20
0.0
 30
0.0
  9
$EXTMIN
 10
0.0
 20
0.0
 30
0.0
  9
$EXTMAX
 10
297.0
 20
210.0
 30
0.0
  9
$LIMMIN
 10
0.0
 20
0.0
  9
$LIMMAX
 10
297.0
 20
210.0
  9
$ORTHOMODE
 70
     0
  9
$REGENMODE
 70
     1
  9
$FILLMODE
 70
     1
  9
$QTEXTMODE
 70
     0
  9
$MIRRTEXT
 70
     1
  9
$LTSCALE
 40
1.0
  9
$ATTMODE
 70
     1
  9
$TEXTSIZE
 40
3.5
  9
$TRACEWID
 40
1.0
  9
$TEXTSTYLE
  7
Standard
  9
$CLAYER
  8
0
  9
$CELTYPE
  6
ByLayer
  9
$CECOLOR
 62
   256
  9
$CELTSCALE
 40
1.0
  9
$DISPSILH
 70
     0
  9
$DIMSCALE
 40
1.0
  9
$DIMASZ
 40
3.556
  9
$DIMEXO
 40
1.0
  9
$DIMDLI
 40
3.75
  9
$DIMRND
 40
0.0
  9
$DIMDLE
 40
0.0
  9
$DIMEXE
 40
1.0
  9
$DIMTP
 40
0.0
  9
$DIMTM
 40
0.0
  9
$DIMTXT
 40
3.5
  9
$DIMCEN
 40
2.5
  9
$DIMTSZ
 40
0.0
  9
$DIMTOL
 70
     0
  9
$DIMLIM
 70
     0
  9
$DIMTIH
 70
     1
  9
$DIMTOH
 70
     1
  9
$DIMSE1
 70
     0
  9
$DIMSE2
 70
     0
  9
$DIMTAD
 70
     1
  9
$DIMZIN
 70
     1
  9
$DIMBLK
  1

  9
$DIMASO
 70
     1
  9
$DIMSHO
 70
     1
  9
$DIMPOST
  1

  9
$DIMAPOST
  1

  9
$DIMALT
 70
     0
  9
$DIMALTD
 70
     3
  9
$DIMALTF
 40
0.0393700787
  9
$DIMLFAC
 40
1.0
  9
$DIMTOFL
 70
     1
  9
$DIMTVP
 40
0.0
  9
$DIMTIX
 70
     0
  9
$DIMSOXD
 70
     0
  9
$DIMSAH
 70
     0
  9
$DIMBLK1
  1

  9
$DIMBLK2
  1

  9
$DIMSTYLE
  2
ISO-25
  9
$DIMCLRD
 70
     0
  9
$DIMCLRE
 70
     0
  9
$DIMCLRT
 70
     0
  9
$DIMTFAC
 40
1.0
  9
$DIMGAP
 40
1.524
  9
$DIMJUST
 70
     0
  9
$DIMSD1
 70
     0
  9
$DIMSD2
 70
     0
  9
$DIMTOLJ
 70
     0
  9
$DIMTZIN
 70
     1
  9
$DIMALTZ
 70
     0
  9
$DIMALTTZ
 70
     0
  9
$DIMUPT
 70
     0
  9
$DIMDEC
 70
     2
  9
$DIMTDEC
 70
     2
  9
$DIMALTU
 70
     2
  9
$DIMALTTD
 70
     3
  9
$DIMTXSTY
  7
Standard
  9
$DIMAUNIT
 70
     0
  9
$DIMADEC
 70
     2
  9
$DIMALTRND
 40
0.0
  9
$DIMAZIN
 70
     0
  9
$DIMDSEP
 70
    44
  9
$DIMATFIT
 70
     3
  9
$DIMFRAC
 70
     0
  9
$DIMLDRBLK
  1

  9
$DIMLUNIT
 70
     2
  9
$DIMLWD
 70
    -2
  9
$DIMLWE
 70
    -2
  9
$DIMTMOVE
 70
     0
  9
$LUNITS
 70
     2
  9
$LUPREC
 70
     2
  9
$SKETCHINC
 40
1.0
  9
$FILLETRAD
 40
10.0
  9
$AUNITS
 70
     0
  9
$AUPREC
 70
     2
  9
$MENU
  1
.
  9
$ELEVATION
 40
0.0
  9
$PELEVATION
 40
0.0
  9
$THICKNESS
 40
0.0
  9
$LIMCHECK
 70
     0
  9
$CHAMFERA
 40
0.0
  9
$CHAMFERB
 40
0.0
  9
$CHAMFERC
 40
0.0
  9
$CHAMFERD
 40
0.0
  9
$SKPOLY
 70
     0
  9
$TDCREATE
 40
2459241.623080255
  9
$TDUCREATE
 40
2459241.248080255
  9
$TDUPDATE
 40
2459241.623080717
  9
$TDUUPDATE
 40
2459241.248080717
  9
$TDINDWG
 40
0.0000000116
  9
$TDUSRTIMER
 40
0.0000000116
  9
$USRTIMER
 70
     1
  9
$ANGBASE
 50
0.0
  9
$ANGDIR
 70
     0
  9
$PDMODE
 70
     0
  9
$PDSIZE
 40
-1.0
  9
$PLINEWID
 40
0.0
  9
$SPLFRAME
 70
     0
  9
$SPLINETYPE
 70
     6
  9
$SPLINESEGS
 70
     8
  9
$HANDSEED
  5
EC
  9
$SURFTAB1
 70
     6
  9
$SURFTAB2
 70
     6
  9
$SURFTYPE
 70
     6
  9
$SURFU
 70
     6
  9
$SURFV
 70
     6
  9
$UCSBASE
  2

  9
$UCSNAME
  2

  9
$UCSORG
 10
0.0
 20
0.0
 30
0.0
  9
$UCSXDIR
 10
1.0
 20
0.0
 30
0.0
  9
$UCSYDIR
 10
0.0
 20
1.0
 30
0.0
  9
$UCSORTHOREF
  2

  9
$UCSORTHOVIEW
 70
     0
  9
$UCSORGTOP
 10
0.0
 20
0.0
 30
0.0
  9
$UCSORGBOTTOM
 10
0.0
 20
0.0
 30
0.0
  9
$UCSORGLEFT
 10
0.0
 20
0.0
 30
0.0
  9
$UCSORGRIGHT
 10
0.0
 20
0.0
 30
0.0
  9
$UCSORGFRONT
 10
0.0
 20
0.0
 30
0.0
  9
$UCSORGBACK
 10
0.0
 20
0.0
 30
0.0
  9
$PUCSBASE
  2

  9
$PUCSNAME
  2

  9
$PUCSORG
 10
0.0
 20
0.0
 30
0.0
  9
$PUCSXDIR
 10
1.0
 20
0.0
 30
0.0
  9
$PUCSYDIR
 10
0.0
 20
1.0
 30
0.0
  9
$PUCSORTHOREF
  2

  9
$PUCSORTHOVIEW
 70
     0
  9
$PUCSORGTOP
 10
0.0
 20
0.0
 30
0.0
  9
$PUCSORGBOTTOM
 10
0.0
 20
0.0
 30
0.0
  9
$PUCSORGLEFT
 10
0.0
 20
0.0
 30
0.0
  9
$PUCSORGRIGHT
 10
0.0
 20
0.0
 30
0.0
  9
$PUCSORGFRONT
 10
0.0
 20
0.0
 30
0.0
  9
$PUCSORGBACK
 10
0.0
 20
0.0
 30
0.0
  9
$USERI1
 70
     0
  9
$USERI2
 70
     0
  9
$USERI3
 70
     0
  9
$USERI4
 70
     0
  9
$USERI5
 70
     0
  9
$USERR1
 40
0.0
  9
$USERR2
 40
0.0
  9
$USERR3
 40
0.0
  9
$USERR4
 40
0.0
  9
$USERR5
 40
0.0
  9
$WORLDVIEW
 70
     1
  9
$SHADEDGE
 70
     3
  9
$SHADEDIF
 70
    70
  9
$TILEMODE
 70
     1
  9
$MAXACTVP
 70
    64
  9
$PINSBASE
 10
0.0
 20
0.0
 30
0.0
  9
$PLIMCHECK
 70
     0
  9
$PEXTMIN
 10
1.0000000000E+20
 20
1.0000000000E+20
 30
1.0000000000E+20
  9
$PEXTMAX
 10
-1.0000000000E+20
 20
-1.0000000000E+20
 30
-1.0000000000E+20
  9
$PLIMMIN
 10
0.0
 20
0.0
  9
$PLIMMAX
 10
420.0
 20
297.0
  9
$UNITMODE
 70
     0
  9
$VISRETAIN
 70
     1
  9
$PLINEGEN
 70
     0
  9
$PSLTSCALE
 70
     1
  9
$TREEDEPTH
 70
  3020
  9
$CMLSTYLE
  2
Standard
  9
$CMLJUST
 70
     0
  9
$CMLSCALE
 40
20.0
  9
$PROXYGRAPHICS
 70
     1
  9
$MEASUREMENT
 70
     1
  9
$CELWEIGHT
370
    -1
  9
$ENDCAPS
280
     0
  9
$JOINSTYLE
280
     0
  9
$LWDISPLAY
290
     1
  9
$INSUNITS
 70
     4
  9
$HYPERLINKBASE
  1

  9
$STYLESHEET
  1

  9
$XEDIT
290
     1
  9
$CEPSNTYPE
380
     0
  9
$PSTYLEMODE
290
     1
  9
$FINGERPRINTGUID
  2
{D52DFD3F-7011-4906-8A92-8CB9B1E88409}
  9
$VERSIONGUID
  2
{FAEB1C32-E019-11D5-929B-00C0DF256EC4}
  9
$EXTNAMES
290
     1
  9
$PSVPSCALE
 40
0.0
  9
$OLESTARTUP
290
     0
  0
ENDSEC
  0
SECTION
  2
CLASSES
  0
CLASS
  1
ACDBDICTIONARYWDFLT
  2
AcDbDictionaryWithDefault
  3
ObjectDBX Classes
 90
        0
280
     0
281
     0
  0
CLASS
  1
VISUALSTYLE
  2
AcDbVisualStyle
  3
ObjectDBX Classes
 90
     4095
280
     0
281
     0
  0
CLASS
  1
MATERIAL
  2
AcDbMaterial
  3
ObjectDBX Classes
 90
     1153
280
     0
281
     0
  0
CLASS
  1
SCALE
  2
AcDbScale
  3
ObjectDBX Classes
 90
     1153
280
     0
281
     0
  0
CLASS
  1
TABLESTYLE
  2
AcDbTableStyle
  3
ObjectDBX Classes
 90
     4095
280
     0
281
     0
  0
CLASS
  1
MLEADERSTYLE
  2
AcDbMLeaderStyle
  3
ACDB_MLEADERSTYLE_CLASS
 90
     4095
280
     0
281
     0
  0
CLASS
  1
SUN
  2
AcDbSun
  3
SCENEOE
 90
     1153
280
     0
281
     0
  0
CLASS
  1
ACDBPLACEHOLDER
  2
AcDbPlaceHolder
  3
ObjectDBX Classes
 90
        0
280
     0
281
     0
  0
CLASS
  1
LAYOUT
  2
AcDbLayout
  3
ObjectDBX Classes
 90
        0
280
     0
281
     0
  0
ENDSEC
  0
SECTION
  2
TABLES
  0
TABLE
  2
VPORT
  5
8
330
0
100
AcDbSymbolTable
 70
     1
  0
VPORT
  5
29
330
8
100
AcDbSymbolTableRecord
100
AcDbViewportTableRecord
  2
*Active
 70
     0
 10
0.0
 20
0.0
 11
1.0
 21
1.0
 12
148.5
 22
105.0
 13
0.0
 23
0.0
 14
10.0
 24
10.0
 15
10.0
 25
10.0
 16
0.0
 26
0.0
 36
1.0
 17
0.0
 27
0.0
 37
0.0
 40
210.0
 41
1.4142857143
 42
50.0
 43
0.0
 44
0.0
 50
0.0
 51
0.0
 71
     0
 72
  2000
 73
     1
 74
     3
 75
     0
 76
     0
 77
     0
 78
     0
281
     0
 65
     1
110
0.0
120
0.0
130
0.0
111
1.0
121
0.0
131
0.0
112
0.0
122
1.0
132
0.0
 79
     0
146
0.0
  0
ENDTAB
  0
TABLE
  2
LTYPE
  5
5
330
0
100
AcDbSymbolTable
 70
     6
  0
LTYPE
  5
14
330
5
100
AcDbSymbolTableRecord
100
AcDbLinetypeTableRecord
  2
ByBlock
 70
     0
  3

 72
    65
 73
     0
 40
0.0
  0
LTYPE
  5
15
330
5
100
AcDbSymbolTableRecord
100
AcDbLinetypeTableRecord
  2
ByLayer
 70
     0
  3

 72
    65
 73
     0
 40
0.0
  0
LTYPE
  5
16
330
5
100
AcDbSymbolTableRecord
100
AcDbLinetypeTableRecord
  2
Continuous
 70
     0
  3
Solid line
 72
    65
 73
     0
 40
0.0
  0
LTYPE
  5
6E
330
5
100
AcDbSymbolTableRecord
100
AcDbLinetypeTableRecord
  2
HIDDEN
 70
     0
  3
Hidden __ __ __ __ __ __ __ __ __ __ __ __ __ __
 72
    65
 73
     2
 40
1.905
 49
1.27
 74
     0
 49
-0.635
 74
     0
  0
LTYPE
  5
6F
330
5
100
AcDbSymbolTableRecord
100
AcDbLinetypeTableRecord
  2
PHANTOM
 70
     0
  3
Phantom ______  __  __  ______  __  __  ______
 72
    65
 73
     6
 40
12.7
 49
6.35
 74
     0
 49
-1.27
 74
     0
 49
1.27
 74
     0
 49
-1.27
 74
     0
 49
1.27
 74
     0
 49
-1.27
 74
     0
  0
LTYPE
  5
70
330
5
100
AcDbSymbolTableRecord
100
AcDbLinetypeTableRecord
  2
CENTER
 70
     0
  3
Center ____ _ ____ _ ____ _ ____ _ ____ _ ____
 72
    65
 73
     4
 40
10.16
 49
6.35
 74
     0
 49
-1.27
 74
     0
 49
1.27
 74
     0
 49
-1.27
 74
     0
  0
LTYPE
  5
71
330
5
100
AcDbSymbolTableRecord
100
AcDbLinetypeTableRecord
  2
CENTERX2
 70
     0
  3
Center (2x) ________  __  ________  __  _____
 72
    65
 73
     4
 40
20.32
 49
12.7
 74
     0
 49
-2.54
 74
     0
 49
2.54
 74
     0
 49
-2.54
 74
     0
  0
LTYPE
  5
72
330
5
100
AcDbSymbolTableRecord
100
AcDbLinetypeTableRecord
  2
DOT2
 70
     0
  3
Dot (.5x) ........................................
 72
    65
 73
     2
 40
0.635
 49
0.0
 74
     0
 49
-0.635
 74
     0
  0
ENDTAB
  0
TABLE
  2
LAYER
  5
2
330
0
100
AcDbSymbolTable
 70
     1
  0
LAYER
  5
10
330
2
100
AcDbSymbolTableRecord
100
AcDbLayerTableRecord
  2
0
 70
     0
 62
     7
  6
Continuous
370
    -3
390
F
  0
ENDTAB
  0
TABLE
  2
STYLE
  5
3
330
0
100
AcDbSymbolTable
 70
     2
  0
STYLE
  5
11
330
3
100
AcDbSymbolTableRecord
100
AcDbTextStyleTableRecord
  2
Standard
 70
     0
 40
0.0
 41
1.0
 50
0.0
 71
     0
 42
3.5
  3
txt
  4
bigfont
  0
STYLE
  5
73
330
3
100
AcDbSymbolTableRecord
100
AcDbTextStyleTableRecord
  2
SLDTEXTSTYLE0
 70
     0
 40
0.0
 41
0.75
 50
0.0
 71
     0
 42
3.5
  3
TXT
  4
bigfont
  0
ENDTAB
  0
TABLE
  2
VIEW
  5
6
330
0
100
AcDbSymbolTable
 70
     0
  0
ENDTAB
  0
TABLE
  2
UCS
  5
7
330
0
100
AcDbSymbolTable
 70
     0
  0
ENDTAB
  0
TABLE
  2
APPID
  5
9
330
0
100
AcDbSymbolTable
 70
     1
  0
APPID
  5
12
330
9
100
AcDbSymbolTableRecord
100
AcDbRegAppTableRecord
  2
ACAD
 70
     0
  0
ENDTAB
  0
TABLE
  2
DIMSTYLE
  5
A
330
0
100
AcDbSymbolTable
 70
     1
100
AcDbDimStyleTable
  0
DIMSTYLE
105
27
330
A
100
AcDbSymbolTableRecord
100
AcDbDimStyleTableRecord
  2
ISO-25
 70
     0
 41
2.5
 42
0.625
 43
3.75
 44
1.25
 73
     0
 74
     0
 77
     1
 78
     8
140
2.5
141
2.5
143
0.0393700787
147
0.625
171
     3
172
     1
178
     0
271
     2
272
     2
274
     3
278
    44
283
     0
284
     8
340
11
  0
ENDTAB
  0
TABLE
  2
BLOCK_RECORD
  5
1
330
0
100
AcDbSymbolTable
 70
     1
  0
BLOCK_RECORD
  5
1F
330
1
100
AcDbSymbolTableRecord
100
AcDbBlockTableRecord
  2
*Model_Space
340
22
  0
BLOCK_RECORD
  5
1B
330
1
100
AcDbSymbolTableRecord
100
AcDbBlockTableRecord
  2
*Paper_Space
340
1E
  0
BLOCK_RECORD
  5
23
330
1
100
AcDbSymbolTableRecord
100
AcDbBlockTableRecord
  2
*Paper_Space0
340
26
  0
ENDTAB
  0
ENDSEC
  0
SECTION
  2
BLOCKS
  0
BLOCK
  5
20
330
1F
100
AcDbEntity
  8
0
100
AcDbBlockBegin
  2
*Model_Space
 70
     0
 10
0.0
 20
0.0
 30
0.0
  3
*Model_Space
  1

  0
ENDBLK
  5
21
330
1F
100
AcDbEntity
  8
0
100
AcDbBlockEnd
  0
BLOCK
  5
1C
330
1B
100
AcDbEntity
 67
     1
  8
0
100
AcDbBlockBegin
  2
*Paper_Space
 70
     0
 10
0.0
 20
0.0
 30
0.0
  3
*Paper_Space
  1

  0
ENDBLK
  5
1D
330
1B
100
AcDbEntity
 67
     1
  8
0
100
AcDbBlockEnd
  0
BLOCK
  5
24
330
23
100
AcDbEntity
  8
0
100
AcDbBlockBegin
  2
*Paper_Space0
 70
     0
 10
0.0
 20
0.0
 30
0.0
  3
*Paper_Space0
  1

  0
ENDBLK
  5
25
330
23
100
AcDbEntity
  8
0
100
AcDbBlockEnd
  0
ENDSEC
  0
SECTION
  2
ENTITIES
  0
MTEXT
  5
74
330
1F
100
AcDbEntity
  8
0
  6
Continuous
 62
     7
370
     0
100
AcDbMText
 10
123.7643734644
 20
96.8285487013
 30
0.0
 40
3.5
 41
0.0
 71
     1
 72
     1
  1
AS-1033R
  7
SLDTEXTSTYLE0
 73
     1
 44
1.0
  0
LINE
  5
75
330
1F
100
AcDbEntity
  8
0
  6
Continuous
 62
     7
370
    25
100
AcDbLine
 10
67.8742973329
 20
86.5995399282
 30
0.0
 11
66.7921375921
 21
84.7251842752
 31
0.0
  0
LINE
  5
76
330
1F
100
AcDbEntity
  8
0
  6
Continuous
 62
     7
370
    25
100
AcDbLine
 10
66.7921375921
 20
64.2251842752
 30
0.0
 11
67.8742973329
 21
62.3508286222
 31
0.0
  0
LINE
  5
77
330
1F
100
AcDbEntity
  8
0
  6
Continuous
 62
     7
370
    25
100
AcDbLine
 10
120.7099778513
 20
62.3508286222
 30
0.0
 11
121.7921375921
 21
64.2251842752
 31
0.0
  0
LINE
  5
78
330
1F
100
AcDbEntity
  8
0
  6
Continuous
 62
     7
370
    25
100
AcDbLine
 10
121.7921375921
 20
84.7251842752
 30
0.0
 11
120.7099778513
 21
86.5995399282
 31
0.0
  0
LINE
  5
79
330
1F
100
AcDbEntity
  8
0
  6
Continuous
 62
     7
370
    25
100
AcDbLine
 10
100.3894608243
 20
65.3819175354
 30
0.0
 11
100.3894608243
 21
65.3732572814
 31
0.0
  0
LINE
  5
7A
330
1F
100
AcDbEntity
  8
0
  6
Continuous
 62
     7
370
    25
100
AcDbLine
 10
101.6321375921
 20
75.7711842752
 30
0.0
 11
101.6321375921
 21
75.0151842752
 31
0.0
  0
LINE
  5
7B
330
1F
100
AcDbEntity
  8
0
  6
Continuous
 62
     7
370
    25
100
AcDbLine
 10
103.7921375921
 20
74.4751842752
 30
0.0
 11
101.6321375921
 21
75.7711842752
 31
0.0
  0
LINE
  5
7C
330
1F
100
AcDbEntity
  8
0
  6
Continuous
 62
     7
370
    25
100
AcDbLine
 10
101.6321375921
 20
73.1791842752
 30
0.0
 11
103.7921375921
 21
74.4751842752
 31
0.0
  0
LINE
  5
7D
330
1F
100
AcDbEntity
  8
0
  6
Continuous
 62
     7
370
    25
100
AcDbLine
 10
101.6321375921
 20
73.9351842752
 30
0.0
 11
101.6321375921
 21
73.1791842752
 31
0.0
  0
LINE
  5
7E
330
1F
100
AcDbEntity
  8
0
  6
Continuous
 62
     7
370
    25
100
AcDbLine
 10
97.3121375921
 20
73.9351842752
 30
0.0
 11
101.6321375921
 21
73.9351842752
 31
0.0
  0
LINE
  5
7F
330
1F
100
AcDbEntity
  8
0
  6
Continuous
 62
     7
370
    25
100
AcDbLine
 10
97.3121375921
 20
74.4751842752
 30
0.0
 11
97.3121375921
 21
73.9351842752
 31
0.0
  0
LINE
  5
80
330
1F
100
AcDbEntity
  8
0
  6
Continuous
 62
     7
370
    25
100
AcDbLine
 10
97.3121375921
 20
75.0151842752
 30
0.0
 11
97.3121375921
 21
74.4751842752
 31
0.0
  0
LINE
  5
81
330
1F
100
AcDbEntity
  8
0
  6
Continuous
 62
     7
370
    25
100
AcDbLine
 10
101.6321375921
 20
75.0151842752
 30
0.0
 11
97.3121375921
 21
75.0151842752
 31
0.0
  0
LINE
  5
82
330
1F
100
AcDbEntity
  8
0
  6
Continuous
 62
     7
370
    25
100
AcDbLine
 10
67.8742973329
 20
86.5995399282
 30
0.0
 11
120.7099778513
 21
86.5995399282
 31
0.0
  0
SPLINE
  5
83
330
1F
100
AcDbEntity
  8
0
  6
Continuous
 62
     7
370
    25
100
AcDbSpline
210
0.0
220
0.0
230
1.0
 70
     8
 71
     3
 72
    16
 73
    12
 74
     0
 42
0.000000001
 43
0.00000001
 40
0.0
 40
0.0
 40
0.0
 40
0.0
 40
0.25
 40
0.25
 40
0.5
 40
0.5
 40
0.625
 40
0.625
 40
0.7499999999999999
 40
0.7499999999999999
 40
1.0
 40
1.0
 40
1.0
 40
1.0
 10
120.7099778513315
 20
80.5373621016753
 30
0.0
 10
120.9957196486142
 20
81.03228141241493
 30
0.0
 10
121.2312226487694
 20
81.53080906660477
 30
0.0
 10
121.5574707659359
 20
82.53826144237806
 30
0.0
 10
121.6471397309068
 20
83.04726345733609
 30
0.0
 10
121.648124637309
 20
83.82035629443115
 30
0.0
 10
121.6262040604992
 20
84.07926657515912
 30
0.0
 10
121.5407253427649
 20
84.59141839901
 30
0.0
 10
121.4772539542984
 20
84.8457772567353
 30
0.0
 10
121.2321617171
 20
85.60432531945409
 30
0.0
 10
120.9960758495428
 20
86.10400365932044
 30
0.0
 10
120.7099778513314
 20
86.59953992816641
 30
0.0
  0
LINE
  5
84
330
1F
100
AcDbEntity
  8
0
  6
Continuous
 62
     7
370
    25
100
AcDbLine
 10
67.8742973329
 20
80.5373621017
 30
0.0
 11
120.7099778513
 21
80.5373621017
 31
0.0
  0
SPLINE
  5
85
330
1F
100
AcDbEntity
  8
0
  6
Continuous
 62
     7
370
    25
100
AcDbSpline
210
0.0
220
0.0
230
1.0
 70
     8
 71
     3
 72
    16
 73
    12
 74
     0
 42
0.000000001
 43
0.00000001
 40
0.0
 40
0.0
 40
0.0
 40
0.0
 40
0.25
 40
0.25
 40
0.5
 40
0.5
 40
0.625
 40
0.625
 40
0.7499999999999999
 40
0.7499999999999999
 40
1.0
 40
1.0
 40
1.0
 40
1.0
 10
67.87429733294353
 20
80.5373621016753
 30
0.0
 10
67.58855553566086
 20
81.03228141241493
 30
0.0
 10
67.35305253550564
 20
81.53080906660477
 30
0.0
 10
67.02680441833918
 20
82.53826144237806
 30
0.0
 10
66.93713545336827
 20
83.04726345733609
 30
0.0
 10
66.93615054696603
 20
83.82035629443115
 30
0.0
 10
66.95807112377582
 20
84.07926657515912
 30
0.0
 10
67.0435498415102
 20
84.59141839901
 30
0.0
 10
67.10702122997668
 20
84.8457772567353
 30
0.0
 10
67.35211346717506
 20
85.60432531945409
 30
0.0
 10
67.58819933473225
 20
86.10400365932044
 30
0.0
 10
67.8742973329437
 20
86.59953992816641
 30
0.0
  0
LINE
  5
86
330
1F
100
AcDbEntity
  8
0
  6
Continuous
 62
     7
370
    25
100
AcDbLine
 10
67.8742973329
 20
68.4130064487
 30
0.0
 11
120.7099778513
 21
68.4130064487
 31
0.0
  0
SPLINE
  5
87
330
1F
100
AcDbEntity
  8
0
  6
Continuous
 62
     7
370
    25
100
AcDbSpline
210
0.0
220
0.0
230
1.0
 70
     8
 71
     3
 72
    16
 73
    12
 74
     0
 42
0.000000001
 43
0.00000001
 40
0.0
 40
0.0
 40
0.0
 40
0.0
 40
0.2500000000000001
 40
0.2500000000000001
 40
0.5000000000000001
 40
0.5000000000000001
 40
0.6250000000000001
 40
0.6250000000000001
 40
0.7500000000000002
 40
0.7500000000000002
 40
1.0
 40
1.0
 40
1.0
 40
1.0
 10
120.7099778513315
 20
62.35082862220207
 30
0.0
 10
120.9957196486142
 20
62.84574793294171
 30
0.0
 10
121.2312226487694
 20
63.34427558713156
 30
0.0
 10
121.5574707659359
 20
64.35172796290482
 30
0.0
 10
121.6471397309068
 20
64.86072997786286
 30
0.0
 10
121.648124637309
 20
65.63382281495791
 30
0.0
 10
121.6262040604992
 20
65.8927330956859
 30
0.0
 10
121.5407253427649
 20
66.40488491953677
 30
0.0
 10
121.4772539542984
 20
66.65924377726206
 30
0.0
 10
121.2321617171
 20
67.41779183998086
 30
0.0
 10
120.9960758495428
 20
67.91747017984721
 30
0.0
 10
120.7099778513314
 20
68.41300644869317
 30
0.0
  0
LINE
  5
88
330
1F
100
AcDbEntity
  8
0
  6
Continuous
 62
     7
370
    25
100
AcDbLine
 10
67.8742973329
 20
62.3508286222
 30
0.0
 11
120.7099778513
 21
62.3508286222
 31
0.0
  0
SPLINE
  5
89
330
1F
100
AcDbEntity
  8
0
  6
Continuous
 62
     7
370
    25
100
AcDbSpline
210
0.0
220
0.0
230
1.0
 70
     8
 71
     3
 72
    16
 73
    12
 74
     0
 42
0.000000001
 43
0.00000001
 40
0.0
 40
0.0
 40
0.0
 40
0.0
 40
0.2500000000000001
 40
0.2500000000000001
 40
0.5000000000000001
 40
0.5000000000000001
 40
0.6250000000000001
 40
0.6250000000000001
 40
0.7500000000000002
 40
0.7500000000000002
 40
1.0
 40
1.0
 40
1.0
 40
1.0
 10
67.87429733294353
 20
62.35082862220207
 30
0.0
 10
67.58855553566084
 20
62.84574793294171
 30
0.0
 10
67.35305253550565
 20
63.34427558713156
 30
0.0
 10
67.02680441833918
 20
64.35172796290482
 30
0.0
 10
66.93713545336827
 20
64.86072997786286
 30
0.0
 10
66.93615054696603
 20
65.63382281495791
 30
0.0
 10
66.95807112377582
 20
65.8927330956859
 30
0.0
 10
67.0435498415102
 20
66.40488491953677
 30
0.0
 10
67.1070212299767
 20
66.65924377726206
 30
0.0
 10
67.35211346717507
 20
67.41779183998086
 30
0.0
 10
67.58819933473225
 20
67.91747017984721
 30
0.0
 10
67.8742973329437
 20
68.41300644869317
 30
0.0
  0
ARC
  5
8A
330
1F
100
AcDbEntity
  8
0
  6
Continuous
 62
     7
370
    25
100
AcDbCircle
 10
104.3587147118
 20
65.4969464078
 30
0.0
 40
0.709217419796342
100
AcDbArc
 50
189.3341081815
 51
255.0062639575
  0
LINE
  5
8B
330
1F
100
AcDbEntity
  8
0
  6
Continuous
 62
     7
370
    25
100
AcDbLine
 10
104.1752306319
 20
65.9519601491
 30
0.0
 11
103.0700459728
 21
66.2311646945
 31
0.0
  0
ARC
  5
8C
330
1F
100
AcDbEntity
  8
0
  6
Continuous
 62
     7
370
    25
100
AcDbCircle
 10
103.0330600582
 20
66.1156371429
 30
0.0
 40
0.1819275319586197
100
AcDbArc
 50
285.500463795
 51
348.3722864232
  0
LINE
  5
8D
330
1F
100
AcDbEntity
  8
0
  6
Continuous
 62
     7
370
    25
100
AcDbLine
 10
103.0816794955
 20
65.9403266264
 30
0.0
 11
100.6386397228
 21
65.5680538991
 31
0.0
  0
LWPOLYLINE
  5
8E
330
1F
100
AcDbEntity
  8
0
  6
Continuous
 62
     7
370
    25
100
AcDbPolyline
 90
        5
 70
   128
 43
0.0
 10
100.6386397228
 20
65.5680538991
 10
100.5370586424
 20
65.5377085082
 10
100.4575045056
 20
65.4939100316
 10
100.4068470855
 20
65.4404406181
 10
100.3894608243
 20
65.3819175354
  0
ARC
  5
8F
330
1F
100
AcDbEntity
  8
0
  6
Continuous
 62
     7
370
    25
100
AcDbCircle
 10
103.0242469263
 20
64.7189538587
 30
0.0
 40
0.1918308850582765
100
AcDbArc
 50
283.8125985289
 51
347.1238647456
  0
SPLINE
  5
90
330
1F
100
AcDbEntity
  8
0
  6
Continuous
 62
     7
370
    25
100
AcDbSpline
210
0.0
220
0.0
230
1.0
 70
     8
 71
     3
 72
    16
 73
    12
 74
     0
 42
0.000000001
 43
0.00000001
 40
0.0
 40
0.0
 40
0.0
 40
0.0
 40
0.25
 40
0.25
 40
0.5
 40
0.5
 40
0.625
 40
0.625
 40
0.75
 40
0.75
 40
1.0
 40
1.0
 40
1.0
 40
1.0
 10
67.87429733294384
 20
68.41300644869315
 30
0.0
 10
67.58933032462512
 20
69.40016112247095
 30
0.0
 10
67.35071485535086
 20
70.40998436655828
 30
0.0
 10
67.0244819224289
 20
72.43356482541178
 30
0.0
 10
66.93635290695838
 20
73.45171634139793
 30
0.0
 10
66.936536479877
 20
74.99017334290122
 30
0.0
 10
66.95845198024675
 20
75.50539332214672
 30
0.0
 10
67.04523647218639
 20
76.53721893644914
 30
0.0
 10
67.10946666123334
 20
77.0476334821013
 30
0.0
 10
67.35586713577361
 20
78.56470532125235
 30
0.0
 10
67.59137464263024
 20
79.55728915320071
 30
0.0
 10
67.87429733294387
 20
80.53736210167531
 30
0.0
  0
LINE
  5
91
330
1F
100
AcDbEntity
  8
0
  6
Continuous
 62
     7
370
    25
100
AcDbLine
 10
66.7921375921
 20
74.4751842752
 30
0.0
 11
66.7921375921
 21
84.7251842752
 31
0.0
  0
LINE
  5
92
330
1F
100
AcDbEntity
  8
0
  6
Continuous
 62
     7
370
    25
100
AcDbLine
 10
66.7921375921
 20
64.2251842752
 30
0.0
 11
66.7921375921
 21
74.4751842752
 31
0.0
  0
SPLINE
  5
93
330
1F
100
AcDbEntity
  8
0
  6
Continuous
 62
     7
370
    25
100
AcDbSpline
210
0.0
220
0.0
230
1.0
 70
     8
 71
     3
 72
    16
 73
    12
 74
     0
 42
0.000000001
 43
0.00000001
 40
0.0
 40
0.0
 40
0.0
 40
0.0
 40
0.25
 40
0.25
 40
0.5
 40
0.5
 40
0.625
 40
0.625
 40
0.75
 40
0.75
 40
1.0
 40
1.0
 40
1.0
 40
1.0
 10
120.7099778513312
 20
68.41300644869315
 30
0.0
 10
120.9949448596499
 20
69.40016112247095
 30
0.0
 10
121.2335603289242
 20
70.40998436655828
 30
0.0
 10
121.5597932618462
 20
72.43356482541178
 30
0.0
 10
121.6479222773167
 20
73.45171634139793
 30
0.0
 10
121.6477387043981
 20
74.99017334290122
 30
0.0
 10
121.6258232040283
 20
75.50539332214672
 30
0.0
 10
121.5390387120887
 20
76.53721893644914
 30
0.0
 10
121.4748085230417
 20
77.0476334821013
 30
0.0
 10
121.2284080485015
 20
78.56470532125235
 30
0.0
 10
120.9929005416448
 20
79.55728915320071
 30
0.0
 10
120.7099778513312
 20
80.53736210167531
 30
0.0
  0
LINE
  5
94
330
1F
100
AcDbEntity
  8
0
  6
Continuous
 62
     7
370
    25
100
AcDbLine
 10
121.7921375921
 20
74.4751842752
 30
0.0
 11
121.7921375921
 21
84.7251842752
 31
0.0
  0
LINE
  5
95
330
1F
100
AcDbEntity
  8
0
  6
Continuous
 62
     7
370
    25
100
AcDbLine
 10
121.7921375921
 20
64.2251842752
 30
0.0
 11
121.7921375921
 21
74.4751842752
 31
0.0
  0
LINE
  5
96
330
1F
100
AcDbEntity
  8
0
  6
Continuous
 62
     7
370
    25
100
AcDbLine
 10
104.1752306319
 20
65.943299895
 30
0.0
 11
103.0700459728
 21
66.2225044405
 31
0.0
  0
LINE
  5
97
330
1F
100
AcDbEntity
  8
0
  6
Continuous
 62
     7
370
    25
100
AcDbLine
 10
103.0700459728
 20
66.2311646945
 30
0.0
 11
103.0700459728
 21
66.2225044405
 31
0.0
  0
LINE
  5
98
330
1F
100
AcDbEntity
  8
0
  6
Continuous
 62
     7
370
    25
100
AcDbLine
 10
104.1752306319
 20
65.9519601491
 30
0.0
 11
104.1752306319
 21
65.943299895
 31
0.0
  0
LINE
  5
99
330
1F
100
AcDbEntity
  8
0
  6
Continuous
 62
     7
370
    25
100
AcDbLine
 10
103.0816794955
 20
65.9316663723
 30
0.0
 11
100.6386397228
 21
65.559393645
 31
0.0
  0
LWPOLYLINE
  5
9A
330
1F
100
AcDbEntity
  8
0
  6
Continuous
 62
     7
370
    25
100
AcDbPolyline
 90
        9
 70
   128
 43
0.0
 10
103.0700459728
 20
66.2225044405
 10
103.128324184
 20
66.1931994787
 10
103.172555781
 20
66.1582887395
 10
103.2006494014
 20
66.1194228756
 10
103.2112767201
 20
66.0784395463
 10
103.2039352552
 20
66.0372765291
 10
103.1789721266
 20
65.9978800977
 10
103.1375676432
 20
65.9621129977
 10
103.0816794955
 20
65.9316663723
  0
LWPOLYLINE
  5
9B
330
1F
100
AcDbEntity
  8
0
  6
Continuous
 62
     7
370
    25
100
AcDbPolyline
 90
       11
 70
   128
 43
0.0
 10
104.1752306319
 20
64.8032146678
 10
103.9966706453
 20
64.896125693
 10
103.8521447849
 20
65.0028095471
 10
103.7458249186
 20
65.1201867056
 10
103.6807800643
 20
65.244868972
 10
103.6588877996
 20
65.3732572814
 10
103.6807800643
 20
65.5016455909
 10
103.7458249186
 20
65.6263278572
 10
103.8521447849
 20
65.7437050157
 10
103.9966706453
 20
65.8503888698
 10
104.1752306319
 20
65.943299895
  0
LINE
  5
9C
330
1F
100
AcDbEntity
  8
0
  6
Continuous
 62
     7
370
    25
100
AcDbLine
 10
103.0700459728
 20
64.5240101223
 30
0.0
 11
104.1752306319
 21
64.8032146678
 31
0.0
  0
LWPOLYLINE
  5
9D
330
1F
100
AcDbEntity
  8
0
  6
Continuous
 62
     7
370
    25
100
AcDbPolyline
 90
        9
 70
   128
 43
0.0
 10
103.0816794955
 20
64.8148481905
 10
103.1375676432
 20
64.7844015652
 10
103.1789721266
 20
64.7486344651
 10
103.2039352552
 20
64.7092380337
 10
103.2112767201
 20
64.6680750166
 10
103.2006494014
 20
64.6270916872
 10
103.172555781
 20
64.5882258233
 10
103.128324184
 20
64.5533150841
 10
103.0700459728
 20
64.5240101223
  0
LINE
  5
9E
330
1F
100
AcDbEntity
  8
0
  6
Continuous
 62
     7
370
    25
100
AcDbLine
 10
100.6386397228
 20
65.1871209178
 30
0.0
 11
103.0816794955
 21
64.8148481905
 31
0.0
  0
LWPOLYLINE
  5
9F
330
1F
100
AcDbEntity
  8
0
  6
Continuous
 62
     7
370
    25
100
AcDbPolyline
 90
        9
 70
   128
 43
0.0
 10
100.6386397228
 20
65.559393645
 10
100.5370586424
 20
65.5290482541
 10
100.4575045056
 20
65.4852497775
 10
100.4068470855
 20
65.4317803641
 10
100.3894608243
 20
65.3732572814
 10
100.4068470855
 20
65.3147341987
 10
100.4575045056
 20
65.2612647853
 10
100.5370586424
 20
65.2174663087
 10
100.6386397228
 20
65.1871209178
  0
LINE
  5
A0
330
1F
100
AcDbEntity
  8
0
  6
Continuous
 62
     7
370
    25
100
AcDbLine
 10
101.8921517967
 20
65.3732572814
 30
0.0
 11
102.6396056319
 21
65.2593595541
 31
0.0
  0
LINE
  5
A1
330
1F
100
AcDbEntity
  8
0
  6
Continuous
 62
     7
370
    25
100
AcDbLine
 10
102.6396056319
 20
65.2593595541
 30
0.0
 11
102.6396056319
 21
65.4871550087
 31
0.0
  0
LINE
  5
A2
330
1F
100
AcDbEntity
  8
0
  6
Continuous
 62
     7
370
    25
100
AcDbLine
 10
102.6396056319
 20
65.4871550087
 30
0.0
 11
101.8921517967
 21
65.3732572814
 31
0.0
  0
LINE
  5
A3
330
1F
100
AcDbEntity
  8
0
  6
Continuous
 62
     7
370
    25
100
AcDbLine
 10
103.0816794955
 20
65.9403266264
 30
0.0
 11
103.0816794955
 21
65.9316663723
 31
0.0
  0
LINE
  5
A4
330
1F
100
AcDbEntity
  8
0
  6
Continuous
 62
     7
370
    25
100
AcDbLine
 10
104.1752306319
 20
64.8118749218
 30
0.0
 11
104.1752306319
 21
64.8032146678
 31
0.0
  0
LINE
  5
A5
330
1F
100
AcDbEntity
  8
0
  6
Continuous
 62
     7
370
    25
100
AcDbLine
 10
100.6386397228
 20
65.5680538991
 30
0.0
 11
100.6386397228
 21
65.559393645
 31
0.0
  0
LINE
  5
A6
330
1F
100
AcDbEntity
  8
0
  6
Continuous
 62
     7
370
    25
100
AcDbLine
 10
101.9205682552
 20
65.3775874084
 30
0.0
 11
102.6396056319
 21
65.2680198082
 31
0.0
  0
LINE
  5
A7
330
1F
100
AcDbEntity
  8
0
  6
Continuous
 62
     7
370
    25
100
AcDbLine
 10
103.0700459728
 20
64.5326703764
 30
0.0
 11
103.0700459728
 21
64.5240101223
 31
0.0
  0
LINE
  5
A8
330
1F
100
AcDbEntity
  8
0
  6
Continuous
 62
     7
370
    25
100
AcDbLine
 10
121.6478000248
 20
106.6046683047
 30
0.0
 11
121.7921375921
 21
106.8546683047
 31
0.0
  0
LINE
  5
A9
330
1F
100
AcDbEntity
  8
0
  6
Continuous
 62
     7
370
    25
100
AcDbLine
 10
121.7921375921
 20
127.3546683047
 30
0.0
 11
121.6478000248
 21
127.6046683047
 31
0.0
  0
LINE
  5
AA
330
1F
100
AcDbEntity
  8
0
  6
Continuous
 62
     7
370
    25
100
AcDbLine
 10
66.9364751594
 20
127.6046683047
 30
0.0
 11
66.7921375921
 21
127.3546683047
 31
0.0
  0
LINE
  5
AB
330
1F
100
AcDbEntity
  8
0
  6
Continuous
 62
     7
370
    25
100
AcDbLine
 10
66.7921375921
 20
106.8546683047
 30
0.0
 11
66.9364751594
 21
106.6046683047
 31
0.0
  0
SPLINE
  5
AC
330
1F
100
AcDbEntity
  8
0
  6
Continuous
 62
     7
370
    25
100
AcDbSpline
210
0.0
220
0.0
230
1.0
 70
     8
 71
     3
 72
    16
 73
    12
 74
     0
 42
0.000000001
 43
0.00000001
 40
0.0
 40
0.0
 40
0.0
 40
0.0
 40
0.2499999999999999
 40
0.2499999999999999
 40
0.4999999999999998
 40
0.4999999999999998
 40
0.6249999999999999
 40
0.6249999999999999
 40
0.7500000000000001
 40
0.7500000000000001
 40
1.0
 40
1.0
 40
1.0
 40
1.0
 10
120.7099778513315
 20
117.1046683046682
 30
0.0
 10
120.9957196486142
 20
117.9618936965162
 30
0.0
 10
121.2312226487694
 20
118.8253689225512
 30
0.0
 10
121.5574707659359
 20
120.5703276235965
 30
0.0
 10
121.6471397309068
 20
121.4519449746587
 30
0.0
 10
121.648124637309
 20
122.7909810474749
 30
0.0
 10
121.6262040604992
 20
123.2394268082977
 30
0.0
 10
121.5407253427649
 20
124.1264997883965
 30
0.0
 10
121.4772539542984
 20
124.5670622533319
 30
0.0
 10
121.2321617171
 20
125.8809060379438
 30
0.0
 10
120.9960758495428
 20
126.746374310034
 30
0.0
 10
120.7099778513314
 20
127.6046683046683
 30
0.0
  0
SPLINE
  5
AD
330
1F
100
AcDbEntity
  8
0
  6
Continuous
 62
     7
370
    25
100
AcDbSpline
210
0.0
220
0.0
230
1.0
 70
    24
 71
     3
 72
    12
 73
     8
 74
     0
 42
0.000000001
 43
0.00000001
 40
0.0
 40
0.0
 40
0.0
 40
0.0
 40
0.1885948111081686
 40
0.3775265413288471
 40
0.5677731636792089
 40
0.7586156446848034
 40
1.0
 40
1.0
 40
1.0
 40
1.0
 10
120.7099778513312
 20
127.6046683046683
 30
0.0
 10
120.8133255673328
 20
127.6046683046683
 30
0.0
 10
121.020205627007
 20
127.6046683046683
 30
0.0
 10
121.2718119306454
 20
127.6046683046683
 30
0.0
 10
121.4677556823675
 20
127.6046683046683
 30
0.0
 10
121.6159184929182
 20
127.6046683046683
 30
0.0
 10
121.6349486056759
 20
127.6046683046683
 30
0.0
 10
121.6455762926069
 20
127.6046683046683
 30
0.0
  0
SPLINE
  5
AE
330
1F
100
AcDbEntity
  8
0
  6
Continuous
 62
     7
370
    25
100
AcDbSpline
210
0.0
220
0.0
230
1.0
 70
    24
 71
     3
 72
    12
 73
     8
 74
     0
 42
0.000000001
 43
0.00000001
 40
0.0
 40
0.0
 40
0.0
 40
0.0
 40
0.2413813216028023
 40
0.4297010701186837
 40
0.6186405491919532
 40
0.8091270122362321
 40
1.0
 40
1.0
 40
1.0
 40
1.0
 10
121.6435044486767
 20
106.6046683046683
 30
0.0
 10
121.6337844135018
 20
106.6046683046683
 30
0.0
 10
121.6164810468265
 20
106.6046683046683
 30
0.0
 10
121.4692841018861
 20
106.6046683046683
 30
0.0
 10
121.2752918830706
 20
106.6046683046683
 30
0.0
 10
121.0234071508007
 20
106.6046683046683
 30
0.0
 10
120.8145248549785
 20
106.6046683046683
 30
0.0
 10
120.7099778513312
 20
106.6046683046683
 30
0.0
  0
SPLINE
  5
AF
330
1F
100
AcDbEntity
  8
0
  6
Continuous
 62
     7
370
    25
100
AcDbSpline
210
0.0
220
0.0
230
1.0
 70
     8
 71
     3
 72
    16
 73
    12
 74
     0
 42
0.000000001
 43
0.00000001
 40
0.0
 40
0.0
 40
0.0
 40
0.0
 40
0.25
 40
0.25
 40
0.5
 40
0.5
 40
0.625
 40
0.625
 40
0.7499999999999999
 40
0.7499999999999999
 40
1.0
 40
1.0
 40
1.0
 40
1.0
 10
120.7099778513315
 20
106.6046683046682
 30
0.0
 10
120.9957196486142
 20
107.4618936965163
 30
0.0
 10
121.2312226487694
 20
108.3253689225512
 30
0.0
 10
121.5574707659359
 20
110.0703276235965
 30
0.0
 10
121.6471397309068
 20
110.9519449746587
 30
0.0
 10
121.648124637309
 20
112.2909810474749
 30
0.0
 10
121.6262040604992
 20
112.7394268082977
 30
0.0
 10
121.5407253427649
 20
113.6264997883965
 30
0.0
 10
121.4772539542984
 20
114.0670622533319
 30
0.0
 10
121.2321617171
 20
115.3809060379438
 30
0.0
 10
120.9960758495428
 20
116.246374310034
 30
0.0
 10
120.7099778513314
 20
117.1046683046683
 30
0.0
  0
LINE
  5
B0
330
1F
100
AcDbEntity
  8
0
  6
Continuous
 62
     7
370
    25
100
AcDbLine
 10
121.7921375921
 20
106.8546683047
 30
0.0
 11
121.7921375921
 21
127.3546683047
 31
0.0
  0
SPLINE
  5
B1
330
1F
100
AcDbEntity
  8
0
  6
Continuous
 62
     7
370
    25
100
AcDbSpline
210
0.0
220
0.0
230
1.0
 70
    24
 71
     3
 72
    12
 73
     8
 74
     0
 42
0.000000001
 43
0.00000001
 40
0.0
 40
0.0
 40
0.0
 40
0.0
 40
0.2413813216028023
 40
0.4297010701186837
 40
0.6186405491919532
 40
0.8091270122362321
 40
1.0
 40
1.0
 40
1.0
 40
1.0
 10
66.94077073559833
 20
106.6046683046683
 30
0.0
 10
66.95049077077327
 20
106.6046683046683
 30
0.0
 10
66.9677941374486
 20
106.6046683046683
 30
0.0
 10
67.11499108238895
 20
106.6046683046683
 30
0.0
 10
67.30898330120448
 20
106.6046683046683
 30
0.0
 10
67.56086803347434
 20
106.6046683046683
 30
0.0
 10
67.7697503292966
 20
106.6046683046683
 30
0.0
 10
67.87429733294385
 20
106.6046683046683
 30
0.0
  0
SPLINE
  5
B2
330
1F
100
AcDbEntity
  8
0
  6
Continuous
 62
     7
370
    25
100
AcDbSpline
210
0.0
220
0.0
230
1.0
 70
    24
 71
     3
 72
    12
 73
     8
 74
     0
 42
0.000000001
 43
0.00000001
 40
0.0
 40
0.0
 40
0.0
 40
0.0
 40
0.1885948111081686
 40
0.3775265413288471
 40
0.5677731636792089
 40
0.7586156446848034
 40
1.0
 40
1.0
 40
1.0
 40
1.0
 10
67.87429733294387
 20
127.6046683046683
 30
0.0
 10
67.77094961694232
 20
127.6046683046683
 30
0.0
 10
67.56406955726811
 20
127.6046683046683
 30
0.0
 10
67.31246325362962
 20
127.6046683046683
 30
0.0
 10
67.11651950190753
 20
127.6046683046683
 30
0.0
 10
66.96835669135685
 20
127.6046683046683
 30
0.0
 10
66.94932657859913
 20
127.6046683046683
 30
0.0
 10
66.93869889166814
 20
127.6046683046683
 30
0.0
  0
SPLINE
  5
B3
330
1F
100
AcDbEntity
  8
0
  6
Continuous
 62
     7
370
    25
100
AcDbSpline
210
0.0
220
0.0
230
1.0
 70
     8
 71
     3
 72
    16
 73
    12
 74
     0
 42
0.000000001
 43
0.00000001
 40
0.0
 40
0.0
 40
0.0
 40
0.0
 40
0.2499999999999999
 40
0.2499999999999999
 40
0.4999999999999998
 40
0.4999999999999998
 40
0.6249999999999999
 40
0.6249999999999999
 40
0.7500000000000001
 40
0.7500000000000001
 40
1.0
 40
1.0
 40
1.0
 40
1.0
 10
67.87429733294353
 20
117.1046683046682
 30
0.0
 10
67.58855553566086
 20
117.9618936965162
 30
0.0
 10
67.35305253550565
 20
118.8253689225512
 30
0.0
 10
67.02680441833918
 20
120.5703276235965
 30
0.0
 10
66.93713545336827
 20
121.4519449746587
 30
0.0
 10
66.93615054696603
 20
122.7909810474749
 30
0.0
 10
66.95807112377582
 20
123.2394268082977
 30
0.0
 10
67.0435498415102
 20
124.1264997883965
 30
0.0
 10
67.1070212299767
 20
124.5670622533319
 30
0.0
 10
67.35211346717506
 20
125.8809060379438
 30
0.0
 10
67.58819933473225
 20
126.746374310034
 30
0.0
 10
67.8742973329437
 20
127.6046683046683
 30
0.0
  0
SPLINE
  5
B4
330
1F
100
AcDbEntity
  8
0
  6
Continuous
 62
     7
370
    25
100
AcDbSpline
210
0.0
220
0.0
230
1.0
 70
     8
 71
     3
 72
    16
 73
    12
 74
     0
 42
0.000000001
 43
0.00000001
 40
0.0
 40
0.0
 40
0.0
 40
0.0
 40
0.25
 40
0.25
 40
0.5
 40
0.5
 40
0.625
 40
0.625
 40
0.7499999999999999
 40
0.7499999999999999
 40
1.0
 40
1.0
 40
1.0
 40
1.0
 10
67.87429733294353
 20
106.6046683046682
 30
0.0
 10
67.58855553566086
 20
107.4618936965163
 30
0.0
 10
67.35305253550564
 20
108.3253689225512
 30
0.0
 10
67.02680441833918
 20
110.0703276235965
 30
0.0
 10
66.93713545336827
 20
110.9519449746587
 30
0.0
 10
66.93615054696603
 20
112.2909810474749
 30
0.0
 10
66.95807112377582
 20
112.7394268082977
 30
0.0
 10
67.0435498415102
 20
113.6264997883965
 30
0.0
 10
67.10702122997668
 20
114.0670622533319
 30
0.0
 10
67.35211346717506
 20
115.3809060379438
 30
0.0
 10
67.58819933473225
 20
116.246374310034
 30
0.0
 10
67.8742973329437
 20
117.1046683046683
 30
0.0
  0
LINE
  5
B5
330
1F
100
AcDbEntity
  8
0
  6
Continuous
 62
     7
370
    25
100
AcDbLine
 10
66.7921375921
 20
106.8546683047
 30
0.0
 11
66.7921375921
 21
127.3546683047
 31
0.0
  0
LINE
  5
B6
330
1F
100
AcDbEntity
  8
0
  6
Continuous
 62
     7
370
    25
100
AcDbLine
 10
67.8742973329
 20
127.6046683047
 30
0.0
 11
120.7099778513
 21
127.6046683047
 31
0.0
  0
LINE
  5
B7
330
1F
100
AcDbEntity
  8
0
  6
Continuous
 62
     7
370
    25
100
AcDbLine
 10
67.8742973329
 20
117.1046683047
 30
0.0
 11
120.7099778513
 21
117.1046683047
 31
0.0
  0
LINE
  5
B8
330
1F
100
AcDbEntity
  8
0
  6
Continuous
 62
     7
370
    25
100
AcDbLine
 10
67.8742973329
 20
106.6046683047
 30
0.0
 11
120.7099778513
 21
106.6046683047
 31
0.0
  0
LINE
  5
B9
330
1F
100
AcDbEntity
  8
0
  6
Continuous
 62
     7
370
    25
100
AcDbLine
 10
103.7921375921
 20
127.6146683047
 30
0.0
 11
103.7921375921
 21
127.6046683047
 31
0.0
  0
LINE
  5
BA
330
1F
100
AcDbEntity
  8
0
  6
Continuous
 62
     7
370
    25
100
AcDbLine
 10
103.7921375921
 20
127.6146683047
 30
0.0
 11
101.6321375921
 21
127.6146683047
 31
0.0
  0
LINE
  5
BB
330
1F
100
AcDbEntity
  8
0
  6
Continuous
 62
     7
370
    25
100
AcDbLine
 10
101.6321375921
 20
127.6146683047
 30
0.0
 11
101.6321375921
 21
127.6046683047
 31
0.0
  0
LINE
  5
BC
330
1F
100
AcDbEntity
  8
0
  6
Continuous
 62
     7
370
    25
100
AcDbLine
 10
103.7921375921
 20
106.6046683047
 30
0.0
 11
103.7921375921
 21
106.5946683047
 31
0.0
  0
LINE
  5
BD
330
1F
100
AcDbEntity
  8
0
  6
Continuous
 62
     7
370
    25
100
AcDbLine
 10
101.6321375921
 20
106.6046683047
 30
0.0
 11
101.6321375921
 21
106.5946683047
 31
0.0
  0
LINE
  5
BE
330
1F
100
AcDbEntity
  8
0
  6
Continuous
 62
     7
370
    25
100
AcDbLine
 10
103.7921375921
 20
106.5946683047
 30
0.0
 11
101.6321375921
 21
106.5946683047
 31
0.0
  0
LINE
  5
BF
330
1F
100
AcDbEntity
  8
0
  6
Continuous
 62
     7
370
    25
100
AcDbLine
 10
97.3121375921
 20
127.6146683047
 30
0.0
 11
97.3121375921
 21
127.6046683047
 31
0.0
  0
LINE
  5
C0
330
1F
100
AcDbEntity
  8
0
  6
Continuous
 62
     7
370
    25
100
AcDbLine
 10
101.6321375921
 20
127.6146683047
 30
0.0
 11
97.3121375921
 21
127.6146683047
 31
0.0
  0
LINE
  5
C1
330
1F
100
AcDbEntity
  8
0
  6
Continuous
 62
     7
370
    25
100
AcDbLine
 10
97.3121375921
 20
106.6046683047
 30
0.0
 11
97.3121375921
 21
106.5946683047
 31
0.0
  0
LINE
  5
C2
330
1F
100
AcDbEntity
  8
0
  6
Continuous
 62
     7
370
    25
100
AcDbLine
 10
101.6321375921
 20
106.5946683047
 30
0.0
 11
97.3121375921
 21
106.5946683047
 31
0.0
  0
LINE
  5
C3
330
1F
100
AcDbEntity
  8
0
  6
Continuous
 62
     7
370
    25
100
AcDbLine
 10
151.1365815337
 20
69.2815892524
 30
0.0
 11
151.2338142346
 21
71.2388051757
 31
0.0
  0
ARC
  5
C4
330
1F
100
AcDbEntity
  8
0
  6
Continuous
 62
     7
370
    25
100
AcDbCircle
 10
152.6820282313
 20
71.166859226
 30
0.0
 40
1.450000000000023
100
AcDbArc
 50
50.9085158103
 51
177.1559361537
  0
ARC
  5
C5
330
1F
100
AcDbEntity
  8
0
  6
Continuous
 62
     7
370
    25
100
AcDbCircle
 10
154.2820753922
 20
73.136314819
 30
0.0
 40
1.087500000000002
100
AcDbArc
 50
230.9085158103
 51
350.5160997068
  0
ARC
  5
C6
330
1F
100
AcDbEntity
  8
0
  6
Continuous
 62
     7
370
    25
100
AcDbCircle
 10
151.1628024111
 20
73.657401102
 30
0.0
 40
4.249998196912463
100
AcDbArc
 50
350.5160997068
 51
157.834234139
  0
ARC
  5
C7
330
1F
100
AcDbEntity
  8
0
  6
Continuous
 62
     7
370
    25
100
AcDbCircle
 10
148.2340249154
 20
74.8505721821
 30
0.0
 40
1.087500000000009
100
AcDbArc
 50
157.834234139
 51
277.4418180355
  0
ARC
  5
C8
330
1F
100
AcDbEntity
  8
0
  6
Continuous
 62
     7
370
    25
100
AcDbCircle
 10
148.5626802552
 20
72.3344458105
 30
0.0
 40
1.449999999999997
100
AcDbArc
 50
331.1943976921
 51
97.4418180355
  0
LINE
  5
C9
330
1F
100
AcDbEntity
  8
0
  6
Continuous
 62
     7
370
    25
100
AcDbLine
 10
149.8332566325
 20
71.6357787444
 30
0.0
 11
148.8890299437
 21
69.9186345081
 31
0.0
  0
CIRCLE
  5
CA
330
1F
100
AcDbEntity
  8
0
  6
Continuous
 62
     7
370
    25
100
AcDbCircle
 10
148.5626802552
 20
72.3344458105
 30
0.0
 40
0.599999999999985
  0
CIRCLE
  5
CB
330
1F
100
AcDbEntity
  8
0
  6
Continuous
 62
     7
370
    25
100
AcDbCircle
 10
152.6820282313
 20
71.166859226
 30
0.0
 40
0.6000000000000123
  0
ARC
  5
CC
330
1F
100
AcDbEntity
  8
0
  6
Continuous
 62
     7
370
    25
100
AcDbCircle
 10
151.3945945946
 20
74.4751842752
 30
0.0
 40
5.200000000000001
100
AcDbArc
 50
267.1559361537
 51
241.1943976921
  0
CIRCLE
  5
CD
330
1F
100
AcDbEntity
  8
0
  6
Continuous
 62
     7
370
    25
100
AcDbCircle
 10
151.3945945946
 20
74.4751842752
 30
0.0
 40
1.649999999999991
  0
ARC
  5
CE
330
1F
100
AcDbEntity
  8
0
  6
Continuous
 62
     7
370
    25
100
AcDbCircle
 10
149.5610303755
 20
77.6510106616
 30
0.0
 40
1.05
100
AcDbArc
 50
211.7617080779
 51
11.9481334044
  0
LWPOLYLINE
  5
CF
330
1F
100
AcDbEntity
  8
0
  6
Continuous
 62
     7
370
    25
100
AcDbPolyline
 90
        3
 70
   128
 43
0.0
 10
147.7274661565
 20
75.5251842752
 10
147.5091588811
 20
75.502239256
 10
147.3025854993
 20
75.435380311
  0
ARC
  5
D0
330
1F
100
AcDbEntity
  8
0
  6
Continuous
 62
     7
370
    25
100
AcDbCircle
 10
147.7274661565
 20
74.4751842752
 30
0.0
 40
1.050000000000016
100
AcDbArc
 50
319.4080679369
 51
90.0
  0
ARC
  5
D1
330
1F
100
AcDbEntity
  8
0
  6
Continuous
 62
     7
370
    25
100
AcDbCircle
 10
149.5610303755
 20
71.2993578888
 30
0.0
 40
1.050000000000028
100
AcDbArc
 50
112.5040400512
 51
155.4258777098
  0
ARC
  5
D2
330
1F
100
AcDbEntity
  8
0
  6
Continuous
 62
     7
370
    25
100
AcDbCircle
 10
149.5610303755
 20
71.2993578888
 30
0.0
 40
1.05
100
AcDbArc
 50
245.3692266362
 51
64.6774931413
  0
ARC
  5
D3
330
1F
100
AcDbEntity
  8
0
  6
Continuous
 62
     7
370
    25
100
AcDbCircle
 10
153.2281588137
 20
71.2993578888
 30
0.0
 40
1.050000000000003
100
AcDbArc
 50
167.3734883931
 51
220.8503818885
  0
ARC
  5
D4
330
1F
100
AcDbEntity
  8
0
  6
Continuous
 62
     7
370
    25
100
AcDbCircle
 10
153.2281588137
 20
71.2993578888
 30
0.0
 40
1.049999999999991
100
AcDbArc
 50
52.2358262225
 51
68.0758345783
  0
ARC
  5
D5
330
1F
100
AcDbEntity
  8
0
  6
Continuous
 62
     7
370
    25
100
AcDbCircle
 10
155.0617230327
 20
74.4751842752
 30
0.0
 40
1.049999999999996
100
AcDbArc
 50
94.3619750603
 51
289.3297096165
  0
ARC
  5
D6
330
1F
100
AcDbEntity
  8
0
  6
Continuous
 62
     7
370
    25
100
AcDbCircle
 10
153.2281588137
 20
77.6510106616
 30
0.0
 40
1.049999999999994
100
AcDbArc
 50
172.8174466374
 51
312.4896773093
  0
CIRCLE
  5
D7
330
1F
100
AcDbEntity
  8
0
  6
Continuous
 62
     7
370
    25
100
AcDbCircle
 10
151.3945945946
 20
74.4751842752
 30
0.0
 40
5.349999999999994
  0
ARC
  5
D8
330
1F
100
AcDbEntity
  8
0
  6
Continuous
 62
     7
370
    25
100
AcDbCircle
 10
151.3945945946
 20
74.4751842752
 30
0.0
 40
4.297034846243791
100
AcDbArc
 50
241.1943976921
 51
252.1479912909
  0
LWPOLYLINE
  5
D9
330
1F
100
AcDbEntity
  8
0
  6
Continuous
 62
     7
370
    25
100
AcDbPolyline
 90
        3
 70
   128
 43
0.0
 10
149.9433073447
 20
70.3214190774
 10
149.563763654
 20
70.4741771436
 10
149.2745014284
 20
70.6196421646
  0
CIRCLE
  5
DA
330
1F
100
AcDbEntity
  8
0
  6
Continuous
 62
     7
370
    25
100
AcDbCircle
 10
151.3945945946
 20
74.4751842752
 30
0.0
 40
1.249999999999998
  0
CIRCLE
  5
DB
330
1F
100
AcDbEntity
  8
0
  6
Continuous
 62
     7
370
    25
100
AcDbCircle
 10
151.3945945946
 20
74.4751842752
 30
0.0
 40
1.5
  0
ARC
  5
DC
330
1F
100
AcDbEntity
  8
0
  6
Continuous
 62
     7
370
    25
100
AcDbCircle
 10
151.3945945946
 20
74.4751842752
 30
0.0
 40
3.999999999999998
100
AcDbArc
 50
345.0600199664
 51
355.5401054716
  0
ARC
  5
DD
330
1F
100
AcDbEntity
  8
0
  6
Continuous
 62
     7
370
    25
100
AcDbCircle
 10
151.3945945946
 20
74.4751842752
 30
0.0
 40
4.000000000000015
100
AcDbArc
 50
165.0600199664
 51
184.7677338799
  0
ARC
  5
DE
330
1F
100
AcDbEntity
  8
0
  6
Continuous
 62
     7
370
    25
100
AcDbCircle
 10
151.3945945946
 20
74.4751842752
 30
0.0
 40
4.000000000000004
100
AcDbArc
 50
241.1943976921
 51
254.9399800336
  0
ARC
  5
DF
330
1F
100
AcDbEntity
  8
0
  6
Continuous
 62
     7
370
    25
100
AcDbCircle
 10
151.3945945946
 20
74.4751842752
 30
0.0
 40
4.000000000000013
100
AcDbArc
 50
285.0600199664
 51
297.300462527
  0
SPLINE
  5
E0
330
1F
100
AcDbEntity
  8
0
  6
Continuous
 62
     7
370
    25
100
AcDbSpline
210
0.0
220
0.0
230
1.0
 70
    24
 71
     3
 72
    16
 73
    12
 74
     0
 42
0.000000001
 43
0.00000001
 40
0.0
 40
0.0
 40
0.0
 40
0.0
 40
0.2499999999999999
 40
0.2499999999999999
 40
0.4999999999999998
 40
0.4999999999999998
 40
0.6249999999999999
 40
0.6249999999999999
 40
0.7500000000000001
 40
0.7500000000000001
 40
1.0
 40
1.0
 40
1.0
 40
1.0
 10
151.3945945945945
 20
86.59953992816641
 30
0.0
 10
152.2518199864425
 20
86.10462061742678
 30
0.0
 10
153.1152952124774
 20
85.60609296323692
 30
0.0
 10
154.8602539135227
 20
84.59864058746365
 30
0.0
 10
155.741871264585
 20
84.0896385725056
 30
0.0
 10
157.0809073374012
 20
83.31654573541056
 30
0.0
 10
157.529353098224
 20
83.05763545468255
 30
0.0
 10
158.4164260783227
 20
82.5454836308317
 30
0.0
 10
158.8569885432581
 20
82.2911247731064
 30
0.0
 10
160.17083232787
 20
81.5325767103876
 30
0.0
 10
161.0363005999602
 20
81.03289837052124
 30
0.0
 10
161.8945945945945
 20
80.5373621016753
 30
0.0
  0
SPLINE
  5
E1
330
1F
100
AcDbEntity
  8
0
  6
Continuous
 62
     7
370
    25
100
AcDbSpline
210
0.0
220
0.0
230
1.0
 70
    24
 71
     3
 72
    16
 73
    12
 74
     0
 42
0.000000001
 43
0.00000001
 40
0.0
 40
0.0
 40
0.0
 40
0.0
 40
0.2499999999999999
 40
0.2499999999999999
 40
0.4999999999999999
 40
0.4999999999999999
 40
0.6249999999999999
 40
0.6249999999999999
 40
0.7499999999999998
 40
0.7499999999999998
 40
1.0
 40
1.0
 40
1.0
 40
1.0
 10
161.8945945945945
 20
68.41300644869317
 30
0.0
 10
161.8945945945945
 20
69.40016112247096
 30
0.0
 10
161.8945945945945
 20
70.40998436655828
 30
0.0
 10
161.8945945945945
 20
72.43356482541178
 30
0.0
 10
161.8945945945945
 20
73.45171634139793
 30
0.0
 10
161.8945945945945
 20
74.99017334290122
 30
0.0
 10
161.8945945945945
 20
75.5053933221467
 30
0.0
 10
161.8945945945945
 20
76.53721893644914
 30
0.0
 10
161.8945945945945
 20
77.04763348210129
 30
0.0
 10
161.8945945945945
 20
78.56470532125235
 30
0.0
 10
161.8945945945945
 20
79.55728915320071
 30
0.0
 10
161.8945945945945
 20
80.53736210167531
 30
0.0
  0
SPLINE
  5
E2
330
1F
100
AcDbEntity
  8
0
  6
Continuous
 62
     7
370
    25
100
AcDbSpline
210
0.0
220
0.0
230
1.0
 70
    24
 71
     3
 72
    16
 73
    12
 74
     0
 42
0.000000001
 43
0.00000001
 40
0.0
 40
0.0
 40
0.0
 40
0.0
 40
0.2500000000000003
 40
0.2500000000000003
 40
0.5000000000000004
 40
0.5000000000000004
 40
0.6250000000000003
 40
0.6250000000000003
 40
0.7500000000000001
 40
0.7500000000000001
 40
1.0
 40
1.0
 40
1.0
 40
1.0
 10
161.8945945945945
 20
68.4130064486932
 30
0.0
 10
161.0373692027465
 20
67.91808713795353
 30
0.0
 10
160.1738939767116
 20
67.4195594837637
 30
0.0
 10
158.4289352756663
 20
66.41210710799044
 30
0.0
 10
157.547317924604
 20
65.9031050930324
 30
0.0
 10
156.2082818517878
 20
65.13001225593734
 30
0.0
 10
155.7598360909651
 20
64.87110197520934
 30
0.0
 10
154.8727631108663
 20
64.35895015135848
 30
0.0
 10
154.4322006459309
 20
64.10459129363318
 30
0.0
 10
153.118356861319
 20
63.34604323091439
 30
0.0
 10
152.2528885892288
 20
62.84636489104803
 30
0.0
 10
151.3945945945945
 20
62.35082862220208
 30
0.0
  0
SPLINE
  5
E3
330
1F
100
AcDbEntity
  8
0
  6
Continuous
 62
     7
370
    25
100
AcDbSpline
210
0.0
220
0.0
230
1.0
 70
    24
 71
     3
 72
    16
 73
    12
 74
     0
 42
0.000000001
 43
0.00000001
 40
0.0
 40
0.0
 40
0.0
 40
0.0
 40
0.2500000000000001
 40
0.2500000000000001
 40
0.5000000000000001
 40
0.5000000000000001
 40
0.6250000000000001
 40
0.6250000000000001
 40
0.7500000000000002
 40
0.7500000000000002
 40
1.0
 40
1.0
 40
1.0
 40
1.0
 10
151.3945945945946
 20
62.35082862220207
 30
0.0
 10
150.5373692027465
 20
62.84574793294171
 30
0.0
 10
149.6738939767116
 20
63.34427558713156
 30
0.0
 10
147.9289352756663
 20
64.35172796290482
 30
0.0
 10
147.047317924604
 20
64.86072997786286
 30
0.0
 10
145.7082818517879
 20
65.63382281495791
 30
0.0
 10
145.2598360909651
 20
65.8927330956859
 30
0.0
 10
144.3727631108663
 20
66.40488491953677
 30
0.0
 10
143.9322006459309
 20
66.65924377726206
 30
0.0
 10
142.618356861319
 20
67.41779183998086
 30
0.0
 10
141.7528885892288
 20
67.91747017984721
 30
0.0
 10
140.8945945945945
 20
68.41300644869317
 30
0.0
  0
SPLINE
  5
E4
330
1F
100
AcDbEntity
  8
0
  6
Continuous
 62
     7
370
    25
100
AcDbSpline
210
0.0
220
0.0
230
1.0
 70
    24
 71
     3
 72
    16
 73
    12
 74
     0
 42
0.000000001
 43
0.00000001
 40
0.0
 40
0.0
 40
0.0
 40
0.0
 40
0.25
 40
0.25
 40
0.5
 40
0.5
 40
0.625
 40
0.625
 40
0.75
 40
0.75
 40
1.0
 40
1.0
 40
1.0
 40
1.0
 10
140.8945945945945
 20
68.41300644869315
 30
0.0
 10
140.8945945945945
 20
69.40016112247095
 30
0.0
 10
140.8945945945945
 20
70.40998436655828
 30
0.0
 10
140.8945945945945
 20
72.43356482541178
 30
0.0
 10
140.8945945945945
 20
73.45171634139793
 30
0.0
 10
140.8945945945945
 20
74.99017334290122
 30
0.0
 10
140.8945945945945
 20
75.50539332214672
 30
0.0
 10
140.8945945945945
 20
76.53721893644914
 30
0.0
 10
140.8945945945945
 20
77.0476334821013
 30
0.0
 10
140.8945945945945
 20
78.56470532125235
 30
0.0
 10
140.8945945945945
 20
79.55728915320071
 30
0.0
 10
140.8945945945945
 20
80.53736210167531
 30
0.0
  0
SPLINE
  5
E5
330
1F
100
AcDbEntity
  8
0
  6
Continuous
 62
     7
370
    25
100
AcDbSpline
210
0.0
220
0.0
230
1.0
 70
    24
 71
     3
 72
    16
 73
    12
 74
     0
 42
0.000000001
 43
0.00000001
 40
0.0
 40
0.0
 40
0.0
 40
0.0
 40
0.25
 40
0.25
 40
0.5
 40
0.5
 40
0.625
 40
0.625
 40
0.7499999999999999
 40
0.7499999999999999
 40
1.0
 40
1.0
 40
1.0
 40
1.0
 10
140.8945945945945
 20
80.5373621016753
 30
0.0
 10
141.7518199864425
 20
81.03228141241493
 30
0.0
 10
142.6152952124774
 20
81.53080906660477
 30
0.0
 10
144.3602539135227
 20
82.53826144237806
 30
0.0
 10
145.241871264585
 20
83.04726345733609
 30
0.0
 10
146.5809073374012
 20
83.82035629443115
 30
0.0
 10
147.029353098224
 20
84.07926657515912
 30
0.0
 10
147.9164260783227
 20
84.59141839901
 30
0.0
 10
148.3569885432581
 20
84.8457772567353
 30
0.0
 10
149.67083232787
 20
85.60432531945409
 30
0.0
 10
150.5363005999602
 20
86.10400365932044
 30
0.0
 10
151.3945945945945
 20
86.59953992816641
 30
0.0
  0
CIRCLE
  5
E6
330
1F
100
AcDbEntity
  8
0
  6
Continuous
 62
     7
370
    25
100
AcDbCircle
 10
151.3945945946
 20
74.4751842752
 30
0.0
 40
10.25
  0
CIRCLE
  5
E7
330
1F
100
AcDbEntity
  8
0
  6
Continuous
 62
     7
370
    25
100
AcDbCircle
 10
151.3945945946
 20
74.4751842752
 30
0.0
 40
8.5
  0
CIRCLE
  5
E8
330
1F
100
AcDbEntity
  8
0
  6
Continuous
 62
     7
370
    25
100
AcDbCircle
 10
151.3945945946
 20
74.4751842752
 30
0.0
 40
7.902999999999992
  0
CIRCLE
  5
E9
330
1F
100
AcDbEntity
  8
0
  6
Continuous
 62
     7
370
    25
100
AcDbCircle
 10
151.3945945946
 20
74.4751842752
 30
0.0
 40
7.616682223321675
  0
CIRCLE
  5
EA
330
1F
100
AcDbEntity
  8
0
  6
Continuous
 62
     7
370
    25
100
AcDbCircle
 10
151.3945945946
 20
74.4751842752
 30
0.0
 40
7.150000000000006
  0
CIRCLE
  5
EB
330
1F
100
AcDbEntity
  8
0
  6
Continuous
 62
     7
370
    25
100
AcDbCircle
 10
151.3945945946
 20
74.4751842752
 30
0.0
 40
5.5
  0
ENDSEC
  0
SECTION
  2
OBJECTS
  0
DICTIONARY
  5
C
330
0
100
AcDbDictionary
281
     1
  3
ACAD_GROUP
350
D
  3
ACAD_LAYOUT
350
1A
  3
ACAD_MLINESTYLE
350
17
  3
ACAD_PLOTSETTINGS
350
19
  3
ACAD_PLOTSTYLENAME
350
E
  3
ACAD_SCALELIST
350
47
  0
DICTIONARY
  5
D
102
{ACAD_REACTORS
330
C
102
}
330
C
100
AcDbDictionary
281
     1
  0
DICTIONARY
  5
1A
102
{ACAD_REACTORS
330
C
102
}
330
C
100
AcDbDictionary
281
     1
  3
Layout1
350
1E
  3
Layout2
350
26
  3
Model
350
22
  0
DICTIONARY
  5
17
102
{ACAD_REACTORS
330
C
102
}
330
C
100
AcDbDictionary
281
     1
  3
Standard
350
18
  0
DICTIONARY
  5
19
102
{ACAD_REACTORS
330
C
102
}
330
C
100
AcDbDictionary
281
     1
  0
ACDBDICTIONARYWDFLT
  5
E
102
{ACAD_REACTORS
330
C
102
}
330
C
100
AcDbDictionary
281
     1
  3
Normal
350
F
100
AcDbDictionaryWithDefault
340
F
  0
DICTIONARY
  5
47
102
{ACAD_REACTORS
330
C
102
}
330
C
100
AcDbDictionary
281
     1
  3
A0
350
48
  3
A1
350
49
  3
A2
350
4A
  3
A3
350
4B
  3
A4
350
4C
  3
A5
350
4D
  3
A6
350
4E
  3
A7
350
4F
  3
A8
350
50
  3
A9
350
51
  3
B0
350
52
  3
B1
350
53
  3
B2
350
54
  3
B3
350
55
  3
B4
350
56
  3
B5
350
57
  3
B6
350
58
  3
B7
350
59
  3
B8
350
5A
  3
B9
350
5B
  3
C0
350
5C
  3
C1
350
5D
  3
C2
350
5E
  3
C3
350
5F
  3
C4
350
60
  3
C5
350
61
  3
C6
350
62
  3
C7
350
63
  3
C8
350
64
  3
C9
350
65
  3
D0
350
66
  3
D1
350
67
  3
D2
350
68
  0
LAYOUT
  5
1E
102
{ACAD_REACTORS
330
1A
102
}
330
1A
100
AcDbPlotSettings
  1

  2
none_device
  4

  6

 40
0.0
 41
0.0
 42
0.0
 43
0.0
 44
0.0
 45
0.0
 46
0.0
 47
0.0
 48
0.0
 49
0.0
140
0.0
141
0.0
142
1.0
143
1.0
 70
   688
 72
     1
 73
     0
 74
     5
  7

 75
    16
147
1.0
148
0.0
149
0.0
100
AcDbLayout
  1
Layout1
 70
     1
 71
     1
 10
0.0
 20
0.0
 11
420.0
 21
297.0
 12
0.0
 22
0.0
 32
0.0
 14
1.0000000000E+20
 24
1.0000000000E+20
 34
1.0000000000E+20
 15
-1.0000000000E+20
 25
-1.0000000000E+20
 35
-1.0000000000E+20
146
0.0
 13
0.0
 23
0.0
 33
0.0
 16
1.0
 26
0.0
 36
0.0
 17
0.0
 27
1.0
 37
0.0
 76
     0
330
1B
  0
LAYOUT
  5
26
102
{ACAD_REACTORS
330
1A
102
}
330
1A
100
AcDbPlotSettings
  1

  2
none_device
  4

  6

 40
0.0
 41
0.0
 42
0.0
 43
0.0
 44
0.0
 45
0.0
 46
0.0
 47
0.0
 48
0.0
 49
0.0
140
0.0
141
0.0
142
1.0
143
1.0
 70
   688
 72
     1
 73
     0
 74
     5
  7

 75
    16
147
1.0
148
0.0
149
0.0
100
AcDbLayout
  1
Layout2
 70
     1
 71
     2
 10
0.0
 20
0.0
 11
0.0
 21
0.0
 12
0.0
 22
0.0
 32
0.0
 14
0.0
 24
0.0
 34
0.0
 15
0.0
 25
0.0
 35
0.0
146
0.0
 13
0.0
 23
0.0
 33
0.0
 16
1.0
 26
0.0
 36
0.0
 17
0.0
 27
1.0
 37
0.0
 76
     0
330
23
  0
LAYOUT
  5
22
102
{ACAD_REACTORS
330
1A
102
}
330
1A
100
AcDbPlotSettings
  1

  2
none_device
  4
Letter_(8.50_x_11.00_Inches)
  6

 40
6.35
 41
6.35
 42
6.35000508
 43
6.35000508
 44
215.9
 45
279.4
 46
0.0
 47
0.0
 48
0.0
 49
0.0
140
0.0
141
0.0
142
1.0
143
1.0
 70
  1712
 72
     1
 73
     0
 74
     0
  7

 75
     0
147
1.0
148
0.0
149
0.0
100
AcDbLayout
  1
Model
 70
     1
 71
     0
 10
0.0
 20
0.0
 11
297.0
 21
210.0
 12
0.0
 22
0.0
 32
0.0
 14
0.0
 24
0.0
 34
0.0
 15
297.0
 25
210.0
 35
0.0
146
0.0
 13
0.0
 23
0.0
 33
0.0
 16
1.0
 26
0.0
 36
0.0
 17
0.0
 27
1.0
 37
0.0
 76
     0
330
1F
331
29
  0
MLINESTYLE
  5
18
102
{ACAD_REACTORS
330
17
102
}
330
17
100
AcDbMlineStyle
  2
Standard
 70
     0
  3

 62
   256
 51
90.0
 52
90.0
 71
     2
 49
0.5
 62
   256
  6
BYLAYER
 49
-0.5
 62
   256
  6
BYLAYER
  0
ACDBPLACEHOLDER
  5
F
102
{ACAD_REACTORS
330
E
102
}
330
E
  0
SCALE
  5
48
102
{ACAD_REACTORS
330
47
102
}
330
47
100
AcDbScale
 70
     0
300
1:1
140
1.0
141
1.0
290
     1
  0
SCALE
  5
49
102
{ACAD_REACTORS
330
47
102
}
330
47
100
AcDbScale
 70
     0
300
1:2
140
1.0
141
2.0
290
     0
  0
SCALE
  5
4A
102
{ACAD_REACTORS
330
47
102
}
330
47
100
AcDbScale
 70
     0
300
1:4
140
1.0
141
4.0
290
     0
  0
SCALE
  5
4B
102
{ACAD_REACTORS
330
47
102
}
330
47
100
AcDbScale
 70
     0
300
1:5
140
1.0
141
5.0
290
     0
  0
SCALE
  5
4C
102
{ACAD_REACTORS
330
47
102
}
330
47
100
AcDbScale
 70
     0
300
1:8
140
1.0
141
8.0
290
     0
  0
SCALE
  5
4D
102
{ACAD_REACTORS
330
47
102
}
330
47
100
AcDbScale
 70
     0
300
1:10
140
1.0
141
10.0
290
     0
  0
SCALE
  5
4E
102
{ACAD_REACTORS
330
47
102
}
330
47
100
AcDbScale
 70
     0
300
1:16
140
1.0
141
16.0
290
     0
  0
SCALE
  5
4F
102
{ACAD_REACTORS
330
47
102
}
330
47
100
AcDbScale
 70
     0
300
1:20
140
1.0
141
20.0
290
     0
  0
SCALE
  5
50
102
{ACAD_REACTORS
330
47
102
}
330
47
100
AcDbScale
 70
     0
300
1:30
140
1.0
141
30.0
290
     0
  0
SCALE
  5
51
102
{ACAD_REACTORS
330
47
102
}
330
47
100
AcDbScale
 70
     0
300
1:40
140
1.0
141
40.0
290
     0
  0
SCALE
  5
52
102
{ACAD_REACTORS
330
47
102
}
330
47
100
AcDbScale
 70
     0
300
1:50
140
1.0
141
50.0
290
     0
  0
SCALE
  5
53
102
{ACAD_REACTORS
330
47
102
}
330
47
100
AcDbScale
 70
     0
300
1:100
140
1.0
141
100.0
290
     0
  0
SCALE
  5
54
102
{ACAD_REACTORS
330
47
102
}
330
47
100
AcDbScale
 70
     0
300
2:1
140
2.0
141
1.0
290
     0
  0
SCALE
  5
55
102
{ACAD_REACTORS
330
47
102
}
330
47
100
AcDbScale
 70
     0
300
4:1
140
4.0
141
1.0
290
     0
  0
SCALE
  5
56
102
{ACAD_REACTORS
330
47
102
}
330
47
100
AcDbScale
 70
     0
300
8:1
140
8.0
141
1.0
290
     0
  0
SCALE
  5
57
102
{ACAD_REACTORS
330
47
102
}
330
47
100
AcDbScale
 70
     0
300
10:1
140
10.0
141
1.0
290
     0
  0
SCALE
  5
58
102
{ACAD_REACTORS
330
47
102
}
330
47
100
AcDbScale
 70
     0
300
100:1
140
100.0
141
1.0
290
     0
  0
SCALE
  5
59
102
{ACAD_REACTORS
330
47
102
}
330
47
100
AcDbScale
 70
     0
300
1/128" = 1'-0"
140
0.0078125
141
12.0
290
     0
  0
SCALE
  5
5A
102
{ACAD_REACTORS
330
47
102
}
330
47
100
AcDbScale
 70
     0
300
1/64" = 1'-0"
140
0.015625
141
12.0
290
     0
  0
SCALE
  5
5B
102
{ACAD_REACTORS
330
47
102
}
330
47
100
AcDbScale
 70
     0
300
1/32" = 1'-0"
140
0.03125
141
12.0
290
     0
  0
SCALE
  5
5C
102
{ACAD_REACTORS
330
47
102
}
330
47
100
AcDbScale
 70
     0
300
1/16" = 1'-0"
140
0.0625
141
12.0
290
     0
  0
SCALE
  5
5D
102
{ACAD_REACTORS
330
47
102
}
330
47
100
AcDbScale
 70
     0
300
3/32" = 1'-0"
140
0.09375
141
12.0
290
     0
  0
SCALE
  5
5E
102
{ACAD_REACTORS
330
47
102
}
330
47
100
AcDbScale
 70
     0
300
1/8" = 1'-0"
140
0.125
141
12.0
290
     0
  0
SCALE
  5
5F
102
{ACAD_REACTORS
330
47
102
}
330
47
100
AcDbScale
 70
     0
300
3/16" = 1'-0"
140
0.1875
141
12.0
290
     0
  0
SCALE
  5
60
102
{ACAD_REACTORS
330
47
102
}
330
47
100
AcDbScale
 70
     0
300
1/4" = 1'-0"
140
0.25
141
12.0
290
     0
  0
SCALE
  5
61
102
{ACAD_REACTORS
330
47
102
}
330
47
100
AcDbScale
 70
     0
300
3/8" = 1'-0"
140
0.375
141
12.0
290
     0
  0
SCALE
  5
62
102
{ACAD_REACTORS
330
47
102
}
330
47
100
AcDbScale
 70
     0
300
1/2" = 1'-0"
140
0.5
141
12.0
290
     0
  0
SCALE
  5
63
102
{ACAD_REACTORS
330
47
102
}
330
47
100
AcDbScale
 70
     0
300
3/4" = 1'-0"
140
0.75
141
12.0
290
     0
  0
SCALE
  5
64
102
{ACAD_REACTORS
330
47
102
}
330
47
100
AcDbScale
 70
     0
300
1" = 1'-0"
140
1.0
141
12.0
290
     0
  0
SCALE
  5
65
102
{ACAD_REACTORS
330
47
102
}
330
47
100
AcDbScale
 70
     0
300
1-1/2" = 1'-0"
140
1.5
141
12.0
290
     0
  0
SCALE
  5
66
102
{ACAD_REACTORS
330
47
102
}
330
47
100
AcDbScale
 70
     0
300
3" = 1'-0"
140
3.0
141
12.0
290
     0
  0
SCALE
  5
67
102
{ACAD_REACTORS
330
47
102
}
330
47
100
AcDbScale
 70
     0
300
6" = 1'-0"
140
6.0
141
12.0
290
     0
  0
SCALE
  5
68
102
{ACAD_REACTORS
330
47
102
}
330
47
100
AcDbScale
 70
     0
300
1'-0" = 1'-0"
140
12.0
141
12.0
290
     0
  0
ENDSEC
  0
EOF
