  0
SECTION
  2
HEADER
  9
$ACADVER
  1
AC1015
  9
$ACADMAINTVER
 70
     6
  9
$DWGCODEPAGE
  3
DOS932
  9
$INSBASE
 10
0.0
 20
0.0
 30
0.0
  9
$EXTMIN
 10
0.0
 20
0.0
 30
0.0
  9
$EXTMAX
 10
297.0
 20
210.0
 30
0.0
  9
$LIMMIN
 10
0.0
 20
0.0
  9
$LIMMAX
 10
297.0
 20
210.0
  9
$ORTHOMODE
 70
     0
  9
$REGENMODE
 70
     1
  9
$FILLMODE
 70
     1
  9
$QTEXTMODE
 70
     0
  9
$MIRRTEXT
 70
     1
  9
$LTSCALE
 40
1.0
  9
$ATTMODE
 70
     1
  9
$TEXTSIZE
 40
3.5
  9
$TRACEWID
 40
1.0
  9
$TEXTSTYLE
  7
Standard
  9
$CLAYER
  8
0
  9
$CELTYPE
  6
ByLayer
  9
$CECOLOR
 62
   256
  9
$CELTSCALE
 40
1.0
  9
$DISPSILH
 70
     0
  9
$DIMSCALE
 40
1.0
  9
$DIMASZ
 40
3.556
  9
$DIMEXO
 40
1.0
  9
$DIMDLI
 40
3.75
  9
$DIMRND
 40
0.0
  9
$DIMDLE
 40
0.0
  9
$DIMEXE
 40
1.0
  9
$DIMTP
 40
0.0
  9
$DIMTM
 40
0.0
  9
$DIMTXT
 40
3.5
  9
$DIMCEN
 40
2.5
  9
$DIMTSZ
 40
0.0
  9
$DIMTOL
 70
     0
  9
$DIMLIM
 70
     0
  9
$DIMTIH
 70
     1
  9
$DIMTOH
 70
     1
  9
$DIMSE1
 70
     0
  9
$DIMSE2
 70
     0
  9
$DIMTAD
 70
     1
  9
$DIMZIN
 70
     1
  9
$DIMBLK
  1

  9
$DIMASO
 70
     1
  9
$DIMSHO
 70
     1
  9
$DIMPOST
  1

  9
$DIMAPOST
  1

  9
$DIMALT
 70
     0
  9
$DIMALTD
 70
     3
  9
$DIMALTF
 40
0.0393700787
  9
$DIMLFAC
 40
1.0
  9
$DIMTOFL
 70
     1
  9
$DIMTVP
 40
0.0
  9
$DIMTIX
 70
     0
  9
$DIMSOXD
 70
     0
  9
$DIMSAH
 70
     0
  9
$DIMBLK1
  1

  9
$DIMBLK2
  1

  9
$DIMSTYLE
  2
ISO-25
  9
$DIMCLRD
 70
     0
  9
$DIMCLRE
 70
     0
  9
$DIMCLRT
 70
     0
  9
$DIMTFAC
 40
1.0
  9
$DIMGAP
 40
1.524
  9
$DIMJUST
 70
     0
  9
$DIMSD1
 70
     0
  9
$DIMSD2
 70
     0
  9
$DIMTOLJ
 70
     0
  9
$DIMTZIN
 70
     1
  9
$DIMALTZ
 70
     0
  9
$DIMALTTZ
 70
     0
  9
$DIMUPT
 70
     0
  9
$DIMDEC
 70
     2
  9
$DIMTDEC
 70
     2
  9
$DIMALTU
 70
     2
  9
$DIMALTTD
 70
     3
  9
$DIMTXSTY
  7
Standard
  9
$DIMAUNIT
 70
     0
  9
$DIMADEC
 70
     2
  9
$DIMALTRND
 40
0.0
  9
$DIMAZIN
 70
     0
  9
$DIMDSEP
 70
    44
  9
$DIMATFIT
 70
     3
  9
$DIMFRAC
 70
     0
  9
$DIMLDRBLK
  1

  9
$DIMLUNIT
 70
     2
  9
$DIMLWD
 70
    -2
  9
$DIMLWE
 70
    -2
  9
$DIMTMOVE
 70
     0
  9
$LUNITS
 70
     2
  9
$LUPREC
 70
     2
  9
$SKETCHINC
 40
1.0
  9
$FILLETRAD
 40
10.0
  9
$AUNITS
 70
     0
  9
$AUPREC
 70
     2
  9
$MENU
  1
.
  9
$ELEVATION
 40
0.0
  9
$PELEVATION
 40
0.0
  9
$THICKNESS
 40
0.0
  9
$LIMCHECK
 70
     0
  9
$CHAMFERA
 40
0.0
  9
$CHAMFERB
 40
0.0
  9
$CHAMFERC
 40
0.0
  9
$CHAMFERD
 40
0.0
  9
$SKPOLY
 70
     0
  9
$TDCREATE
 40
2459241.620367963
  9
$TDUCREATE
 40
2459241.245367963
  9
$TDUPDATE
 40
2459241.62036838
  9
$TDUUPDATE
 40
2459241.24536838
  9
$TDINDWG
 40
0.0000000116
  9
$TDUSRTIMER
 40
0.0000000116
  9
$USRTIMER
 70
     1
  9
$ANGBASE
 50
0.0
  9
$ANGDIR
 70
     0
  9
$PDMODE
 70
     0
  9
$PDSIZE
 40
-1.0
  9
$PLINEWID
 40
0.0
  9
$SPLFRAME
 70
     0
  9
$SPLINETYPE
 70
     6
  9
$SPLINESEGS
 70
     8
  9
$HANDSEED
  5
F0
  9
$SURFTAB1
 70
     6
  9
$SURFTAB2
 70
     6
  9
$SURFTYPE
 70
     6
  9
$SURFU
 70
     6
  9
$SURFV
 70
     6
  9
$UCSBASE
  2

  9
$UCSNAME
  2

  9
$UCSORG
 10
0.0
 20
0.0
 30
0.0
  9
$UCSXDIR
 10
1.0
 20
0.0
 30
0.0
  9
$UCSYDIR
 10
0.0
 20
1.0
 30
0.0
  9
$UCSORTHOREF
  2

  9
$UCSORTHOVIEW
 70
     0
  9
$UCSORGTOP
 10
0.0
 20
0.0
 30
0.0
  9
$UCSORGBOTTOM
 10
0.0
 20
0.0
 30
0.0
  9
$UCSORGLEFT
 10
0.0
 20
0.0
 30
0.0
  9
$UCSORGRIGHT
 10
0.0
 20
0.0
 30
0.0
  9
$UCSORGFRONT
 10
0.0
 20
0.0
 30
0.0
  9
$UCSORGBACK
 10
0.0
 20
0.0
 30
0.0
  9
$PUCSBASE
  2

  9
$PUCSNAME
  2

  9
$PUCSORG
 10
0.0
 20
0.0
 30
0.0
  9
$PUCSXDIR
 10
1.0
 20
0.0
 30
0.0
  9
$PUCSYDIR
 10
0.0
 20
1.0
 30
0.0
  9
$PUCSORTHOREF
  2

  9
$PUCSORTHOVIEW
 70
     0
  9
$PUCSORGTOP
 10
0.0
 20
0.0
 30
0.0
  9
$PUCSORGBOTTOM
 10
0.0
 20
0.0
 30
0.0
  9
$PUCSORGLEFT
 10
0.0
 20
0.0
 30
0.0
  9
$PUCSORGRIGHT
 10
0.0
 20
0.0
 30
0.0
  9
$PUCSORGFRONT
 10
0.0
 20
0.0
 30
0.0
  9
$PUCSORGBACK
 10
0.0
 20
0.0
 30
0.0
  9
$USERI1
 70
     0
  9
$USERI2
 70
     0
  9
$USERI3
 70
     0
  9
$USERI4
 70
     0
  9
$USERI5
 70
     0
  9
$USERR1
 40
0.0
  9
$USERR2
 40
0.0
  9
$USERR3
 40
0.0
  9
$USERR4
 40
0.0
  9
$USERR5
 40
0.0
  9
$WORLDVIEW
 70
     1
  9
$SHADEDGE
 70
     3
  9
$SHADEDIF
 70
    70
  9
$TILEMODE
 70
     1
  9
$MAXACTVP
 70
    64
  9
$PINSBASE
 10
0.0
 20
0.0
 30
0.0
  9
$PLIMCHECK
 70
     0
  9
$PEXTMIN
 10
1.0000000000E+20
 20
1.0000000000E+20
 30
1.0000000000E+20
  9
$PEXTMAX
 10
-1.0000000000E+20
 20
-1.0000000000E+20
 30
-1.0000000000E+20
  9
$PLIMMIN
 10
0.0
 20
0.0
  9
$PLIMMAX
 10
420.0
 20
297.0
  9
$UNITMODE
 70
     0
  9
$VISRETAIN
 70
     1
  9
$PLINEGEN
 70
     0
  9
$PSLTSCALE
 70
     1
  9
$TREEDEPTH
 70
  3020
  9
$CMLSTYLE
  2
Standard
  9
$CMLJUST
 70
     0
  9
$CMLSCALE
 40
20.0
  9
$PROXYGRAPHICS
 70
     1
  9
$MEASUREMENT
 70
     1
  9
$CELWEIGHT
370
    -1
  9
$ENDCAPS
280
     0
  9
$JOINSTYLE
280
     0
  9
$LWDISPLAY
290
     1
  9
$INSUNITS
 70
     4
  9
$HYPERLINKBASE
  1

  9
$STYLESHEET
  1

  9
$XEDIT
290
     1
  9
$CEPSNTYPE
380
     0
  9
$PSTYLEMODE
290
     1
  9
$FINGERPRINTGUID
  2
{B4CAFA13-5CBA-42D7-8FA7-6A3FF8147A7D}
  9
$VERSIONGUID
  2
{FAEB1C32-E019-11D5-929B-00C0DF256EC4}
  9
$EXTNAMES
290
     1
  9
$PSVPSCALE
 40
0.0
  9
$OLESTARTUP
290
     0
  0
ENDSEC
  0
SECTION
  2
CLASSES
  0
CLASS
  1
ACDBDICTIONARYWDFLT
  2
AcDbDictionaryWithDefault
  3
ObjectDBX Classes
 90
        0
280
     0
281
     0
  0
CLASS
  1
VISUALSTYLE
  2
AcDbVisualStyle
  3
ObjectDBX Classes
 90
     4095
280
     0
281
     0
  0
CLASS
  1
MATERIAL
  2
AcDbMaterial
  3
ObjectDBX Classes
 90
     1153
280
     0
281
     0
  0
CLASS
  1
SCALE
  2
AcDbScale
  3
ObjectDBX Classes
 90
     1153
280
     0
281
     0
  0
CLASS
  1
TABLESTYLE
  2
AcDbTableStyle
  3
ObjectDBX Classes
 90
     4095
280
     0
281
     0
  0
CLASS
  1
MLEADERSTYLE
  2
AcDbMLeaderStyle
  3
ACDB_MLEADERSTYLE_CLASS
 90
     4095
280
     0
281
     0
  0
CLASS
  1
SUN
  2
AcDbSun
  3
SCENEOE
 90
     1153
280
     0
281
     0
  0
CLASS
  1
ACDBPLACEHOLDER
  2
AcDbPlaceHolder
  3
ObjectDBX Classes
 90
        0
280
     0
281
     0
  0
CLASS
  1
LAYOUT
  2
AcDbLayout
  3
ObjectDBX Classes
 90
        0
280
     0
281
     0
  0
ENDSEC
  0
SECTION
  2
TABLES
  0
TABLE
  2
VPORT
  5
8
330
0
100
AcDbSymbolTable
 70
     1
  0
VPORT
  5
29
330
8
100
AcDbSymbolTableRecord
100
AcDbViewportTableRecord
  2
*Active
 70
     0
 10
0.0
 20
0.0
 11
1.0
 21
1.0
 12
148.5
 22
105.0
 13
0.0
 23
0.0
 14
10.0
 24
10.0
 15
10.0
 25
10.0
 16
0.0
 26
0.0
 36
1.0
 17
0.0
 27
0.0
 37
0.0
 40
210.0
 41
1.4142857143
 42
50.0
 43
0.0
 44
0.0
 50
0.0
 51
0.0
 71
     0
 72
  2000
 73
     1
 74
     3
 75
     0
 76
     0
 77
     0
 78
     0
281
     0
 65
     1
110
0.0
120
0.0
130
0.0
111
1.0
121
0.0
131
0.0
112
0.0
122
1.0
132
0.0
 79
     0
146
0.0
  0
ENDTAB
  0
TABLE
  2
LTYPE
  5
5
330
0
100
AcDbSymbolTable
 70
     6
  0
LTYPE
  5
14
330
5
100
AcDbSymbolTableRecord
100
AcDbLinetypeTableRecord
  2
ByBlock
 70
     0
  3

 72
    65
 73
     0
 40
0.0
  0
LTYPE
  5
15
330
5
100
AcDbSymbolTableRecord
100
AcDbLinetypeTableRecord
  2
ByLayer
 70
     0
  3

 72
    65
 73
     0
 40
0.0
  0
LTYPE
  5
16
330
5
100
AcDbSymbolTableRecord
100
AcDbLinetypeTableRecord
  2
Continuous
 70
     0
  3
Solid line
 72
    65
 73
     0
 40
0.0
  0
LTYPE
  5
6E
330
5
100
AcDbSymbolTableRecord
100
AcDbLinetypeTableRecord
  2
HIDDEN
 70
     0
  3
Hidden __ __ __ __ __ __ __ __ __ __ __ __ __ __
 72
    65
 73
     2
 40
1.905
 49
1.27
 74
     0
 49
-0.635
 74
     0
  0
LTYPE
  5
6F
330
5
100
AcDbSymbolTableRecord
100
AcDbLinetypeTableRecord
  2
PHANTOM
 70
     0
  3
Phantom ______  __  __  ______  __  __  ______
 72
    65
 73
     6
 40
12.7
 49
6.35
 74
     0
 49
-1.27
 74
     0
 49
1.27
 74
     0
 49
-1.27
 74
     0
 49
1.27
 74
     0
 49
-1.27
 74
     0
  0
LTYPE
  5
70
330
5
100
AcDbSymbolTableRecord
100
AcDbLinetypeTableRecord
  2
CENTER
 70
     0
  3
Center ____ _ ____ _ ____ _ ____ _ ____ _ ____
 72
    65
 73
     4
 40
10.16
 49
6.35
 74
     0
 49
-1.27
 74
     0
 49
1.27
 74
     0
 49
-1.27
 74
     0
  0
LTYPE
  5
71
330
5
100
AcDbSymbolTableRecord
100
AcDbLinetypeTableRecord
  2
CENTERX2
 70
     0
  3
Center (2x) ________  __  ________  __  _____
 72
    65
 73
     4
 40
20.32
 49
12.7
 74
     0
 49
-2.54
 74
     0
 49
2.54
 74
     0
 49
-2.54
 74
     0
  0
LTYPE
  5
72
330
5
100
AcDbSymbolTableRecord
100
AcDbLinetypeTableRecord
  2
DOT2
 70
     0
  3
Dot (.5x) ........................................
 72
    65
 73
     2
 40
0.635
 49
0.0
 74
     0
 49
-0.635
 74
     0
  0
ENDTAB
  0
TABLE
  2
LAYER
  5
2
330
0
100
AcDbSymbolTable
 70
     1
  0
LAYER
  5
10
330
2
100
AcDbSymbolTableRecord
100
AcDbLayerTableRecord
  2
0
 70
     0
 62
     7
  6
Continuous
370
    -3
390
F
  0
ENDTAB
  0
TABLE
  2
STYLE
  5
3
330
0
100
AcDbSymbolTable
 70
     2
  0
STYLE
  5
11
330
3
100
AcDbSymbolTableRecord
100
AcDbTextStyleTableRecord
  2
Standard
 70
     0
 40
0.0
 41
1.0
 50
0.0
 71
     0
 42
3.5
  3
txt
  4
bigfont
  0
STYLE
  5
73
330
3
100
AcDbSymbolTableRecord
100
AcDbTextStyleTableRecord
  2
SLDTEXTSTYLE0
 70
     0
 40
0.0
 41
0.75
 50
0.0
 71
     0
 42
3.5
  3
TXT
  4
bigfont
  0
ENDTAB
  0
TABLE
  2
VIEW
  5
6
330
0
100
AcDbSymbolTable
 70
     0
  0
ENDTAB
  0
TABLE
  2
UCS
  5
7
330
0
100
AcDbSymbolTable
 70
     0
  0
ENDTAB
  0
TABLE
  2
APPID
  5
9
330
0
100
AcDbSymbolTable
 70
     1
  0
APPID
  5
12
330
9
100
AcDbSymbolTableRecord
100
AcDbRegAppTableRecord
  2
ACAD
 70
     0
  0
ENDTAB
  0
TABLE
  2
DIMSTYLE
  5
A
330
0
100
AcDbSymbolTable
 70
     1
100
AcDbDimStyleTable
  0
DIMSTYLE
105
27
330
A
100
AcDbSymbolTableRecord
100
AcDbDimStyleTableRecord
  2
ISO-25
 70
     0
 41
2.5
 42
0.625
 43
3.75
 44
1.25
 73
     0
 74
     0
 77
     1
 78
     8
140
2.5
141
2.5
143
0.0393700787
147
0.625
171
     3
172
     1
178
     0
271
     2
272
     2
274
     3
278
    44
283
     0
284
     8
340
11
  0
ENDTAB
  0
TABLE
  2
BLOCK_RECORD
  5
1
330
0
100
AcDbSymbolTable
 70
     1
  0
BLOCK_RECORD
  5
1F
330
1
100
AcDbSymbolTableRecord
100
AcDbBlockTableRecord
  2
*Model_Space
340
22
  0
BLOCK_RECORD
  5
1B
330
1
100
AcDbSymbolTableRecord
100
AcDbBlockTableRecord
  2
*Paper_Space
340
1E
  0
BLOCK_RECORD
  5
23
330
1
100
AcDbSymbolTableRecord
100
AcDbBlockTableRecord
  2
*Paper_Space0
340
26
  0
ENDTAB
  0
ENDSEC
  0
SECTION
  2
BLOCKS
  0
BLOCK
  5
20
330
1F
100
AcDbEntity
  8
0
100
AcDbBlockBegin
  2
*Model_Space
 70
     0
 10
0.0
 20
0.0
 30
0.0
  3
*Model_Space
  1

  0
ENDBLK
  5
21
330
1F
100
AcDbEntity
  8
0
100
AcDbBlockEnd
  0
BLOCK
  5
1C
330
1B
100
AcDbEntity
 67
     1
  8
0
100
AcDbBlockBegin
  2
*Paper_Space
 70
     0
 10
0.0
 20
0.0
 30
0.0
  3
*Paper_Space
  1

  0
ENDBLK
  5
1D
330
1B
100
AcDbEntity
 67
     1
  8
0
100
AcDbBlockEnd
  0
BLOCK
  5
24
330
23
100
AcDbEntity
  8
0
100
AcDbBlockBegin
  2
*Paper_Space0
 70
     0
 10
0.0
 20
0.0
 30
0.0
  3
*Paper_Space0
  1

  0
ENDBLK
  5
25
330
23
100
AcDbEntity
  8
0
100
AcDbBlockEnd
  0
ENDSEC
  0
SECTION
  2
ENTITIES
  0
MTEXT
  5
74
330
1F
100
AcDbEntity
  8
0
  6
Continuous
 62
     7
370
     0
100
AcDbMText
 10
122.9749385749
 20
96.302258775
 30
0.0
 40
3.5
 41
0.0
 71
     1
 72
     1
  1
AS-1022R
  7
SLDTEXTSTYLE0
 73
     1
 44
1.0
  0
LINE
  5
75
330
1F
100
AcDbEntity
  8
0
  6
Continuous
 62
     7
370
    25
100
AcDbLine
 10
77.4322738746
 20
84.0269938883
 30
0.0
 11
76.5287469287
 21
82.462039312
 31
0.0
  0
LINE
  5
76
330
1F
100
AcDbEntity
  8
0
  6
Continuous
 62
     7
370
    25
100
AcDbLine
 10
76.5287469287
 20
65.962039312
 30
0.0
 11
77.4322738746
 21
64.3970847358
 31
0.0
  0
LINE
  5
77
330
1F
100
AcDbEntity
  8
0
  6
Continuous
 62
     7
370
    25
100
AcDbLine
 10
120.6252199829
 20
64.3970847358
 30
0.0
 11
121.5287469287
 21
65.962039312
 31
0.0
  0
LINE
  5
78
330
1F
100
AcDbEntity
  8
0
  6
Continuous
 62
     7
370
    25
100
AcDbLine
 10
121.5287469287
 20
82.462039312
 30
0.0
 11
120.6252199829
 21
84.0269938883
 31
0.0
  0
LINE
  5
79
330
1F
100
AcDbEntity
  8
0
  6
Continuous
 62
     7
370
    25
100
AcDbLine
 10
105.1260701609
 20
66.8508233799
 30
0.0
 11
105.1260701609
 21
66.8421631258
 31
0.0
  0
LINE
  5
7A
330
1F
100
AcDbEntity
  8
0
  6
Continuous
 62
     7
370
    25
100
AcDbLine
 10
106.3687469287
 20
75.508039312
 30
0.0
 11
106.3687469287
 21
74.752039312
 31
0.0
  0
LINE
  5
7B
330
1F
100
AcDbEntity
  8
0
  6
Continuous
 62
     7
370
    25
100
AcDbLine
 10
108.5287469287
 20
74.212039312
 30
0.0
 11
106.3687469287
 21
75.508039312
 31
0.0
  0
LINE
  5
7C
330
1F
100
AcDbEntity
  8
0
  6
Continuous
 62
     7
370
    25
100
AcDbLine
 10
106.3687469287
 20
72.916039312
 30
0.0
 11
108.5287469287
 21
74.212039312
 31
0.0
  0
LINE
  5
7D
330
1F
100
AcDbEntity
  8
0
  6
Continuous
 62
     7
370
    25
100
AcDbLine
 10
106.3687469287
 20
73.672039312
 30
0.0
 11
106.3687469287
 21
72.916039312
 31
0.0
  0
LINE
  5
7E
330
1F
100
AcDbEntity
  8
0
  6
Continuous
 62
     7
370
    25
100
AcDbLine
 10
102.0487469287
 20
73.672039312
 30
0.0
 11
106.3687469287
 21
73.672039312
 31
0.0
  0
LINE
  5
7F
330
1F
100
AcDbEntity
  8
0
  6
Continuous
 62
     7
370
    25
100
AcDbLine
 10
102.0487469287
 20
74.212039312
 30
0.0
 11
102.0487469287
 21
73.672039312
 31
0.0
  0
LINE
  5
80
330
1F
100
AcDbEntity
  8
0
  6
Continuous
 62
     7
370
    25
100
AcDbLine
 10
102.0487469287
 20
74.752039312
 30
0.0
 11
102.0487469287
 21
74.212039312
 31
0.0
  0
LINE
  5
81
330
1F
100
AcDbEntity
  8
0
  6
Continuous
 62
     7
370
    25
100
AcDbLine
 10
106.3687469287
 20
74.752039312
 30
0.0
 11
102.0487469287
 21
74.752039312
 31
0.0
  0
SPLINE
  5
82
330
1F
100
AcDbEntity
  8
0
  6
Continuous
 62
     7
370
    25
100
AcDbSpline
210
0.0
220
0.0
230
1.0
 70
     8
 71
     3
 72
    14
 73
    10
 74
     0
 42
0.000000001
 43
0.00000001
 40
0.0
 40
0.0
 40
0.0
 40
0.0
 40
0.25
 40
0.25
 40
0.5
 40
0.5
 40
0.75
 40
0.75
 40
1.0
 40
1.0
 40
1.0
 40
1.0
 10
77.43227387459909
 20
69.30456202392743
 30
0.0
 10
77.20159197139452
 20
70.1036675774014
 30
0.0
 10
77.00842259042429
 20
70.92115463280847
 30
0.0
 10
76.74432567206271
 20
72.5593157409205
 30
0.0
 10
76.6729859929764
 20
73.38353080764847
 30
0.0
 10
76.6731832067799
 20
75.04404488626359
 30
0.0
 10
76.7466318275366
 20
75.88509778462087
 30
0.0
 10
77.01259154387631
 20
77.52260417838602
 30
0.0
 10
77.20324232764145
 20
78.32612804841759
 30
0.0
 10
77.4322738745991
 20
79.1195166001511
 30
0.0
  0
SPLINE
  5
83
330
1F
100
AcDbEntity
  8
0
  6
Continuous
 62
     7
370
    25
100
AcDbSpline
210
0.0
220
0.0
230
1.0
 70
     8
 71
     3
 72
    16
 73
    12
 74
     0
 42
0.000000001
 43
0.00000001
 40
0.0
 40
0.0
 40
0.0
 40
0.0
 40
0.2500000000000001
 40
0.2500000000000001
 40
0.5000000000000002
 40
0.5000000000000002
 40
0.6250000000000001
 40
0.6250000000000001
 40
0.7500000000000001
 40
0.7500000000000001
 40
1.0
 40
1.0
 40
1.0
 40
1.0
 10
77.43227387459869
 20
64.3970847358156
 30
0.0
 10
77.20095912091607
 20
64.79773364173417
 30
0.0
 10
77.01031382758563
 20
65.20130363141904
 30
0.0
 10
76.74620817117834
 20
66.01686041776011
 30
0.0
 10
76.67361897986436
 20
66.42890978632343
 30
0.0
 10
76.6728217337734
 20
67.05474715437305
 30
0.0
 10
76.69056699039685
 20
67.26434113783615
 30
0.0
 10
76.75976407392665
 20
67.67894015521239
 30
0.0
 10
76.81114567998893
 20
67.88484966723456
 30
0.0
 10
77.00955367872555
 20
68.49891226528773
 30
0.0
 10
77.2006707804295
 20
68.9034136976359
 30
0.0
 10
77.4322738745989
 20
69.30456202392746
 30
0.0
  0
SPLINE
  5
84
330
1F
100
AcDbEntity
  8
0
  6
Continuous
 62
     7
370
    25
100
AcDbSpline
210
0.0
220
0.0
230
1.0
 70
     8
 71
     3
 72
    16
 73
    12
 74
     0
 42
0.000000001
 43
0.00000001
 40
0.0
 40
0.0
 40
0.0
 40
0.0
 40
0.2499999999999998
 40
0.2499999999999998
 40
0.4999999999999996
 40
0.4999999999999996
 40
0.6249999999999994
 40
0.6249999999999994
 40
0.7499999999999996
 40
0.7499999999999996
 40
1.0
 40
1.0
 40
1.0
 40
1.0
 10
77.43227387459869
 20
79.11951660015107
 30
0.0
 10
77.20095912091607
 20
79.52016550606965
 30
0.0
 10
77.01031382758563
 20
79.9237354957545
 30
0.0
 10
76.74620817117834
 20
80.73929228209559
 30
0.0
 10
76.67361897986437
 20
81.1513416506589
 30
0.0
 10
76.6728217337734
 20
81.77717901870851
 30
0.0
 10
76.69056699039686
 20
81.98677300217162
 30
0.0
 10
76.75976407392666
 20
82.40137201954786
 30
0.0
 10
76.81114567998894
 20
82.60728153157002
 30
0.0
 10
77.00955367872555
 20
83.22134412962319
 30
0.0
 10
77.2006707804295
 20
83.62584556197137
 30
0.0
 10
77.4322738745989
 20
84.02699388826294
 30
0.0
  0
LINE
  5
85
330
1F
100
AcDbEntity
  8
0
  6
Continuous
 62
     7
370
    25
100
AcDbLine
 10
76.5287469287
 20
74.212039312
 30
0.0
 11
76.5287469287
 21
82.462039312
 31
0.0
  0
LINE
  5
86
330
1F
100
AcDbEntity
  8
0
  6
Continuous
 62
     7
370
    25
100
AcDbLine
 10
76.5287469287
 20
65.962039312
 30
0.0
 11
76.5287469287
 21
74.212039312
 31
0.0
  0
SPLINE
  5
87
330
1F
100
AcDbEntity
  8
0
  6
Continuous
 62
     7
370
    25
100
AcDbSpline
210
0.0
220
0.0
230
1.0
 70
     8
 71
     3
 72
    16
 73
    12
 74
     0
 42
0.000000001
 43
0.00000001
 40
0.0
 40
0.0
 40
0.0
 40
0.0
 40
0.2500000000000001
 40
0.2500000000000001
 40
0.5000000000000002
 40
0.5000000000000002
 40
0.6250000000000001
 40
0.6250000000000001
 40
0.7500000000000001
 40
0.7500000000000001
 40
1.0
 40
1.0
 40
1.0
 40
1.0
 10
120.625219982895
 20
64.3970847358156
 30
0.0
 10
120.8565347365776
 20
64.79773364173417
 30
0.0
 10
121.0471800299081
 20
65.20130363141904
 30
0.0
 10
121.3112856863154
 20
66.01686041776011
 30
0.0
 10
121.3838748776294
 20
66.42890978632343
 30
0.0
 10
121.3846721237203
 20
67.05474715437305
 30
0.0
 10
121.3669268670969
 20
67.26434113783615
 30
0.0
 10
121.2977297835671
 20
67.67894015521239
 30
0.0
 10
121.2463481775048
 20
67.88484966723456
 30
0.0
 10
121.0479401787682
 20
68.49891226528773
 30
0.0
 10
120.8568230770642
 20
68.9034136976359
 30
0.0
 10
120.6252199828948
 20
69.30456202392746
 30
0.0
  0
SPLINE
  5
88
330
1F
100
AcDbEntity
  8
0
  6
Continuous
 62
     7
370
    25
100
AcDbSpline
210
0.0
220
0.0
230
1.0
 70
     8
 71
     3
 72
    14
 73
    10
 74
     0
 42
0.000000001
 43
0.00000001
 40
0.0
 40
0.0
 40
0.0
 40
0.0
 40
0.25
 40
0.25
 40
0.5
 40
0.5
 40
0.75
 40
0.75
 40
1.0
 40
1.0
 40
1.0
 40
1.0
 10
120.6252199828946
 20
69.30456202392743
 30
0.0
 10
120.8559018860992
 20
70.1036675774014
 30
0.0
 10
121.0490712670694
 20
70.92115463280847
 30
0.0
 10
121.313168185431
 20
72.5593157409205
 30
0.0
 10
121.3845078645173
 20
73.38353080764847
 30
0.0
 10
121.3843106507138
 20
75.04404488626359
 30
0.0
 10
121.3108620299571
 20
75.88509778462087
 30
0.0
 10
121.0449023136174
 20
77.52260417838602
 30
0.0
 10
120.8542515298523
 20
78.32612804841759
 30
0.0
 10
120.6252199828946
 20
79.1195166001511
 30
0.0
  0
SPLINE
  5
89
330
1F
100
AcDbEntity
  8
0
  6
Continuous
 62
     7
370
    25
100
AcDbSpline
210
0.0
220
0.0
230
1.0
 70
     8
 71
     3
 72
    16
 73
    12
 74
     0
 42
0.000000001
 43
0.00000001
 40
0.0
 40
0.0
 40
0.0
 40
0.0
 40
0.2499999999999998
 40
0.2499999999999998
 40
0.4999999999999996
 40
0.4999999999999996
 40
0.6249999999999994
 40
0.6249999999999994
 40
0.7499999999999996
 40
0.7499999999999996
 40
1.0
 40
1.0
 40
1.0
 40
1.0
 10
120.625219982895
 20
79.11951660015107
 30
0.0
 10
120.8565347365776
 20
79.52016550606965
 30
0.0
 10
121.0471800299081
 20
79.9237354957545
 30
0.0
 10
121.3112856863154
 20
80.73929228209559
 30
0.0
 10
121.3838748776294
 20
81.1513416506589
 30
0.0
 10
121.3846721237203
 20
81.77717901870851
 30
0.0
 10
121.3669268670969
 20
81.98677300217162
 30
0.0
 10
121.297729783567
 20
82.40137201954786
 30
0.0
 10
121.2463481775048
 20
82.60728153157002
 30
0.0
 10
121.0479401787682
 20
83.22134412962319
 30
0.0
 10
120.8568230770642
 20
83.62584556197137
 30
0.0
 10
120.6252199828948
 20
84.02699388826294
 30
0.0
  0
LINE
  5
8A
330
1F
100
AcDbEntity
  8
0
  6
Continuous
 62
     7
370
    25
100
AcDbLine
 10
121.5287469287
 20
74.212039312
 30
0.0
 11
121.5287469287
 21
82.462039312
 31
0.0
  0
LINE
  5
8B
330
1F
100
AcDbEntity
  8
0
  6
Continuous
 62
     7
370
    25
100
AcDbLine
 10
121.5287469287
 20
65.962039312
 30
0.0
 11
121.5287469287
 21
74.212039312
 31
0.0
  0
LINE
  5
8C
330
1F
100
AcDbEntity
  8
0
  6
Continuous
 62
     7
370
    25
100
AcDbLine
 10
77.4322738746
 20
79.1195166002
 30
0.0
 11
120.6252199829
 21
79.1195166002
 31
0.0
  0
LINE
  5
8D
330
1F
100
AcDbEntity
  8
0
  6
Continuous
 62
     7
370
    25
100
AcDbLine
 10
77.4322738746
 20
69.3045620239
 30
0.0
 11
120.6252199829
 21
69.3045620239
 31
0.0
  0
LINE
  5
8E
330
1F
100
AcDbEntity
  8
0
  6
Continuous
 62
     7
370
    25
100
AcDbLine
 10
77.4322738746
 20
64.3970847358
 30
0.0
 11
120.6252199829
 21
64.3970847358
 31
0.0
  0
ARC
  5
8F
330
1F
100
AcDbEntity
  8
0
  6
Continuous
 62
     7
370
    25
100
AcDbCircle
 10
109.0950449494
 20
66.9655994453
 30
0.0
 40
0.7089010425970375
100
AcDbArc
 50
189.317604674
 51
255.022767465
  0
LINE
  5
90
330
1F
100
AcDbEntity
  8
0
  6
Continuous
 62
     7
370
    25
100
AcDbLine
 10
108.9118399685
 20
67.4208659935
 30
0.0
 11
107.8066553094
 21
67.700070539
 31
0.0
  0
ARC
  5
91
330
1F
100
AcDbEntity
  8
0
  6
Continuous
 62
     7
370
    25
100
AcDbCircle
 10
107.7696693948
 20
67.5845429874
 30
0.0
 40
0.1819275320361144
100
AcDbArc
 50
285.500463803
 51
348.3722863664
  0
LINE
  5
92
330
1F
100
AcDbEntity
  8
0
  6
Continuous
 62
     7
370
    25
100
AcDbLine
 10
107.8182888322
 20
67.4092324708
 30
0.0
 11
105.3752490594
 21
67.0369597435
 31
0.0
  0
LWPOLYLINE
  5
93
330
1F
100
AcDbEntity
  8
0
  6
Continuous
 62
     7
370
    25
100
AcDbPolyline
 90
        5
 70
   128
 43
0.0
 10
105.3752490594
 20
67.0369597435
 10
105.273667979
 20
67.0066143526
 10
105.1941138422
 20
66.962815876
 10
105.1434564221
 20
66.9093464625
 10
105.1260701609
 20
66.8508233799
  0
ARC
  5
94
330
1F
100
AcDbEntity
  8
0
  6
Continuous
 62
     7
370
    25
100
AcDbCircle
 10
107.760856263
 20
66.1878597031
 30
0.0
 40
0.1918308849662168
100
AcDbArc
 50
283.8125985201
 51
347.1238648064
  0
LINE
  5
95
330
1F
100
AcDbEntity
  8
0
  6
Continuous
 62
     7
370
    25
100
AcDbLine
 10
77.4322738746
 20
84.0269938883
 30
0.0
 11
120.6252199829
 21
84.0269938883
 31
0.0
  0
LINE
  5
96
330
1F
100
AcDbEntity
  8
0
  6
Continuous
 62
     7
370
    25
100
AcDbLine
 10
107.8182888322
 20
67.4005722167
 30
0.0
 11
105.3752490594
 21
67.0282994895
 31
0.0
  0
LWPOLYLINE
  5
97
330
1F
100
AcDbEntity
  8
0
  6
Continuous
 62
     7
370
    25
100
AcDbPolyline
 90
        9
 70
   128
 43
0.0
 10
107.8066553094
 20
67.6914102849
 10
107.8649335206
 20
67.6621053232
 10
107.9091651176
 20
67.6271945839
 10
107.937258738
 20
67.58832872
 10
107.9478860567
 20
67.5473453907
 10
107.9405445918
 20
67.5061823735
 10
107.9155814632
 20
67.4667859421
 10
107.8741769798
 20
67.4310188421
 10
107.8182888322
 20
67.4005722167
  0
LINE
  5
98
330
1F
100
AcDbEntity
  8
0
  6
Continuous
 62
     7
370
    25
100
AcDbLine
 10
108.9118399685
 20
67.4122057395
 30
0.0
 11
107.8066553094
 21
67.6914102849
 31
0.0
  0
LWPOLYLINE
  5
99
330
1F
100
AcDbEntity
  8
0
  6
Continuous
 62
     7
370
    25
100
AcDbPolyline
 90
       12
 70
   128
 43
0.0
 10
108.9118399685
 20
66.2721205122
 10
108.7481771509
 20
66.3559725539
 10
108.6122979517
 20
66.451428068
 10
108.5074452774
 20
66.5562089037
 10
108.4361215523
 20
66.6678143513
 10
108.4000289955
 20
66.783580824
 10
108.4000289955
 20
66.9007454277
 10
108.4361215523
 20
67.0165119004
 10
108.5074452774
 20
67.1281173479
 10
108.6122979517
 20
67.2328981837
 10
108.7481771509
 20
67.3283536978
 10
108.9118399685
 20
67.4122057395
  0
LINE
  5
9A
330
1F
100
AcDbEntity
  8
0
  6
Continuous
 62
     7
370
    25
100
AcDbLine
 10
107.8066553094
 20
65.9929159667
 30
0.0
 11
108.9118399685
 21
66.2721205122
 31
0.0
  0
LWPOLYLINE
  5
9B
330
1F
100
AcDbEntity
  8
0
  6
Continuous
 62
     7
370
    25
100
AcDbPolyline
 90
        9
 70
   128
 43
0.0
 10
107.8182888322
 20
66.2837540349
 10
107.8741769798
 20
66.2533074096
 10
107.9155814632
 20
66.2175403095
 10
107.9405445918
 20
66.1781438781
 10
107.9478860567
 20
66.136980861
 10
107.937258738
 20
66.0959975317
 10
107.9091651176
 20
66.0571316677
 10
107.8649335206
 20
66.0222209285
 10
107.8066553094
 20
65.9929159667
  0
LINE
  5
9C
330
1F
100
AcDbEntity
  8
0
  6
Continuous
 62
     7
370
    25
100
AcDbLine
 10
105.3752490594
 20
66.6560267622
 30
0.0
 11
107.8182888322
 21
66.2837540349
 31
0.0
  0
LWPOLYLINE
  5
9D
330
1F
100
AcDbEntity
  8
0
  6
Continuous
 62
     7
370
    25
100
AcDbPolyline
 90
        9
 70
   128
 43
0.0
 10
105.3752490594
 20
67.0282994895
 10
105.273667979
 20
66.9979540986
 10
105.1941138422
 20
66.9541556219
 10
105.1434564221
 20
66.9006862085
 10
105.1260701609
 20
66.8421631258
 10
105.1434564221
 20
66.7836400432
 10
105.1941138422
 20
66.7301706297
 10
105.273667979
 20
66.6863721531
 10
105.3752490594
 20
66.6560267622
  0
LINE
  5
9E
330
1F
100
AcDbEntity
  8
0
  6
Continuous
 62
     7
370
    25
100
AcDbLine
 10
106.6287611333
 20
66.8421631258
 30
0.0
 11
107.3762149685
 21
66.7282653986
 31
0.0
  0
LINE
  5
9F
330
1F
100
AcDbEntity
  8
0
  6
Continuous
 62
     7
370
    25
100
AcDbLine
 10
107.3762149685
 20
66.7282653986
 30
0.0
 11
107.3762149685
 21
66.9560608531
 31
0.0
  0
LINE
  5
A0
330
1F
100
AcDbEntity
  8
0
  6
Continuous
 62
     7
370
    25
100
AcDbLine
 10
107.3762149685
 20
66.9560608531
 30
0.0
 11
106.6287611333
 21
66.8421631258
 31
0.0
  0
LINE
  5
A1
330
1F
100
AcDbEntity
  8
0
  6
Continuous
 62
     7
370
    25
100
AcDbLine
 10
107.8182888322
 20
67.4092324708
 30
0.0
 11
107.8182888322
 21
67.4005722167
 31
0.0
  0
LINE
  5
A2
330
1F
100
AcDbEntity
  8
0
  6
Continuous
 62
     7
370
    25
100
AcDbLine
 10
107.8066553094
 20
67.700070539
 30
0.0
 11
107.8066553094
 21
67.6914102849
 31
0.0
  0
LINE
  5
A3
330
1F
100
AcDbEntity
  8
0
  6
Continuous
 62
     7
370
    25
100
AcDbLine
 10
108.9118399685
 20
67.4208659935
 30
0.0
 11
108.9118399685
 21
67.4122057395
 31
0.0
  0
LINE
  5
A4
330
1F
100
AcDbEntity
  8
0
  6
Continuous
 62
     7
370
    25
100
AcDbLine
 10
108.9118399685
 20
66.2807807662
 30
0.0
 11
108.9118399685
 21
66.2721205122
 31
0.0
  0
LINE
  5
A5
330
1F
100
AcDbEntity
  8
0
  6
Continuous
 62
     7
370
    25
100
AcDbLine
 10
105.3752490594
 20
67.0369597435
 30
0.0
 11
105.3752490594
 21
67.0282994895
 31
0.0
  0
LINE
  5
A6
330
1F
100
AcDbEntity
  8
0
  6
Continuous
 62
     7
370
    25
100
AcDbLine
 10
106.6571775919
 20
66.8464932529
 30
0.0
 11
107.3762149685
 21
66.7369256526
 31
0.0
  0
LINE
  5
A7
330
1F
100
AcDbEntity
  8
0
  6
Continuous
 62
     7
370
    25
100
AcDbLine
 10
107.8066553094
 20
66.0015762208
 30
0.0
 11
107.8066553094
 21
65.9929159667
 31
0.0
  0
LINE
  5
A8
330
1F
100
AcDbEntity
  8
0
  6
Continuous
 62
     7
370
    25
100
AcDbLine
 10
76.673084496
 20
125.0783783784
 30
0.0
 11
76.5287469287
 21
124.8283783784
 31
0.0
  0
LINE
  5
A9
330
1F
100
AcDbEntity
  8
0
  6
Continuous
 62
     7
370
    25
100
AcDbLine
 10
76.5287469287
 20
108.3283783784
 30
0.0
 11
76.673084496
 21
108.0783783784
 31
0.0
  0
LINE
  5
AA
330
1F
100
AcDbEntity
  8
0
  6
Continuous
 62
     7
370
    25
100
AcDbLine
 10
121.3844093614
 20
108.0783783784
 30
0.0
 11
121.5287469287
 21
108.3283783784
 31
0.0
  0
LINE
  5
AB
330
1F
100
AcDbEntity
  8
0
  6
Continuous
 62
     7
370
    25
100
AcDbLine
 10
121.5287469287
 20
124.8283783784
 30
0.0
 11
121.3844093614
 21
125.0783783784
 31
0.0
  0
SPLINE
  5
AC
330
1F
100
AcDbEntity
  8
0
  6
Continuous
 62
     7
370
    25
100
AcDbSpline
210
0.0
220
0.0
230
1.0
 70
    24
 71
     3
 72
    12
 73
     8
 74
     0
 42
0.000000001
 43
0.00000001
 40
0.0
 40
0.0
 40
0.0
 40
0.0
 40
0.2421115169541268
 40
0.4302532428498201
 40
0.6190125863656696
 40
0.809313663111631
 40
1.0
 40
1.0
 40
1.0
 40
1.0
 10
76.6764140950101
 20
108.0783783783783
 30
0.0
 10
76.68440068537822
 20
108.0783783783783
 30
0.0
 10
76.69859355174175
 20
108.0783783783783
 30
0.0
 10
76.81799163437384
 20
108.0783783783783
 30
0.0
 10
76.97501203478707
 20
108.0783783783783
 30
0.0
 10
77.17878301829748
 20
108.0783783783783
 30
0.0
 10
77.34771997864244
 20
108.0783783783783
 30
0.0
 10
77.4322738745991
 20
108.0783783783783
 30
0.0
  0
SPLINE
  5
AD
330
1F
100
AcDbEntity
  8
0
  6
Continuous
 62
     7
370
    25
100
AcDbSpline
210
0.0
220
0.0
230
1.0
 70
    24
 71
     3
 72
    12
 73
     8
 74
     0
 42
0.000000001
 43
0.00000001
 40
0.0
 40
0.0
 40
0.0
 40
0.0
 40
0.1884157449904136
 40
0.3771673638289993
 40
0.567229528646652
 40
0.7578854764740769
 40
1.0
 40
1.0
 40
1.0
 40
1.0
 10
77.4322738745991
 20
125.0783783783783
 30
0.0
 10
77.34868767609558
 20
125.0783783783783
 30
0.0
 10
77.18136627658268
 20
125.0783783783783
 30
0.0
 10
76.97782097920202
 20
125.0783783783783
 30
0.0
 10
76.81922661234893
 20
125.0783783783783
 30
0.0
 10
76.69904889368819
 20
125.0783783783783
 30
0.0
 10
76.68345581375044
 20
125.0783783783783
 30
0.0
 10
76.67473222614609
 20
125.0783783783783
 30
0.0
  0
SPLINE
  5
AE
330
1F
100
AcDbEntity
  8
0
  6
Continuous
 62
     7
370
    25
100
AcDbSpline
210
0.0
220
0.0
230
1.0
 70
     8
 71
     3
 72
    16
 73
    12
 74
     0
 42
0.000000001
 43
0.00000001
 40
0.0
 40
0.0
 40
0.0
 40
0.0
 40
0.2500000000000001
 40
0.2500000000000001
 40
0.5000000000000002
 40
0.5000000000000002
 40
0.6250000000000001
 40
0.6250000000000001
 40
0.7500000000000001
 40
0.7500000000000001
 40
1.0
 40
1.0
 40
1.0
 40
1.0
 10
77.43227387459869
 20
116.5783783783783
 30
0.0
 10
77.20095912091607
 20
117.2723226394262
 30
0.0
 10
77.01031382758563
 20
117.9713263659704
 30
0.0
 10
76.74620817117834
 20
119.3839121563707
 30
0.0
 10
76.67361897986437
 20
120.0976025979491
 30
0.0
 10
76.6728217337734
 20
121.1815847166861
 30
0.0
 10
76.69056699039685
 20
121.544612145005
 30
0.0
 10
76.75976407392665
 20
122.2627187078688
 30
0.0
 10
76.81114567998893
 20
122.6193644444529
 30
0.0
 10
77.00955367872555
 20
123.6829520633087
 30
0.0
 10
77.2006707804295
 20
124.3835690958702
 30
0.0
 10
77.4322738745989
 20
125.0783783783784
 30
0.0
  0
SPLINE
  5
AF
330
1F
100
AcDbEntity
  8
0
  6
Continuous
 62
     7
370
    25
100
AcDbSpline
210
0.0
220
0.0
230
1.0
 70
     8
 71
     3
 72
    16
 73
    12
 74
     0
 42
0.000000001
 43
0.00000001
 40
0.0
 40
0.0
 40
0.0
 40
0.0
 40
0.2499999999999998
 40
0.2499999999999998
 40
0.4999999999999996
 40
0.4999999999999996
 40
0.6249999999999994
 40
0.6249999999999994
 40
0.7499999999999996
 40
0.7499999999999996
 40
1.0
 40
1.0
 40
1.0
 40
1.0
 10
77.43227387459869
 20
108.0783783783783
 30
0.0
 10
77.20095912091607
 20
108.7723226394262
 30
0.0
 10
77.01031382758563
 20
109.4713263659704
 30
0.0
 10
76.74620817117834
 20
110.8839121563707
 30
0.0
 10
76.67361897986437
 20
111.597602597949
 30
0.0
 10
76.6728217337734
 20
112.6815847166862
 30
0.0
 10
76.69056699039686
 20
113.044612145005
 30
0.0
 10
76.75976407392666
 20
113.7627187078688
 30
0.0
 10
76.81114567998894
 20
114.1193644444529
 30
0.0
 10
77.00955367872555
 20
115.1829520633087
 30
0.0
 10
77.2006707804295
 20
115.8835690958702
 30
0.0
 10
77.4322738745989
 20
116.5783783783783
 30
0.0
  0
LINE
  5
B0
330
1F
100
AcDbEntity
  8
0
  6
Continuous
 62
     7
370
    25
100
AcDbLine
 10
76.5287469287
 20
108.3283783784
 30
0.0
 11
76.5287469287
 21
124.8283783784
 31
0.0
  0
LINE
  5
B1
330
1F
100
AcDbEntity
  8
0
  6
Continuous
 62
     7
370
    25
100
AcDbLine
 10
77.4322738746
 20
125.0783783784
 30
0.0
 11
120.6252199829
 21
125.0783783784
 31
0.0
  0
SPLINE
  5
B2
330
1F
100
AcDbEntity
  8
0
  6
Continuous
 62
     7
370
    25
100
AcDbSpline
210
0.0
220
0.0
230
1.0
 70
     8
 71
     3
 72
    16
 73
    12
 74
     0
 42
0.000000001
 43
0.00000001
 40
0.0
 40
0.0
 40
0.0
 40
0.0
 40
0.2500000000000001
 40
0.2500000000000001
 40
0.5000000000000002
 40
0.5000000000000002
 40
0.6250000000000001
 40
0.6250000000000001
 40
0.7500000000000001
 40
0.7500000000000001
 40
1.0
 40
1.0
 40
1.0
 40
1.0
 10
120.625219982895
 20
116.5783783783783
 30
0.0
 10
120.8565347365776
 20
117.2723226394262
 30
0.0
 10
121.0471800299081
 20
117.9713263659704
 30
0.0
 10
121.3112856863154
 20
119.3839121563707
 30
0.0
 10
121.3838748776294
 20
120.0976025979491
 30
0.0
 10
121.3846721237203
 20
121.1815847166861
 30
0.0
 10
121.3669268670969
 20
121.544612145005
 30
0.0
 10
121.2977297835671
 20
122.2627187078688
 30
0.0
 10
121.2463481775048
 20
122.6193644444529
 30
0.0
 10
121.0479401787682
 20
123.6829520633087
 30
0.0
 10
120.8568230770642
 20
124.3835690958702
 30
0.0
 10
120.6252199828948
 20
125.0783783783784
 30
0.0
  0
LINE
  5
B3
330
1F
100
AcDbEntity
  8
0
  6
Continuous
 62
     7
370
    25
100
AcDbLine
 10
77.4322738746
 20
116.5783783784
 30
0.0
 11
120.6252199829
 21
116.5783783784
 31
0.0
  0
SPLINE
  5
B4
330
1F
100
AcDbEntity
  8
0
  6
Continuous
 62
     7
370
    25
100
AcDbSpline
210
0.0
220
0.0
230
1.0
 70
    24
 71
     3
 72
    12
 73
     8
 74
     0
 42
0.000000001
 43
0.00000001
 40
0.0
 40
0.0
 40
0.0
 40
0.0
 40
0.1884157449904136
 40
0.3771673638289993
 40
0.567229528646652
 40
0.7578854764740769
 40
1.0
 40
1.0
 40
1.0
 40
1.0
 10
120.6252199828946
 20
125.0783783783783
 30
0.0
 10
120.7088061813981
 20
125.0783783783783
 30
0.0
 10
120.876127580911
 20
125.0783783783783
 30
0.0
 10
121.0796728782917
 20
125.0783783783783
 30
0.0
 10
121.2382672451448
 20
125.0783783783783
 30
0.0
 10
121.3584449638055
 20
125.0783783783783
 30
0.0
 10
121.3740380437433
 20
125.0783783783783
 30
0.0
 10
121.3827616313476
 20
125.0783783783783
 30
0.0
  0
SPLINE
  5
B5
330
1F
100
AcDbEntity
  8
0
  6
Continuous
 62
     7
370
    25
100
AcDbSpline
210
0.0
220
0.0
230
1.0
 70
    24
 71
     3
 72
    12
 73
     8
 74
     0
 42
0.000000001
 43
0.00000001
 40
0.0
 40
0.0
 40
0.0
 40
0.0
 40
0.2421115169541268
 40
0.4302532428498201
 40
0.6190125863656696
 40
0.809313663111631
 40
1.0
 40
1.0
 40
1.0
 40
1.0
 10
121.3810797624836
 20
108.0783783783783
 30
0.0
 10
121.3730931721155
 20
108.0783783783783
 30
0.0
 10
121.358900305752
 20
108.0783783783783
 30
0.0
 10
121.2395022231199
 20
108.0783783783783
 30
0.0
 10
121.0824818227066
 20
108.0783783783783
 30
0.0
 10
120.8787108391962
 20
108.0783783783783
 30
0.0
 10
120.7097738788513
 20
108.0783783783783
 30
0.0
 10
120.6252199828946
 20
108.0783783783783
 30
0.0
  0
SPLINE
  5
B6
330
1F
100
AcDbEntity
  8
0
  6
Continuous
 62
     7
370
    25
100
AcDbSpline
210
0.0
220
0.0
230
1.0
 70
     8
 71
     3
 72
    16
 73
    12
 74
     0
 42
0.000000001
 43
0.00000001
 40
0.0
 40
0.0
 40
0.0
 40
0.0
 40
0.2499999999999998
 40
0.2499999999999998
 40
0.4999999999999996
 40
0.4999999999999996
 40
0.6249999999999994
 40
0.6249999999999994
 40
0.7499999999999996
 40
0.7499999999999996
 40
1.0
 40
1.0
 40
1.0
 40
1.0
 10
120.625219982895
 20
108.0783783783783
 30
0.0
 10
120.8565347365776
 20
108.7723226394262
 30
0.0
 10
121.0471800299081
 20
109.4713263659704
 30
0.0
 10
121.3112856863154
 20
110.8839121563707
 30
0.0
 10
121.3838748776294
 20
111.597602597949
 30
0.0
 10
121.3846721237203
 20
112.6815847166862
 30
0.0
 10
121.3669268670969
 20
113.044612145005
 30
0.0
 10
121.297729783567
 20
113.7627187078688
 30
0.0
 10
121.2463481775048
 20
114.1193644444529
 30
0.0
 10
121.0479401787682
 20
115.1829520633087
 30
0.0
 10
120.8568230770642
 20
115.8835690958702
 30
0.0
 10
120.6252199828948
 20
116.5783783783783
 30
0.0
  0
LINE
  5
B7
330
1F
100
AcDbEntity
  8
0
  6
Continuous
 62
     7
370
    25
100
AcDbLine
 10
121.5287469287
 20
108.3283783784
 30
0.0
 11
121.5287469287
 21
124.8283783784
 31
0.0
  0
LINE
  5
B8
330
1F
100
AcDbEntity
  8
0
  6
Continuous
 62
     7
370
    25
100
AcDbLine
 10
77.4322738746
 20
108.0783783784
 30
0.0
 11
120.6252199829
 21
108.0783783784
 31
0.0
  0
LINE
  5
B9
330
1F
100
AcDbEntity
  8
0
  6
Continuous
 62
     7
370
    25
100
AcDbLine
 10
108.5287469287
 20
125.0883783784
 30
0.0
 11
108.5287469287
 21
125.0783783784
 31
0.0
  0
LINE
  5
BA
330
1F
100
AcDbEntity
  8
0
  6
Continuous
 62
     7
370
    25
100
AcDbLine
 10
106.3687469287
 20
125.0883783784
 30
0.0
 11
106.3687469287
 21
125.0783783784
 31
0.0
  0
LINE
  5
BB
330
1F
100
AcDbEntity
  8
0
  6
Continuous
 62
     7
370
    25
100
AcDbLine
 10
108.5287469287
 20
125.0883783784
 30
0.0
 11
106.3687469287
 21
125.0883783784
 31
0.0
  0
LINE
  5
BC
330
1F
100
AcDbEntity
  8
0
  6
Continuous
 62
     7
370
    25
100
AcDbLine
 10
108.5287469287
 20
108.0783783784
 30
0.0
 11
108.5287469287
 21
108.0683783784
 31
0.0
  0
LINE
  5
BD
330
1F
100
AcDbEntity
  8
0
  6
Continuous
 62
     7
370
    25
100
AcDbLine
 10
108.5287469287
 20
108.0683783784
 30
0.0
 11
106.3687469287
 21
108.0683783784
 31
0.0
  0
LINE
  5
BE
330
1F
100
AcDbEntity
  8
0
  6
Continuous
 62
     7
370
    25
100
AcDbLine
 10
106.3687469287
 20
108.0783783784
 30
0.0
 11
106.3687469287
 21
108.0683783784
 31
0.0
  0
LINE
  5
BF
330
1F
100
AcDbEntity
  8
0
  6
Continuous
 62
     7
370
    25
100
AcDbLine
 10
102.0487469287
 20
125.0883783784
 30
0.0
 11
102.0487469287
 21
125.0783783784
 31
0.0
  0
LINE
  5
C0
330
1F
100
AcDbEntity
  8
0
  6
Continuous
 62
     7
370
    25
100
AcDbLine
 10
106.3687469287
 20
125.0883783784
 30
0.0
 11
102.0487469287
 21
125.0883783784
 31
0.0
  0
LINE
  5
C1
330
1F
100
AcDbEntity
  8
0
  6
Continuous
 62
     7
370
    25
100
AcDbLine
 10
102.0487469287
 20
108.0783783784
 30
0.0
 11
102.0487469287
 21
108.0683783784
 31
0.0
  0
LINE
  5
C2
330
1F
100
AcDbEntity
  8
0
  6
Continuous
 62
     7
370
    25
100
AcDbLine
 10
106.3687469287
 20
108.0683783784
 30
0.0
 11
102.0487469287
 21
108.0683783784
 31
0.0
  0
SPLINE
  5
C3
330
1F
100
AcDbEntity
  8
0
  6
Continuous
 62
     7
370
    25
100
AcDbSpline
210
0.0
220
0.0
230
1.0
 70
     8
 71
     3
 72
    12
 73
     8
 74
     0
 42
0.000000001
 43
0.00000001
 40
0.0
 40
0.0
 40
0.0
 40
0.0
 40
0.2316854655549482
 40
0.4525197787433732
 40
0.6593347886063756
 40
0.8499139352986359
 40
1.0
 40
1.0
 40
1.0
 40
1.0
 10
156.4151480268423
 20
76.5951834013784
 30
0.0
 10
156.2850061617718
 20
76.60450863716379
 30
0.0
 10
156.0308177177712
 20
76.62272235473226
 30
0.0
 10
155.6611104530576
 20
76.57434541252206
 30
0.0
 10
155.3260086757174
 20
76.48063446917578
 30
0.0
 10
155.0416547272734
 20
76.35943693584898
 30
0.0
 10
154.879632427271
 20
76.25711780776923
 30
0.0
 10
154.8082506466021
 20
76.21203931203927
 30
0.0
  0
SPLINE
  5
C4
330
1F
100
AcDbEntity
  8
0
  6
Continuous
 62
     7
370
    25
100
AcDbSpline
210
0.0
220
0.0
230
1.0
 70
     8
 71
     3
 72
    12
 73
     8
 74
     0
 42
0.000000001
 43
0.00000001
 40
0.0
 40
0.0
 40
0.0
 40
0.0
 40
0.1124825833942904
 40
0.3373095024256593
 40
0.5625057492711892
 40
0.7917742829748519
 40
1.0
 40
1.0
 40
1.0
 40
1.0
 10
155.3350971067705
 20
71.95544687818652
 30
0.0
 10
155.3915837447248
 20
71.93402149394292
 30
0.0
 10
155.5609742331641
 20
71.86977167427835
 30
0.0
 10
155.8611097311147
 20
71.81967469261133
 30
0.0
 10
156.2256211607038
 20
71.8049095752649
 30
0.0
 10
156.581614028634
 20
71.84286435335027
 30
0.0
 10
156.8061562024555
 20
71.91248612354558
 30
0.0
 10
156.9130272186311
 20
71.94562265732932
 30
0.0
  0
SPLINE
  5
C5
330
1F
100
AcDbEntity
  8
0
  6
Continuous
 62
     7
370
    25
100
AcDbSpline
210
0.0
220
0.0
230
1.0
 70
     8
 71
     3
 72
    11
 73
     7
 74
     0
 42
0.000000001
 43
0.00000001
 40
0.0
 40
0.0
 40
0.0
 40
0.0
 40
0.1634336620337818
 40
0.4743041084468815
 40
0.7811435782306991
 40
1.0
 40
1.0
 40
1.0
 40
1.0
 10
157.4448367136871
 20
76.21203931203927
 30
0.0
 10
157.3911438865586
 20
76.24883521341975
 30
0.0
 10
157.2353208560748
 20
76.35562133680214
 30
0.0
 10
156.9468431923218
 20
76.47612791801866
 30
0.0
 10
156.6264860853309
 20
76.57174751946172
 30
0.0
 10
156.4178076201471
 20
76.59050325666088
 30
0.0
 10
156.3309311143112
 20
76.59831159908282
 30
0.0
  0
LINE
  5
C6
330
1F
100
AcDbEntity
  8
0
  6
Continuous
 62
     7
370
    25
100
AcDbLine
 10
155.1493798592
 20
72.212039312
 30
0.0
 11
157.1130280033
 21
72.212039312
 31
0.0
  0
LINE
  5
C7
330
1F
100
AcDbEntity
  8
0
  6
Continuous
 62
     7
370
    25
100
AcDbLine
 10
159.0398348078
 20
76.212039312
 30
0.0
 11
153.2225730546
 21
76.212039312
 31
0.0
  0
CIRCLE
  5
C8
330
1F
100
AcDbEntity
  8
0
  6
Continuous
 62
     7
370
    25
100
AcDbCircle
 10
156.1312039312
 20
74.212039312
 30
0.0
 40
1.049999999999997
  0
ARC
  5
C9
330
1F
100
AcDbEntity
  8
0
  6
Continuous
 62
     7
370
    25
100
AcDbCircle
 10
156.1312039312
 20
74.212039312
 30
0.0
 40
3.400000000000011
100
AcDbArc
 50
36.0318790725
 51
143.9681209275
  0
ARC
  5
CA
330
1F
100
AcDbEntity
  8
0
  6
Continuous
 62
     7
370
    25
100
AcDbCircle
 10
156.1312039312
 20
74.212039312
 30
0.0
 40
3.400000000000007
100
AcDbArc
 50
293.2242231052
 51
309.1572290849
  0
ARC
  5
CB
330
1F
100
AcDbEntity
  8
0
  6
Continuous
 62
     7
370
    25
100
AcDbCircle
 10
156.1312039312
 20
74.212039312
 30
0.0
 40
3.400000000000004
100
AcDbArc
 50
257.0192307692
 51
282.9807692308
  0
ARC
  5
CC
330
1F
100
AcDbEntity
  8
0
  6
Continuous
 62
     7
370
    25
100
AcDbCircle
 10
156.1312039312
 20
74.212039312
 30
0.0
 40
3.400000000000011
100
AcDbArc
 50
230.8427709151
 51
246.7757768948
  0
ARC
  5
CD
330
1F
100
AcDbEntity
  8
0
  6
Continuous
 62
     7
370
    25
100
AcDbCircle
 10
156.1312039312
 20
74.212039312
 30
0.0
 40
3.297034846243792
100
AcDbArc
 50
37.3444727065
 51
142.6555272935
  0
ARC
  5
CE
330
1F
100
AcDbEntity
  8
0
  6
Continuous
 62
     7
370
    25
100
AcDbCircle
 10
156.1312039312
 20
74.212039312
 30
0.0
 40
3.297034846243804
100
AcDbArc
 50
292.5304255979
 51
309.8510265922
  0
ARC
  5
CF
330
1F
100
AcDbEntity
  8
0
  6
Continuous
 62
     7
370
    25
100
AcDbCircle
 10
156.1312039312
 20
74.212039312
 30
0.0
 40
3.297034846243802
100
AcDbArc
 50
257.0192307692
 51
282.9807692308
  0
ARC
  5
D0
330
1F
100
AcDbEntity
  8
0
  6
Continuous
 62
     7
370
    25
100
AcDbCircle
 10
156.1312039312
 20
74.212039312
 30
0.0
 40
3.297034846243796
100
AcDbArc
 50
230.1489734078
 51
247.4695744021
  0
ARC
  5
D1
330
1F
100
AcDbEntity
  8
0
  6
Continuous
 62
     7
370
    25
100
AcDbCircle
 10
155.0708095166
 20
76.5424323303
 30
0.0
 40
1.345373073055593
100
AcDbArc
 50
345.7840500912
 51
2.2471006466
  0
SPLINE
  5
D2
330
1F
100
AcDbEntity
  8
0
  6
Continuous
 62
     7
370
    25
100
AcDbSpline
210
0.0
220
0.0
230
1.0
 70
     8
 71
     3
 72
    12
 73
     8
 74
     0
 42
0.000000001
 43
0.00000001
 40
0.0
 40
0.0
 40
0.0
 40
0.0
 40
0.2473719503889757
 40
0.4787276068590167
 40
0.7081947568854668
 40
0.9443607742230941
 40
1.0
 40
1.0
 40
1.0
 40
1.0
 10
156.4151480268423
 20
76.5951834013784
 30
0.0
 10
156.2813044783793
 20
76.60425027401757
 30
0.0
 10
156.0222831885828
 20
76.62179697740662
 30
0.0
 10
155.6400500796082
 20
76.56511909105018
 30
0.0
 10
155.2813611119041
 20
76.44846234891301
 30
0.0
 10
155.0225778169302
 20
76.32764576583753
 30
0.0
 10
154.8979144506592
 20
76.23055235271212
 30
0.0
 10
154.8741445789871
 20
76.21203931203927
 30
0.0
  0
LINE
  5
D3
330
1F
100
AcDbEntity
  8
0
  6
Continuous
 62
     7
370
    25
100
AcDbLine
 10
156.369497618
 20
76.212039312
 30
0.0
 11
156.4151480268
 21
76.5951834014
 31
0.0
  0
CIRCLE
  5
D4
330
1F
100
AcDbEntity
  8
0
  6
Continuous
 62
     7
370
    25
100
AcDbCircle
 10
156.1312039312
 20
74.212039312
 30
0.0
 40
0.7499999999999954
  0
CIRCLE
  5
D5
330
1F
100
AcDbEntity
  8
0
  6
Continuous
 62
     7
370
    25
100
AcDbCircle
 10
156.1312039312
 20
74.212039312
 30
0.0
 40
0.9999999999999912
  0
LINE
  5
D6
330
1F
100
AcDbEntity
  8
0
  6
Continuous
 62
     7
370
    25
100
AcDbLine
 10
157.9866521195
 20
71.854644135
 30
0.0
 11
158.0464045094
 21
71.9029254679
 31
0.0
  0
ARC
  5
D7
330
1F
100
AcDbEntity
  8
0
  6
Continuous
 62
     7
370
    25
100
AcDbCircle
 10
156.1312039312
 20
74.212039312
 30
0.0
 40
3.000000000000008
100
AcDbArc
 50
41.8103148958
 51
138.1896851042
  0
ARC
  5
D8
330
1F
100
AcDbEntity
  8
0
  6
Continuous
 62
     7
370
    25
100
AcDbCircle
 10
156.1312039312
 20
74.212039312
 30
0.0
 40
3.000000000000011
100
AcDbArc
 50
230.3273709203
 51
247.2911768896
  0
ARC
  5
D9
330
1F
100
AcDbEntity
  8
0
  6
Continuous
 62
     7
370
    25
100
AcDbCircle
 10
156.1312039312
 20
74.212039312
 30
0.0
 40
3.000000000000014
100
AcDbArc
 50
257.0041462437
 51
282.9958537563
  0
ARC
  5
DA
330
1F
100
AcDbEntity
  8
0
  6
Continuous
 62
     7
370
    25
100
AcDbCircle
 10
156.1312039312
 20
74.212039312
 30
0.0
 40
3.000000000000004
100
AcDbArc
 50
292.7088231104
 51
308.2054197994
  0
LINE
  5
DB
330
1F
100
AcDbEntity
  8
0
  6
Continuous
 62
     7
370
    25
100
AcDbLine
 10
157.0409311469
 20
70.2655349863
 30
0.0
 11
156.8140017888
 21
71.2499813981
 31
0.0
  0
ARC
  5
DC
330
1F
100
AcDbEntity
  8
0
  6
Continuous
 62
     7
370
    25
100
AcDbCircle
 10
157.7884473014
 20
71.474605402
 30
0.0
 40
0.9999999999999941
100
AcDbArc
 50
58.7441432592
 51
192.9807692308
  0
ARC
  5
DD
330
1F
100
AcDbEntity
  8
0
  6
Continuous
 62
     7
370
    25
100
AcDbCircle
 10
158.6964534284
 20
72.9706083676
 30
0.0
 40
0.7500000000000007
100
AcDbArc
 50
238.7441432592
 51
335.4568329348
  0
ARC
  5
DE
330
1F
100
AcDbEntity
  8
0
  6
Continuous
 62
     7
370
    25
100
AcDbCircle
 10
156.1312039312
 20
74.1419947866
 30
0.0
 40
3.570044525465116
100
AcDbArc
 50
335.4568329348
 51
204.5431670652
  0
ARC
  5
DF
330
1F
100
AcDbEntity
  8
0
  6
Continuous
 62
     7
370
    25
100
AcDbCircle
 10
153.565954434
 20
72.9706083676
 30
0.0
 40
0.7500000000000006
100
AcDbArc
 50
204.5431670652
 51
301.2558567408
  0
ARC
  5
E0
330
1F
100
AcDbEntity
  8
0
  6
Continuous
 62
     7
370
    25
100
AcDbCircle
 10
154.473960561
 20
71.474605402
 30
0.0
 40
1.000000000000022
100
AcDbArc
 50
347.0192307692
 51
121.2558567408
  0
LINE
  5
E1
330
1F
100
AcDbEntity
  8
0
  6
Continuous
 62
     7
370
    25
100
AcDbLine
 10
155.4484060736
 20
71.2499813981
 30
0.0
 11
155.2214767155
 21
70.2655349863
 31
0.0
  0
CIRCLE
  5
E2
330
1F
100
AcDbEntity
  8
0
  6
Continuous
 62
     7
370
    25
100
AcDbCircle
 10
154.473960561
 20
71.474605402
 30
0.0
 40
0.5
  0
CIRCLE
  5
E3
330
1F
100
AcDbEntity
  8
0
  6
Continuous
 62
     7
370
    25
100
AcDbCircle
 10
157.7884473014
 20
71.474605402
 30
0.0
 40
0.5
  0
SPLINE
  5
E4
330
1F
100
AcDbEntity
  8
0
  6
Continuous
 62
     7
370
    25
100
AcDbSpline
210
0.0
220
0.0
230
1.0
 70
    24
 71
     3
 72
    16
 73
    12
 74
     0
 42
0.000000001
 43
0.00000001
 40
0.0
 40
0.0
 40
0.0
 40
0.0
 40
0.2500000000000001
 40
0.2500000000000001
 40
0.5000000000000002
 40
0.5000000000000002
 40
0.6250000000000001
 40
0.6250000000000001
 40
0.7500000000000001
 40
0.7500000000000001
 40
1.0
 40
1.0
 40
1.0
 40
1.0
 10
156.1312039312038
 20
84.02699388826295
 30
0.0
 10
156.8251481922517
 20
83.62634498234435
 30
0.0
 10
157.5241519187959
 20
83.2227749926595
 30
0.0
 10
158.9367377091963
 20
82.4072182063184
 30
0.0
 10
159.6504281507746
 20
81.99516883775509
 30
0.0
 10
160.7344102695117
 20
81.36933146970549
 30
0.0
 10
161.0974376978305
 20
81.15973748624238
 30
0.0
 10
161.8155442606943
 20
80.74513846886613
 30
0.0
 10
162.1721899972785
 20
80.53922895684397
 30
0.0
 10
163.2357776161343
 20
79.9251663587908
 30
0.0
 10
163.9363946486957
 20
79.52066492644262
 30
0.0
 10
164.6312039312039
 20
79.11951660015107
 30
0.0
  0
SPLINE
  5
E5
330
1F
100
AcDbEntity
  8
0
  6
Continuous
 62
     7
370
    25
100
AcDbSpline
210
0.0
220
0.0
230
1.0
 70
    24
 71
     3
 72
    14
 73
    10
 74
     0
 42
0.000000001
 43
0.00000001
 40
0.0
 40
0.0
 40
0.0
 40
0.0
 40
0.2500000000000001
 40
0.2500000000000001
 40
0.5000000000000001
 40
0.5000000000000001
 40
0.75
 40
0.75
 40
1.0
 40
1.0
 40
1.0
 40
1.0
 10
164.6312039312039
 20
69.30456202392745
 30
0.0
 10
164.6312039312039
 20
70.10366757740141
 30
0.0
 10
164.6312039312039
 20
70.92115463280847
 30
0.0
 10
164.6312039312039
 20
72.5593157409205
 30
0.0
 10
164.6312039312039
 20
73.38353080764848
 30
0.0
 10
164.6312039312039
 20
75.04404488626359
 30
0.0
 10
164.6312039312039
 20
75.88509778462087
 30
0.0
 10
164.6312039312039
 20
77.52260417838602
 30
0.0
 10
164.6312039312039
 20
78.32612804841757
 30
0.0
 10
164.6312039312039
 20
79.1195166001511
 30
0.0
  0
SPLINE
  5
E6
330
1F
100
AcDbEntity
  8
0
  6
Continuous
 62
     7
370
    25
100
AcDbSpline
210
0.0
220
0.0
230
1.0
 70
    24
 71
     3
 72
    16
 73
    12
 74
     0
 42
0.000000001
 43
0.00000001
 40
0.0
 40
0.0
 40
0.0
 40
0.0
 40
0.2499999999999999
 40
0.2499999999999999
 40
0.4999999999999999
 40
0.4999999999999999
 40
0.6249999999999999
 40
0.6249999999999999
 40
0.7499999999999998
 40
0.7499999999999998
 40
1.0
 40
1.0
 40
1.0
 40
1.0
 10
164.6312039312039
 20
69.30456202392747
 30
0.0
 10
163.937259670156
 20
68.90391311800889
 30
0.0
 10
163.2382559436118
 20
68.50034312832403
 30
0.0
 10
161.8256701532115
 20
67.68478634198296
 30
0.0
 10
161.1119797116331
 20
67.27273697341963
 30
0.0
 10
160.027997592896
 20
66.64689960537002
 30
0.0
 10
159.6649701645772
 20
66.43730562190692
 30
0.0
 10
158.9468636017134
 20
66.02270660453068
 30
0.0
 10
158.5902178651293
 20
65.8167970925085
 30
0.0
 10
157.5266302462734
 20
65.20273449445536
 30
0.0
 10
156.826013213712
 20
64.79823306210716
 30
0.0
 10
156.1312039312038
 20
64.3970847358156
 30
0.0
  0
SPLINE
  5
E7
330
1F
100
AcDbEntity
  8
0
  6
Continuous
 62
     7
370
    25
100
AcDbSpline
210
0.0
220
0.0
230
1.0
 70
    24
 71
     3
 72
    16
 73
    12
 74
     0
 42
0.000000001
 43
0.00000001
 40
0.0
 40
0.0
 40
0.0
 40
0.0
 40
0.2500000000000001
 40
0.2500000000000001
 40
0.5000000000000002
 40
0.5000000000000002
 40
0.6250000000000001
 40
0.6250000000000001
 40
0.7500000000000001
 40
0.7500000000000001
 40
1.0
 40
1.0
 40
1.0
 40
1.0
 10
156.1312039312039
 20
64.3970847358156
 30
0.0
 10
155.437259670156
 20
64.79773364173417
 30
0.0
 10
154.7382559436118
 20
65.20130363141904
 30
0.0
 10
153.3256701532115
 20
66.01686041776011
 30
0.0
 10
152.6119797116331
 20
66.42890978632343
 30
0.0
 10
151.527997592896
 20
67.05474715437305
 30
0.0
 10
151.1649701645772
 20
67.26434113783615
 30
0.0
 10
150.4468636017134
 20
67.67894015521239
 30
0.0
 10
150.0902178651293
 20
67.88484966723456
 30
0.0
 10
149.0266302462735
 20
68.49891226528773
 30
0.0
 10
148.326013213712
 20
68.9034136976359
 30
0.0
 10
147.6312039312038
 20
69.30456202392746
 30
0.0
  0
SPLINE
  5
E8
330
1F
100
AcDbEntity
  8
0
  6
Continuous
 62
     7
370
    25
100
AcDbSpline
210
0.0
220
0.0
230
1.0
 70
    24
 71
     3
 72
    14
 73
    10
 74
     0
 42
0.000000001
 43
0.00000001
 40
0.0
 40
0.0
 40
0.0
 40
0.0
 40
0.25
 40
0.25
 40
0.5
 40
0.5
 40
0.75
 40
0.75
 40
1.0
 40
1.0
 40
1.0
 40
1.0
 10
147.6312039312039
 20
69.30456202392743
 30
0.0
 10
147.6312039312039
 20
70.1036675774014
 30
0.0
 10
147.6312039312039
 20
70.92115463280847
 30
0.0
 10
147.6312039312039
 20
72.5593157409205
 30
0.0
 10
147.6312039312039
 20
73.38353080764847
 30
0.0
 10
147.6312039312039
 20
75.04404488626359
 30
0.0
 10
147.6312039312039
 20
75.88509778462087
 30
0.0
 10
147.6312039312039
 20
77.52260417838602
 30
0.0
 10
147.6312039312039
 20
78.32612804841759
 30
0.0
 10
147.6312039312039
 20
79.1195166001511
 30
0.0
  0
SPLINE
  5
E9
330
1F
100
AcDbEntity
  8
0
  6
Continuous
 62
     7
370
    25
100
AcDbSpline
210
0.0
220
0.0
230
1.0
 70
    24
 71
     3
 72
    16
 73
    12
 74
     0
 42
0.000000001
 43
0.00000001
 40
0.0
 40
0.0
 40
0.0
 40
0.0
 40
0.2499999999999998
 40
0.2499999999999998
 40
0.4999999999999996
 40
0.4999999999999996
 40
0.6249999999999994
 40
0.6249999999999994
 40
0.7499999999999996
 40
0.7499999999999996
 40
1.0
 40
1.0
 40
1.0
 40
1.0
 10
147.6312039312038
 20
79.11951660015107
 30
0.0
 10
148.3251481922517
 20
79.52016550606965
 30
0.0
 10
149.0241519187959
 20
79.9237354957545
 30
0.0
 10
150.4367377091963
 20
80.73929228209559
 30
0.0
 10
151.1504281507746
 20
81.1513416506589
 30
0.0
 10
152.2344102695117
 20
81.77717901870851
 30
0.0
 10
152.5974376978305
 20
81.98677300217162
 30
0.0
 10
153.3155442606943
 20
82.40137201954786
 30
0.0
 10
153.6721899972785
 20
82.60728153157002
 30
0.0
 10
154.7357776161343
 20
83.22134412962319
 30
0.0
 10
155.4363946486957
 20
83.62584556197137
 30
0.0
 10
156.1312039312039
 20
84.02699388826294
 30
0.0
  0
CIRCLE
  5
EA
330
1F
100
AcDbEntity
  8
0
  6
Continuous
 62
     7
370
    25
100
AcDbCircle
 10
156.1312039312
 20
74.212039312
 30
0.0
 40
8.25
  0
CIRCLE
  5
EB
330
1F
100
AcDbEntity
  8
0
  6
Continuous
 62
     7
370
    25
100
AcDbCircle
 10
156.1312039312
 20
74.212039312
 30
0.0
 40
6.75
  0
CIRCLE
  5
EC
330
1F
100
AcDbEntity
  8
0
  6
Continuous
 62
     7
370
    25
100
AcDbCircle
 10
156.1312039312
 20
74.212039312
 30
0.0
 40
6.153999999999996
  0
CIRCLE
  5
ED
330
1F
100
AcDbEntity
  8
0
  6
Continuous
 62
     7
370
    25
100
AcDbCircle
 10
156.1312039312
 20
74.212039312
 30
0.0
 40
5.88005236973197
  0
CIRCLE
  5
EE
330
1F
100
AcDbEntity
  8
0
  6
Continuous
 62
     7
370
    25
100
AcDbCircle
 10
156.1312039312
 20
74.212039312
 30
0.0
 40
5.349999999999994
  0
CIRCLE
  5
EF
330
1F
100
AcDbEntity
  8
0
  6
Continuous
 62
     7
370
    25
100
AcDbCircle
 10
156.1312039312
 20
74.212039312
 30
0.0
 40
4.049999999999983
  0
ENDSEC
  0
SECTION
  2
OBJECTS
  0
DICTIONARY
  5
C
330
0
100
AcDbDictionary
281
     1
  3
ACAD_GROUP
350
D
  3
ACAD_LAYOUT
350
1A
  3
ACAD_MLINESTYLE
350
17
  3
ACAD_PLOTSETTINGS
350
19
  3
ACAD_PLOTSTYLENAME
350
E
  3
ACAD_SCALELIST
350
47
  0
DICTIONARY
  5
D
102
{ACAD_REACTORS
330
C
102
}
330
C
100
AcDbDictionary
281
     1
  0
DICTIONARY
  5
1A
102
{ACAD_REACTORS
330
C
102
}
330
C
100
AcDbDictionary
281
     1
  3
Layout1
350
1E
  3
Layout2
350
26
  3
Model
350
22
  0
DICTIONARY
  5
17
102
{ACAD_REACTORS
330
C
102
}
330
C
100
AcDbDictionary
281
     1
  3
Standard
350
18
  0
DICTIONARY
  5
19
102
{ACAD_REACTORS
330
C
102
}
330
C
100
AcDbDictionary
281
     1
  0
ACDBDICTIONARYWDFLT
  5
E
102
{ACAD_REACTORS
330
C
102
}
330
C
100
AcDbDictionary
281
     1
  3
Normal
350
F
100
AcDbDictionaryWithDefault
340
F
  0
DICTIONARY
  5
47
102
{ACAD_REACTORS
330
C
102
}
330
C
100
AcDbDictionary
281
     1
  3
A0
350
48
  3
A1
350
49
  3
A2
350
4A
  3
A3
350
4B
  3
A4
350
4C
  3
A5
350
4D
  3
A6
350
4E
  3
A7
350
4F
  3
A8
350
50
  3
A9
350
51
  3
B0
350
52
  3
B1
350
53
  3
B2
350
54
  3
B3
350
55
  3
B4
350
56
  3
B5
350
57
  3
B6
350
58
  3
B7
350
59
  3
B8
350
5A
  3
B9
350
5B
  3
C0
350
5C
  3
C1
350
5D
  3
C2
350
5E
  3
C3
350
5F
  3
C4
350
60
  3
C5
350
61
  3
C6
350
62
  3
C7
350
63
  3
C8
350
64
  3
C9
350
65
  3
D0
350
66
  3
D1
350
67
  3
D2
350
68
  0
LAYOUT
  5
1E
102
{ACAD_REACTORS
330
1A
102
}
330
1A
100
AcDbPlotSettings
  1

  2
none_device
  4

  6

 40
0.0
 41
0.0
 42
0.0
 43
0.0
 44
0.0
 45
0.0
 46
0.0
 47
0.0
 48
0.0
 49
0.0
140
0.0
141
0.0
142
1.0
143
1.0
 70
   688
 72
     1
 73
     0
 74
     5
  7

 75
    16
147
1.0
148
0.0
149
0.0
100
AcDbLayout
  1
Layout1
 70
     1
 71
     1
 10
0.0
 20
0.0
 11
420.0
 21
297.0
 12
0.0
 22
0.0
 32
0.0
 14
1.0000000000E+20
 24
1.0000000000E+20
 34
1.0000000000E+20
 15
-1.0000000000E+20
 25
-1.0000000000E+20
 35
-1.0000000000E+20
146
0.0
 13
0.0
 23
0.0
 33
0.0
 16
1.0
 26
0.0
 36
0.0
 17
0.0
 27
1.0
 37
0.0
 76
     0
330
1B
  0
LAYOUT
  5
26
102
{ACAD_REACTORS
330
1A
102
}
330
1A
100
AcDbPlotSettings
  1

  2
none_device
  4

  6

 40
0.0
 41
0.0
 42
0.0
 43
0.0
 44
0.0
 45
0.0
 46
0.0
 47
0.0
 48
0.0
 49
0.0
140
0.0
141
0.0
142
1.0
143
1.0
 70
   688
 72
     1
 73
     0
 74
     5
  7

 75
    16
147
1.0
148
0.0
149
0.0
100
AcDbLayout
  1
Layout2
 70
     1
 71
     2
 10
0.0
 20
0.0
 11
0.0
 21
0.0
 12
0.0
 22
0.0
 32
0.0
 14
0.0
 24
0.0
 34
0.0
 15
0.0
 25
0.0
 35
0.0
146
0.0
 13
0.0
 23
0.0
 33
0.0
 16
1.0
 26
0.0
 36
0.0
 17
0.0
 27
1.0
 37
0.0
 76
     0
330
23
  0
LAYOUT
  5
22
102
{ACAD_REACTORS
330
1A
102
}
330
1A
100
AcDbPlotSettings
  1

  2
none_device
  4
Letter_(8.50_x_11.00_Inches)
  6

 40
6.35
 41
6.35
 42
6.35000508
 43
6.35000508
 44
215.9
 45
279.4
 46
0.0
 47
0.0
 48
0.0
 49
0.0
140
0.0
141
0.0
142
1.0
143
1.0
 70
  1712
 72
     1
 73
     0
 74
     0
  7

 75
     0
147
1.0
148
0.0
149
0.0
100
AcDbLayout
  1
Model
 70
     1
 71
     0
 10
0.0
 20
0.0
 11
297.0
 21
210.0
 12
0.0
 22
0.0
 32
0.0
 14
0.0
 24
0.0
 34
0.0
 15
297.0
 25
210.0
 35
0.0
146
0.0
 13
0.0
 23
0.0
 33
0.0
 16
1.0
 26
0.0
 36
0.0
 17
0.0
 27
1.0
 37
0.0
 76
     0
330
1F
331
29
  0
MLINESTYLE
  5
18
102
{ACAD_REACTORS
330
17
102
}
330
17
100
AcDbMlineStyle
  2
Standard
 70
     0
  3

 62
   256
 51
90.0
 52
90.0
 71
     2
 49
0.5
 62
   256
  6
BYLAYER
 49
-0.5
 62
   256
  6
BYLAYER
  0
ACDBPLACEHOLDER
  5
F
102
{ACAD_REACTORS
330
E
102
}
330
E
  0
SCALE
  5
48
102
{ACAD_REACTORS
330
47
102
}
330
47
100
AcDbScale
 70
     0
300
1:1
140
1.0
141
1.0
290
     1
  0
SCALE
  5
49
102
{ACAD_REACTORS
330
47
102
}
330
47
100
AcDbScale
 70
     0
300
1:2
140
1.0
141
2.0
290
     0
  0
SCALE
  5
4A
102
{ACAD_REACTORS
330
47
102
}
330
47
100
AcDbScale
 70
     0
300
1:4
140
1.0
141
4.0
290
     0
  0
SCALE
  5
4B
102
{ACAD_REACTORS
330
47
102
}
330
47
100
AcDbScale
 70
     0
300
1:5
140
1.0
141
5.0
290
     0
  0
SCALE
  5
4C
102
{ACAD_REACTORS
330
47
102
}
330
47
100
AcDbScale
 70
     0
300
1:8
140
1.0
141
8.0
290
     0
  0
SCALE
  5
4D
102
{ACAD_REACTORS
330
47
102
}
330
47
100
AcDbScale
 70
     0
300
1:10
140
1.0
141
10.0
290
     0
  0
SCALE
  5
4E
102
{ACAD_REACTORS
330
47
102
}
330
47
100
AcDbScale
 70
     0
300
1:16
140
1.0
141
16.0
290
     0
  0
SCALE
  5
4F
102
{ACAD_REACTORS
330
47
102
}
330
47
100
AcDbScale
 70
     0
300
1:20
140
1.0
141
20.0
290
     0
  0
SCALE
  5
50
102
{ACAD_REACTORS
330
47
102
}
330
47
100
AcDbScale
 70
     0
300
1:30
140
1.0
141
30.0
290
     0
  0
SCALE
  5
51
102
{ACAD_REACTORS
330
47
102
}
330
47
100
AcDbScale
 70
     0
300
1:40
140
1.0
141
40.0
290
     0
  0
SCALE
  5
52
102
{ACAD_REACTORS
330
47
102
}
330
47
100
AcDbScale
 70
     0
300
1:50
140
1.0
141
50.0
290
     0
  0
SCALE
  5
53
102
{ACAD_REACTORS
330
47
102
}
330
47
100
AcDbScale
 70
     0
300
1:100
140
1.0
141
100.0
290
     0
  0
SCALE
  5
54
102
{ACAD_REACTORS
330
47
102
}
330
47
100
AcDbScale
 70
     0
300
2:1
140
2.0
141
1.0
290
     0
  0
SCALE
  5
55
102
{ACAD_REACTORS
330
47
102
}
330
47
100
AcDbScale
 70
     0
300
4:1
140
4.0
141
1.0
290
     0
  0
SCALE
  5
56
102
{ACAD_REACTORS
330
47
102
}
330
47
100
AcDbScale
 70
     0
300
8:1
140
8.0
141
1.0
290
     0
  0
SCALE
  5
57
102
{ACAD_REACTORS
330
47
102
}
330
47
100
AcDbScale
 70
     0
300
10:1
140
10.0
141
1.0
290
     0
  0
SCALE
  5
58
102
{ACAD_REACTORS
330
47
102
}
330
47
100
AcDbScale
 70
     0
300
100:1
140
100.0
141
1.0
290
     0
  0
SCALE
  5
59
102
{ACAD_REACTORS
330
47
102
}
330
47
100
AcDbScale
 70
     0
300
1/128" = 1'-0"
140
0.0078125
141
12.0
290
     0
  0
SCALE
  5
5A
102
{ACAD_REACTORS
330
47
102
}
330
47
100
AcDbScale
 70
     0
300
1/64" = 1'-0"
140
0.015625
141
12.0
290
     0
  0
SCALE
  5
5B
102
{ACAD_REACTORS
330
47
102
}
330
47
100
AcDbScale
 70
     0
300
1/32" = 1'-0"
140
0.03125
141
12.0
290
     0
  0
SCALE
  5
5C
102
{ACAD_REACTORS
330
47
102
}
330
47
100
AcDbScale
 70
     0
300
1/16" = 1'-0"
140
0.0625
141
12.0
290
     0
  0
SCALE
  5
5D
102
{ACAD_REACTORS
330
47
102
}
330
47
100
AcDbScale
 70
     0
300
3/32" = 1'-0"
140
0.09375
141
12.0
290
     0
  0
SCALE
  5
5E
102
{ACAD_REACTORS
330
47
102
}
330
47
100
AcDbScale
 70
     0
300
1/8" = 1'-0"
140
0.125
141
12.0
290
     0
  0
SCALE
  5
5F
102
{ACAD_REACTORS
330
47
102
}
330
47
100
AcDbScale
 70
     0
300
3/16" = 1'-0"
140
0.1875
141
12.0
290
     0
  0
SCALE
  5
60
102
{ACAD_REACTORS
330
47
102
}
330
47
100
AcDbScale
 70
     0
300
1/4" = 1'-0"
140
0.25
141
12.0
290
     0
  0
SCALE
  5
61
102
{ACAD_REACTORS
330
47
102
}
330
47
100
AcDbScale
 70
     0
300
3/8" = 1'-0"
140
0.375
141
12.0
290
     0
  0
SCALE
  5
62
102
{ACAD_REACTORS
330
47
102
}
330
47
100
AcDbScale
 70
     0
300
1/2" = 1'-0"
140
0.5
141
12.0
290
     0
  0
SCALE
  5
63
102
{ACAD_REACTORS
330
47
102
}
330
47
100
AcDbScale
 70
     0
300
3/4" = 1'-0"
140
0.75
141
12.0
290
     0
  0
SCALE
  5
64
102
{ACAD_REACTORS
330
47
102
}
330
47
100
AcDbScale
 70
     0
300
1" = 1'-0"
140
1.0
141
12.0
290
     0
  0
SCALE
  5
65
102
{ACAD_REACTORS
330
47
102
}
330
47
100
AcDbScale
 70
     0
300
1-1/2" = 1'-0"
140
1.5
141
12.0
290
     0
  0
SCALE
  5
66
102
{ACAD_REACTORS
330
47
102
}
330
47
100
AcDbScale
 70
     0
300
3" = 1'-0"
140
3.0
141
12.0
290
     0
  0
SCALE
  5
67
102
{ACAD_REACTORS
330
47
102
}
330
47
100
AcDbScale
 70
     0
300
6" = 1'-0"
140
6.0
141
12.0
290
     0
  0
SCALE
  5
68
102
{ACAD_REACTORS
330
47
102
}
330
47
100
AcDbScale
 70
     0
300
1'-0" = 1'-0"
140
12.0
141
12.0
290
     0
  0
ENDSEC
  0
EOF
