  0
SECTION
  2
HEADER
  9
$ACADVER
  1
AC1015
  9
$ACADMAINTVER
 70
     6
  9
$DWGCODEPAGE
  3
DOS932
  9
$INSBASE
 10
0.0
 20
0.0
 30
0.0
  9
$EXTMIN
 10
0.0
 20
0.0
 30
0.0
  9
$EXTMAX
 10
148.5
 20
105.0
 30
0.0
  9
$LIMMIN
 10
0.0
 20
0.0
  9
$LIMMAX
 10
148.5
 20
105.0
  9
$ORTHOMODE
 70
     0
  9
$REGENMODE
 70
     1
  9
$FILLMODE
 70
     1
  9
$QTEXTMODE
 70
     0
  9
$MIRRTEXT
 70
     1
  9
$LTSCALE
 40
0.5
  9
$ATTMODE
 70
     1
  9
$TEXTSIZE
 40
1.75
  9
$TRACEWID
 40
1.0
  9
$TEXTSTYLE
  7
Standard
  9
$CLAYER
  8
0
  9
$CELTYPE
  6
ByLayer
  9
$CECOLOR
 62
   256
  9
$CELTSCALE
 40
1.0
  9
$DISPSILH
 70
     0
  9
$DIMSCALE
 40
1.0
  9
$DIMASZ
 40
1.778
  9
$DIMEXO
 40
0.5
  9
$DIMDLI
 40
3.75
  9
$DIMRND
 40
0.0
  9
$DIMDLE
 40
0.0
  9
$DIMEXE
 40
0.5
  9
$DIMTP
 40
0.0
  9
$DIMTM
 40
0.0
  9
$DIMTXT
 40
1.75
  9
$DIMCEN
 40
2.5
  9
$DIMTSZ
 40
0.0
  9
$DIMTOL
 70
     0
  9
$DIMLIM
 70
     0
  9
$DIMTIH
 70
     1
  9
$DIMTOH
 70
     1
  9
$DIMSE1
 70
     0
  9
$DIMSE2
 70
     0
  9
$DIMTAD
 70
     1
  9
$DIMZIN
 70
     1
  9
$DIMBLK
  1

  9
$DIMASO
 70
     1
  9
$DIMSHO
 70
     1
  9
$DIMPOST
  1

  9
$DIMAPOST
  1

  9
$DIMALT
 70
     0
  9
$DIMALTD
 70
     3
  9
$DIMALTF
 40
0.0393700787
  9
$DIMLFAC
 40
1.0
  9
$DIMTOFL
 70
     1
  9
$DIMTVP
 40
0.0
  9
$DIMTIX
 70
     0
  9
$DIMSOXD
 70
     0
  9
$DIMSAH
 70
     0
  9
$DIMBLK1
  1

  9
$DIMBLK2
  1

  9
$DIMSTYLE
  2
ISO-25
  9
$DIMCLRD
 70
     0
  9
$DIMCLRE
 70
     0
  9
$DIMCLRT
 70
     0
  9
$DIMTFAC
 40
1.0
  9
$DIMGAP
 40
0.762
  9
$DIMJUST
 70
     0
  9
$DIMSD1
 70
     0
  9
$DIMSD2
 70
     0
  9
$DIMTOLJ
 70
     0
  9
$DIMTZIN
 70
     1
  9
$DIMALTZ
 70
     0
  9
$DIMALTTZ
 70
     0
  9
$DIMUPT
 70
     0
  9
$DIMDEC
 70
     2
  9
$DIMTDEC
 70
     2
  9
$DIMALTU
 70
     2
  9
$DIMALTTD
 70
     3
  9
$DIMTXSTY
  7
Standard
  9
$DIMAUNIT
 70
     0
  9
$DIMADEC
 70
     2
  9
$DIMALTRND
 40
0.0
  9
$DIMAZIN
 70
     0
  9
$DIMDSEP
 70
    44
  9
$DIMATFIT
 70
     3
  9
$DIMFRAC
 70
     0
  9
$DIMLDRBLK
  1

  9
$DIMLUNIT
 70
     2
  9
$DIMLWD
 70
    -2
  9
$DIMLWE
 70
    -2
  9
$DIMTMOVE
 70
     0
  9
$LUNITS
 70
     2
  9
$LUPREC
 70
     2
  9
$SKETCHINC
 40
1.0
  9
$FILLETRAD
 40
10.0
  9
$AUNITS
 70
     0
  9
$AUPREC
 70
     2
  9
$MENU
  1
.
  9
$ELEVATION
 40
0.0
  9
$PELEVATION
 40
0.0
  9
$THICKNESS
 40
0.0
  9
$LIMCHECK
 70
     0
  9
$CHAMFERA
 40
0.0
  9
$CHAMFERB
 40
0.0
  9
$CHAMFERC
 40
0.0
  9
$CHAMFERD
 40
0.0
  9
$SKPOLY
 70
     0
  9
$TDCREATE
 40
2459241.610614132
  9
$TDUCREATE
 40
2459241.235614132
  9
$TDUPDATE
 40
2459241.610614676
  9
$TDUUPDATE
 40
2459241.235614676
  9
$TDINDWG
 40
0.0000000116
  9
$TDUSRTIMER
 40
0.0000000116
  9
$USRTIMER
 70
     1
  9
$ANGBASE
 50
0.0
  9
$ANGDIR
 70
     0
  9
$PDMODE
 70
     0
  9
$PDSIZE
 40
-1.0
  9
$PLINEWID
 40
0.0
  9
$SPLFRAME
 70
     0
  9
$SPLINETYPE
 70
     6
  9
$SPLINESEGS
 70
     8
  9
$HANDSEED
  5
F9
  9
$SURFTAB1
 70
     6
  9
$SURFTAB2
 70
     6
  9
$SURFTYPE
 70
     6
  9
$SURFU
 70
     6
  9
$SURFV
 70
     6
  9
$UCSBASE
  2

  9
$UCSNAME
  2

  9
$UCSORG
 10
0.0
 20
0.0
 30
0.0
  9
$UCSXDIR
 10
1.0
 20
0.0
 30
0.0
  9
$UCSYDIR
 10
0.0
 20
1.0
 30
0.0
  9
$UCSORTHOREF
  2

  9
$UCSORTHOVIEW
 70
     0
  9
$UCSORGTOP
 10
0.0
 20
0.0
 30
0.0
  9
$UCSORGBOTTOM
 10
0.0
 20
0.0
 30
0.0
  9
$UCSORGLEFT
 10
0.0
 20
0.0
 30
0.0
  9
$UCSORGRIGHT
 10
0.0
 20
0.0
 30
0.0
  9
$UCSORGFRONT
 10
0.0
 20
0.0
 30
0.0
  9
$UCSORGBACK
 10
0.0
 20
0.0
 30
0.0
  9
$PUCSBASE
  2

  9
$PUCSNAME
  2

  9
$PUCSORG
 10
0.0
 20
0.0
 30
0.0
  9
$PUCSXDIR
 10
1.0
 20
0.0
 30
0.0
  9
$PUCSYDIR
 10
0.0
 20
1.0
 30
0.0
  9
$PUCSORTHOREF
  2

  9
$PUCSORTHOVIEW
 70
     0
  9
$PUCSORGTOP
 10
0.0
 20
0.0
 30
0.0
  9
$PUCSORGBOTTOM
 10
0.0
 20
0.0
 30
0.0
  9
$PUCSORGLEFT
 10
0.0
 20
0.0
 30
0.0
  9
$PUCSORGRIGHT
 10
0.0
 20
0.0
 30
0.0
  9
$PUCSORGFRONT
 10
0.0
 20
0.0
 30
0.0
  9
$PUCSORGBACK
 10
0.0
 20
0.0
 30
0.0
  9
$USERI1
 70
     0
  9
$USERI2
 70
     0
  9
$USERI3
 70
     0
  9
$USERI4
 70
     0
  9
$USERI5
 70
     0
  9
$USERR1
 40
0.0
  9
$USERR2
 40
0.0
  9
$USERR3
 40
0.0
  9
$USERR4
 40
0.0
  9
$USERR5
 40
0.0
  9
$WORLDVIEW
 70
     1
  9
$SHADEDGE
 70
     3
  9
$SHADEDIF
 70
    70
  9
$TILEMODE
 70
     1
  9
$MAXACTVP
 70
    64
  9
$PINSBASE
 10
0.0
 20
0.0
 30
0.0
  9
$PLIMCHECK
 70
     0
  9
$PEXTMIN
 10
1.0000000000E+20
 20
1.0000000000E+20
 30
1.0000000000E+20
  9
$PEXTMAX
 10
-1.0000000000E+20
 20
-1.0000000000E+20
 30
-1.0000000000E+20
  9
$PLIMMIN
 10
0.0
 20
0.0
  9
$PLIMMAX
 10
420.0
 20
297.0
  9
$UNITMODE
 70
     0
  9
$VISRETAIN
 70
     1
  9
$PLINEGEN
 70
     0
  9
$PSLTSCALE
 70
     1
  9
$TREEDEPTH
 70
  3020
  9
$CMLSTYLE
  2
Standard
  9
$CMLJUST
 70
     0
  9
$CMLSCALE
 40
20.0
  9
$PROXYGRAPHICS
 70
     1
  9
$MEASUREMENT
 70
     1
  9
$CELWEIGHT
370
    -1
  9
$ENDCAPS
280
     0
  9
$JOINSTYLE
280
     0
  9
$LWDISPLAY
290
     1
  9
$INSUNITS
 70
     4
  9
$HYPERLINKBASE
  1

  9
$STYLESHEET
  1

  9
$XEDIT
290
     1
  9
$CEPSNTYPE
380
     0
  9
$PSTYLEMODE
290
     1
  9
$FINGERPRINTGUID
  2
{2AA78183-D965-41FC-A914-8F4872F3DA8B}
  9
$VERSIONGUID
  2
{FAEB1C32-E019-11D5-929B-00C0DF256EC4}
  9
$EXTNAMES
290
     1
  9
$PSVPSCALE
 40
0.0
  9
$OLESTARTUP
290
     0
  0
ENDSEC
  0
SECTION
  2
CLASSES
  0
CLASS
  1
ACDBDICTIONARYWDFLT
  2
AcDbDictionaryWithDefault
  3
ObjectDBX Classes
 90
        0
280
     0
281
     0
  0
CLASS
  1
VISUALSTYLE
  2
AcDbVisualStyle
  3
ObjectDBX Classes
 90
     4095
280
     0
281
     0
  0
CLASS
  1
MATERIAL
  2
AcDbMaterial
  3
ObjectDBX Classes
 90
     1153
280
     0
281
     0
  0
CLASS
  1
SCALE
  2
AcDbScale
  3
ObjectDBX Classes
 90
     1153
280
     0
281
     0
  0
CLASS
  1
TABLESTYLE
  2
AcDbTableStyle
  3
ObjectDBX Classes
 90
     4095
280
     0
281
     0
  0
CLASS
  1
MLEADERSTYLE
  2
AcDbMLeaderStyle
  3
ACDB_MLEADERSTYLE_CLASS
 90
     4095
280
     0
281
     0
  0
CLASS
  1
SUN
  2
AcDbSun
  3
SCENEOE
 90
     1153
280
     0
281
     0
  0
CLASS
  1
ACDBPLACEHOLDER
  2
AcDbPlaceHolder
  3
ObjectDBX Classes
 90
        0
280
     0
281
     0
  0
CLASS
  1
LAYOUT
  2
AcDbLayout
  3
ObjectDBX Classes
 90
        0
280
     0
281
     0
  0
ENDSEC
  0
SECTION
  2
TABLES
  0
TABLE
  2
VPORT
  5
8
330
0
100
AcDbSymbolTable
 70
     1
  0
VPORT
  5
29
330
8
100
AcDbSymbolTableRecord
100
AcDbViewportTableRecord
  2
*Active
 70
     0
 10
0.0
 20
0.0
 11
1.0
 21
1.0
 12
74.25
 22
52.5
 13
0.0
 23
0.0
 14
10.0
 24
10.0
 15
10.0
 25
10.0
 16
0.0
 26
0.0
 36
1.0
 17
0.0
 27
0.0
 37
0.0
 40
105.0
 41
1.4142857143
 42
50.0
 43
0.0
 44
0.0
 50
0.0
 51
0.0
 71
     0
 72
  2000
 73
     1
 74
     3
 75
     0
 76
     0
 77
     0
 78
     0
281
     0
 65
     1
110
0.0
120
0.0
130
0.0
111
1.0
121
0.0
131
0.0
112
0.0
122
1.0
132
0.0
 79
     0
146
0.0
  0
ENDTAB
  0
TABLE
  2
LTYPE
  5
5
330
0
100
AcDbSymbolTable
 70
     6
  0
LTYPE
  5
14
330
5
100
AcDbSymbolTableRecord
100
AcDbLinetypeTableRecord
  2
ByBlock
 70
     0
  3

 72
    65
 73
     0
 40
0.0
  0
LTYPE
  5
15
330
5
100
AcDbSymbolTableRecord
100
AcDbLinetypeTableRecord
  2
ByLayer
 70
     0
  3

 72
    65
 73
     0
 40
0.0
  0
LTYPE
  5
16
330
5
100
AcDbSymbolTableRecord
100
AcDbLinetypeTableRecord
  2
Continuous
 70
     0
  3
Solid line
 72
    65
 73
     0
 40
0.0
  0
LTYPE
  5
6E
330
5
100
AcDbSymbolTableRecord
100
AcDbLinetypeTableRecord
  2
HIDDEN
 70
     0
  3
Hidden __ __ __ __ __ __ __ __ __ __ __ __ __ __
 72
    65
 73
     2
 40
1.905
 49
1.27
 74
     0
 49
-0.635
 74
     0
  0
LTYPE
  5
6F
330
5
100
AcDbSymbolTableRecord
100
AcDbLinetypeTableRecord
  2
PHANTOM
 70
     0
  3
Phantom ______  __  __  ______  __  __  ______
 72
    65
 73
     6
 40
12.7
 49
6.35
 74
     0
 49
-1.27
 74
     0
 49
1.27
 74
     0
 49
-1.27
 74
     0
 49
1.27
 74
     0
 49
-1.27
 74
     0
  0
LTYPE
  5
70
330
5
100
AcDbSymbolTableRecord
100
AcDbLinetypeTableRecord
  2
CENTER
 70
     0
  3
Center ____ _ ____ _ ____ _ ____ _ ____ _ ____
 72
    65
 73
     4
 40
10.16
 49
6.35
 74
     0
 49
-1.27
 74
     0
 49
1.27
 74
     0
 49
-1.27
 74
     0
  0
LTYPE
  5
71
330
5
100
AcDbSymbolTableRecord
100
AcDbLinetypeTableRecord
  2
CENTERX2
 70
     0
  3
Center (2x) ________  __  ________  __  _____
 72
    65
 73
     4
 40
20.32
 49
12.7
 74
     0
 49
-2.54
 74
     0
 49
2.54
 74
     0
 49
-2.54
 74
     0
  0
LTYPE
  5
72
330
5
100
AcDbSymbolTableRecord
100
AcDbLinetypeTableRecord
  2
DOT2
 70
     0
  3
Dot (.5x) ........................................
 72
    65
 73
     2
 40
0.635
 49
0.0
 74
     0
 49
-0.635
 74
     0
  0
ENDTAB
  0
TABLE
  2
LAYER
  5
2
330
0
100
AcDbSymbolTable
 70
     1
  0
LAYER
  5
10
330
2
100
AcDbSymbolTableRecord
100
AcDbLayerTableRecord
  2
0
 70
     0
 62
     7
  6
Continuous
370
    -3
390
F
  0
ENDTAB
  0
TABLE
  2
STYLE
  5
3
330
0
100
AcDbSymbolTable
 70
     2
  0
STYLE
  5
11
330
3
100
AcDbSymbolTableRecord
100
AcDbTextStyleTableRecord
  2
Standard
 70
     0
 40
0.0
 41
1.0
 50
0.0
 71
     0
 42
1.75
  3
txt
  4
bigfont
  0
STYLE
  5
C1
330
3
100
AcDbSymbolTableRecord
100
AcDbTextStyleTableRecord
  2
SLDTEXTSTYLE0
 70
     0
 40
0.0
 41
0.75
 50
0.0
 71
     0
 42
1.75
  3
TXT
  4
bigfont
  0
ENDTAB
  0
TABLE
  2
VIEW
  5
6
330
0
100
AcDbSymbolTable
 70
     0
  0
ENDTAB
  0
TABLE
  2
UCS
  5
7
330
0
100
AcDbSymbolTable
 70
     0
  0
ENDTAB
  0
TABLE
  2
APPID
  5
9
330
0
100
AcDbSymbolTable
 70
     1
  0
APPID
  5
12
330
9
100
AcDbSymbolTableRecord
100
AcDbRegAppTableRecord
  2
ACAD
 70
     0
  0
ENDTAB
  0
TABLE
  2
DIMSTYLE
  5
A
330
0
100
AcDbSymbolTable
 70
     1
100
AcDbDimStyleTable
  0
DIMSTYLE
105
27
330
A
100
AcDbSymbolTableRecord
100
AcDbDimStyleTableRecord
  2
ISO-25
 70
     0
 41
2.5
 42
0.625
 43
3.75
 44
1.25
 73
     0
 74
     0
 77
     1
 78
     8
140
2.5
141
2.5
143
0.0393700787
147
0.625
171
     3
172
     1
178
     0
271
     2
272
     2
274
     3
278
    44
283
     0
284
     8
340
11
  0
ENDTAB
  0
TABLE
  2
BLOCK_RECORD
  5
1
330
0
100
AcDbSymbolTable
 70
     1
  0
BLOCK_RECORD
  5
1F
330
1
100
AcDbSymbolTableRecord
100
AcDbBlockTableRecord
  2
*Model_Space
340
22
  0
BLOCK_RECORD
  5
1B
330
1
100
AcDbSymbolTableRecord
100
AcDbBlockTableRecord
  2
*Paper_Space
340
1E
  0
BLOCK_RECORD
  5
23
330
1
100
AcDbSymbolTableRecord
100
AcDbBlockTableRecord
  2
*Paper_Space0
340
26
  0
ENDTAB
  0
ENDSEC
  0
SECTION
  2
BLOCKS
  0
BLOCK
  5
20
330
1F
100
AcDbEntity
  8
0
100
AcDbBlockBegin
  2
*Model_Space
 70
     0
 10
0.0
 20
0.0
 30
0.0
  3
*Model_Space
  1

  0
ENDBLK
  5
21
330
1F
100
AcDbEntity
  8
0
100
AcDbBlockEnd
  0
BLOCK
  5
1C
330
1B
100
AcDbEntity
 67
     1
  8
0
100
AcDbBlockBegin
  2
*Paper_Space
 70
     0
 10
0.0
 20
0.0
 30
0.0
  3
*Paper_Space
  1

  0
ENDBLK
  5
1D
330
1B
100
AcDbEntity
 67
     1
  8
0
100
AcDbBlockEnd
  0
BLOCK
  5
24
330
23
100
AcDbEntity
  8
0
100
AcDbBlockBegin
  2
*Paper_Space0
 70
     0
 10
0.0
 20
0.0
 30
0.0
  3
*Paper_Space0
  1

  0
ENDBLK
  5
25
330
23
100
AcDbEntity
  8
0
100
AcDbBlockEnd
  0
ENDSEC
  0
SECTION
  2
ENTITIES
  0
LINE
  5
73
330
1F
100
AcDbEntity
  8
0
  6
Continuous
 62
     7
370
    25
100
AcDbLine
 10
66.3763935963
 20
32.3124279267
 30
0.0
 11
67.1459459459
 21
33.6453316953
 31
0.0
  0
LINE
  5
74
330
1F
100
AcDbEntity
  8
0
  6
Continuous
 62
     7
370
    25
100
AcDbLine
 10
67.1459459459
 20
47.1453316953
 30
0.0
 11
66.3763935963
 21
48.478235464
 31
0.0
  0
LINE
  5
75
330
1F
100
AcDbEntity
  8
0
  6
Continuous
 62
     7
370
    25
100
AcDbLine
 10
32.9154982956
 20
48.478235464
 30
0.0
 11
32.1459459459
 21
47.1453316953
 31
0.0
  0
LINE
  5
76
330
1F
100
AcDbEntity
  8
0
  6
Continuous
 62
     7
370
    25
100
AcDbLine
 10
32.1459459459
 20
33.6453316953
 30
0.0
 11
32.9154982956
 21
32.3124279267
 31
0.0
  0
LINE
  5
77
330
1F
100
AcDbEntity
  8
0
  6
Continuous
 62
     7
370
    25
100
AcDbLine
 10
55.1459459459
 20
34.3331538688
 30
0.0
 11
55.1459459459
 21
34.3244936148
 31
0.0
  0
LINE
  5
78
330
1F
100
AcDbEntity
  8
0
  6
Continuous
 62
     7
370
    25
100
AcDbLine
 10
53.8259459459
 20
40.0353316953
 30
0.0
 11
56.7059459459
 21
40.0353316953
 31
0.0
  0
LINE
  5
79
330
1F
100
AcDbEntity
  8
0
  6
Continuous
 62
     7
370
    25
100
AcDbLine
 10
53.8259459459
 20
40.3953316953
 30
0.0
 11
53.8259459459
 21
40.0353316953
 31
0.0
  0
LINE
  5
7A
330
1F
100
AcDbEntity
  8
0
  6
Continuous
 62
     7
370
    25
100
AcDbLine
 10
53.8259459459
 20
40.7553316953
 30
0.0
 11
53.8259459459
 21
40.3953316953
 31
0.0
  0
LINE
  5
7B
330
1F
100
AcDbEntity
  8
0
  6
Continuous
 62
     7
370
    25
100
AcDbLine
 10
56.7059459459
 20
40.7553316953
 30
0.0
 11
53.8259459459
 21
40.7553316953
 31
0.0
  0
LINE
  5
7C
330
1F
100
AcDbEntity
  8
0
  6
Continuous
 62
     7
370
    25
100
AcDbLine
 10
56.7059459459
 20
41.2593316953
 30
0.0
 11
56.7059459459
 21
40.7553316953
 31
0.0
  0
LINE
  5
7D
330
1F
100
AcDbEntity
  8
0
  6
Continuous
 62
     7
370
    25
100
AcDbLine
 10
58.1459459459
 20
40.3953316953
 30
0.0
 11
56.7059459459
 21
41.2593316953
 31
0.0
  0
LINE
  5
7E
330
1F
100
AcDbEntity
  8
0
  6
Continuous
 62
     7
370
    25
100
AcDbLine
 10
56.7059459459
 20
39.5313316953
 30
0.0
 11
58.1459459459
 21
40.3953316953
 31
0.0
  0
LINE
  5
7F
330
1F
100
AcDbEntity
  8
0
  6
Continuous
 62
     7
370
    25
100
AcDbLine
 10
56.7059459459
 20
40.0353316953
 30
0.0
 11
56.7059459459
 21
39.5313316953
 31
0.0
  0
SPLINE
  5
80
330
1F
100
AcDbEntity
  8
0
  6
Continuous
 62
     7
370
    25
100
AcDbSpline
210
0.0
220
0.0
230
1.0
 70
     8
 71
     3
 72
    16
 73
    12
 74
     0
 42
0.000000001
 43
0.00000001
 40
0.0
 40
0.0
 40
0.0
 40
0.0
 40
0.25
 40
0.25
 40
0.5
 40
0.5
 40
0.625
 40
0.625
 40
0.75
 40
0.75
 40
1.0
 40
1.0
 40
1.0
 40
1.0
 10
66.37639359630973
 20
32.31242792667688
 30
0.0
 10
66.56688806729451
 20
32.64237402898348
 30
0.0
 10
66.7238900805076
 20
32.97472577029318
 30
0.0
 10
66.94138889134562
 20
33.64636086456693
 30
0.0
 10
67.00116825241568
 20
33.9856957483374
 30
0.0
 10
67.00182475326966
 20
34.5010915146076
 30
0.0
 10
66.98721098678617
 20
34.67369827510809
 30
0.0
 10
66.93022512890934
 20
35.01513268762663
 30
0.0
 10
66.88791085965009
 20
35.18470519037062
 30
0.0
 10
66.7245160397599
 20
35.69040368992211
 30
0.0
 10
66.56712551244648
 20
36.02352244163012
 30
0.0
 10
66.37639359630948
 20
36.35387981100438
 30
0.0
  0
SPLINE
  5
81
330
1F
100
AcDbEntity
  8
0
  6
Continuous
 62
     7
370
    25
100
AcDbSpline
210
0.0
220
0.0
230
1.0
 70
     8
 71
     3
 72
    14
 73
    10
 74
     0
 42
0.000000001
 43
0.00000001
 40
0.0
 40
0.0
 40
0.0
 40
0.0
 40
0.2500000000000001
 40
0.2500000000000001
 40
0.5
 40
0.5
 40
0.7499999999999999
 40
0.7499999999999999
 40
1.0
 40
1.0
 40
1.0
 40
1.0
 10
66.37639359630924
 20
36.35387981100435
 30
0.0
 10
66.56636166954854
 20
37.01194852033724
 30
0.0
 10
66.72544643873329
 20
37.68518319912734
 30
0.0
 10
66.94294138614558
 20
39.03427994097887
 30
0.0
 10
67.00168907185092
 20
39.71304273775069
 30
0.0
 10
67.00152751621327
 20
41.08048550122938
 30
0.0
 10
66.94104407505746
 20
41.77311492705348
 30
0.0
 10
66.7220150446671
 20
43.12167935324103
 30
0.0
 10
66.56500679642765
 20
43.78340828849264
 30
0.0
 10
66.37639359630923
 20
44.43678357965914
 30
0.0
  0
SPLINE
  5
82
330
1F
100
AcDbEntity
  8
0
  6
Continuous
 62
     7
370
    25
100
AcDbSpline
210
0.0
220
0.0
230
1.0
 70
     8
 71
     3
 72
    16
 73
    12
 74
     0
 42
0.000000001
 43
0.00000001
 40
0.0
 40
0.0
 40
0.0
 40
0.0
 40
0.2500000000000002
 40
0.2500000000000002
 40
0.5000000000000004
 40
0.5000000000000004
 40
0.6250000000000004
 40
0.6250000000000004
 40
0.7500000000000004
 40
0.7500000000000004
 40
1.0
 40
1.0
 40
1.0
 40
1.0
 10
66.37639359630973
 20
44.43678357965911
 30
0.0
 10
66.56688806729451
 20
44.7667296819657
 30
0.0
 10
66.7238900805076
 20
45.09908142327539
 30
0.0
 10
66.94138889134561
 20
45.77071651754911
 30
0.0
 10
67.00116825241567
 20
46.11005140131957
 30
0.0
 10
67.00182475326963
 20
46.62544716758975
 30
0.0
 10
66.98721098678615
 20
46.79805392809023
 30
0.0
 10
66.93022512890931
 20
47.13948834060876
 30
0.0
 10
66.88791085965008
 20
47.30906084335274
 30
0.0
 10
66.7245160397599
 20
47.81475934290422
 30
0.0
 10
66.56712551244648
 20
48.14787809461222
 30
0.0
 10
66.37639359630948
 20
48.47823546398646
 30
0.0
  0
LINE
  5
83
330
1F
100
AcDbEntity
  8
0
  6
Continuous
 62
     7
370
    25
100
AcDbLine
 10
67.1459459459
 20
40.3953316953
 30
0.0
 11
67.1459459459
 21
47.1453316953
 31
0.0
  0
LINE
  5
84
330
1F
100
AcDbEntity
  8
0
  6
Continuous
 62
     7
370
    25
100
AcDbLine
 10
67.1459459459
 20
33.6453316953
 30
0.0
 11
67.1459459459
 21
40.3953316953
 31
0.0
  0
SPLINE
  5
85
330
1F
100
AcDbEntity
  8
0
  6
Continuous
 62
     7
370
    25
100
AcDbSpline
210
0.0
220
0.0
230
1.0
 70
     8
 71
     3
 72
    14
 73
    10
 74
     0
 42
0.000000001
 43
0.00000001
 40
0.0
 40
0.0
 40
0.0
 40
0.0
 40
0.2500000000000001
 40
0.2500000000000001
 40
0.5
 40
0.5
 40
0.7499999999999999
 40
0.7499999999999999
 40
1.0
 40
1.0
 40
1.0
 40
1.0
 10
32.91549829558259
 20
36.35387981100435
 30
0.0
 10
32.72553022234329
 20
37.01194852033724
 30
0.0
 10
32.56644545315855
 20
37.68518319912734
 30
0.0
 10
32.34895050574625
 20
39.03427994097887
 30
0.0
 10
32.29020282004092
 20
39.71304273775069
 30
0.0
 10
32.29036437567855
 20
41.08048550122938
 30
0.0
 10
32.35084781683436
 20
41.77311492705348
 30
0.0
 10
32.56987684722474
 20
43.12167935324103
 30
0.0
 10
32.72688509546418
 20
43.78340828849264
 30
0.0
 10
32.9154982955826
 20
44.43678357965914
 30
0.0
  0
SPLINE
  5
86
330
1F
100
AcDbEntity
  8
0
  6
Continuous
 62
     7
370
    25
100
AcDbSpline
210
0.0
220
0.0
230
1.0
 70
     8
 71
     3
 72
    16
 73
    12
 74
     0
 42
0.000000001
 43
0.00000001
 40
0.0
 40
0.0
 40
0.0
 40
0.0
 40
0.25
 40
0.25
 40
0.5
 40
0.5
 40
0.625
 40
0.625
 40
0.75
 40
0.75
 40
1.0
 40
1.0
 40
1.0
 40
1.0
 10
32.91549829558211
 20
32.31242792667688
 30
0.0
 10
32.72500382459732
 20
32.64237402898348
 30
0.0
 10
32.56800181138423
 20
32.97472577029318
 30
0.0
 10
32.3505030005462
 20
33.64636086456693
 30
0.0
 10
32.29072363947615
 20
33.9856957483374
 30
0.0
 10
32.29006713862218
 20
34.5010915146076
 30
0.0
 10
32.30468090510567
 20
34.67369827510809
 30
0.0
 10
32.36166676298249
 20
35.01513268762663
 30
0.0
 10
32.40398103224174
 20
35.18470519037062
 30
0.0
 10
32.56737585213193
 20
35.69040368992211
 30
0.0
 10
32.72476637944536
 20
36.02352244163012
 30
0.0
 10
32.91549829558235
 20
36.35387981100438
 30
0.0
  0
SPLINE
  5
87
330
1F
100
AcDbEntity
  8
0
  6
Continuous
 62
     7
370
    25
100
AcDbSpline
210
0.0
220
0.0
230
1.0
 70
     8
 71
     3
 72
    16
 73
    12
 74
     0
 42
0.000000001
 43
0.00000001
 40
0.0
 40
0.0
 40
0.0
 40
0.0
 40
0.2500000000000002
 40
0.2500000000000002
 40
0.5000000000000004
 40
0.5000000000000004
 40
0.6250000000000004
 40
0.6250000000000004
 40
0.7500000000000004
 40
0.7500000000000004
 40
1.0
 40
1.0
 40
1.0
 40
1.0
 10
32.91549829558211
 20
44.43678357965911
 30
0.0
 10
32.72500382459732
 20
44.7667296819657
 30
0.0
 10
32.56800181138424
 20
45.09908142327539
 30
0.0
 10
32.35050300054622
 20
45.77071651754911
 30
0.0
 10
32.29072363947617
 20
46.11005140131957
 30
0.0
 10
32.29006713862221
 20
46.62544716758975
 30
0.0
 10
32.30468090510567
 20
46.79805392809023
 30
0.0
 10
32.36166676298252
 20
47.13948834060876
 30
0.0
 10
32.40398103224175
 20
47.30906084335274
 30
0.0
 10
32.56737585213193
 20
47.81475934290422
 30
0.0
 10
32.72476637944536
 20
48.14787809461222
 30
0.0
 10
32.91549829558235
 20
48.47823546398646
 30
0.0
  0
LINE
  5
88
330
1F
100
AcDbEntity
  8
0
  6
Continuous
 62
     7
370
    25
100
AcDbLine
 10
32.1459459459
 20
40.3953316953
 30
0.0
 11
32.1459459459
 21
47.1453316953
 31
0.0
  0
LINE
  5
89
330
1F
100
AcDbEntity
  8
0
  6
Continuous
 62
     7
370
    25
100
AcDbLine
 10
32.1459459459
 20
33.6453316953
 30
0.0
 11
32.1459459459
 21
40.3953316953
 31
0.0
  0
LINE
  5
8A
330
1F
100
AcDbEntity
  8
0
  6
Continuous
 62
     7
370
    25
100
AcDbLine
 10
32.9154982956
 20
44.4367835797
 30
0.0
 11
66.3763935963
 21
44.4367835797
 31
0.0
  0
LINE
  5
8B
330
1F
100
AcDbEntity
  8
0
  6
Continuous
 62
     7
370
    25
100
AcDbLine
 10
32.9154982956
 20
36.353879811
 30
0.0
 11
66.3763935963
 21
36.353879811
 31
0.0
  0
LINE
  5
8C
330
1F
100
AcDbEntity
  8
0
  6
Continuous
 62
     7
370
    25
100
AcDbLine
 10
32.9154982956
 20
32.3124279267
 30
0.0
 11
66.3763935963
 21
32.3124279267
 31
0.0
  0
ARC
  5
8D
330
1F
100
AcDbEntity
  8
0
  6
Continuous
 62
     7
370
    25
100
AcDbCircle
 10
57.7921152043
 20
34.4098397838
 30
0.0
 40
0.4728116131975917
100
AcDbArc
 50
189.3341081815
 51
255.0062639575
  0
LINE
  5
8E
330
1F
100
AcDbEntity
  8
0
  6
Continuous
 62
     7
370
    25
100
AcDbLine
 10
57.6697924844
 20
34.7131822779
 30
0.0
 11
56.9330027116
 21
34.8993186416
 31
0.0
  0
ARC
  5
8F
330
1F
100
AcDbEntity
  8
0
  6
Continuous
 62
     7
370
    25
100
AcDbCircle
 10
56.9078170961
 20
34.8230933052
 30
0.0
 40
0.1221907668115395
100
AcDbArc
 50
285.6398166517
 51
347.3872570271
  0
LINE
  5
90
330
1F
100
AcDbEntity
  8
0
  6
Continuous
 62
     7
370
    25
100
AcDbLine
 10
56.9407583934
 20
34.7054265961
 30
0.0
 11
55.3120652116
 21
34.4572447779
 31
0.0
  0
LWPOLYLINE
  5
91
330
1F
100
AcDbEntity
  8
0
  6
Continuous
 62
     7
370
    25
100
AcDbPolyline
 90
        5
 70
   128
 43
0.0
 10
55.3120652116
 20
34.4572447779
 10
55.2443444913
 20
34.4370145173
 10
55.1913084001
 20
34.4078155329
 10
55.1575367867
 20
34.3721692573
 10
55.1459459459
 20
34.3331538688
  0
ARC
  5
92
330
1F
100
AcDbEntity
  8
0
  6
Continuous
 62
     7
370
    25
100
AcDbCircle
 10
56.9019317488
 20
33.8920540097
 30
0.0
 40
0.1288667426026097
100
AcDbArc
 50
283.9520180701
 51
346.1637414037
  0
LINE
  5
93
330
1F
100
AcDbEntity
  8
0
  6
Continuous
 62
     7
370
    25
100
AcDbLine
 10
32.9154982956
 20
48.478235464
 30
0.0
 11
66.3763935963
 21
48.478235464
 31
0.0
  0
LINE
  5
94
330
1F
100
AcDbEntity
  8
0
  6
Continuous
 62
     7
370
    25
100
AcDbLine
 10
56.9407583934
 20
34.6967663421
 30
0.0
 11
55.3120652116
 21
34.4485845239
 31
0.0
  0
LWPOLYLINE
  5
95
330
1F
100
AcDbEntity
  8
0
  6
Continuous
 62
     7
370
    25
100
AcDbPolyline
 90
        9
 70
   128
 43
0.0
 10
56.9330027116
 20
34.8906583875
 10
56.9718548524
 20
34.8711217464
 10
57.0013425837
 20
34.8478479202
 10
57.020071664
 20
34.8219373442
 10
57.0271565431
 20
34.7946151247
 10
57.0222622332
 20
34.7671731133
 10
57.0056201475
 20
34.7409088257
 10
56.9780171585
 20
34.7170640923
 10
56.9407583934
 20
34.6967663421
  0
LINE
  5
96
330
1F
100
AcDbEntity
  8
0
  6
Continuous
 62
     7
370
    25
100
AcDbLine
 10
57.6697924844
 20
34.7045220239
 30
0.0
 11
56.9330027116
 21
34.8906583875
 31
0.0
  0
LWPOLYLINE
  5
97
330
1F
100
AcDbEntity
  8
0
  6
Continuous
 62
     7
370
    25
100
AcDbPolyline
 90
       11
 70
   128
 43
0.0
 10
57.6697924844
 20
33.9444652057
 10
57.5507524933
 20
34.0064058892
 10
57.4544019197
 20
34.0775284586
 10
57.3835220088
 20
34.1557798976
 10
57.3401587726
 20
34.2389014085
 10
57.3255639295
 20
34.3244936148
 10
57.3401587726
 20
34.4100858211
 10
57.3835220088
 20
34.493207332
 10
57.4544019197
 20
34.571458771
 10
57.5507524933
 20
34.6425813404
 10
57.6697924844
 20
34.7045220239
  0
LINE
  5
98
330
1F
100
AcDbEntity
  8
0
  6
Continuous
 62
     7
370
    25
100
AcDbLine
 10
56.9330027116
 20
33.7583288421
 30
0.0
 11
57.6697924844
 21
33.9444652057
 31
0.0
  0
LWPOLYLINE
  5
99
330
1F
100
AcDbEntity
  8
0
  6
Continuous
 62
     7
370
    25
100
AcDbPolyline
 90
        9
 70
   128
 43
0.0
 10
56.9407583934
 20
33.9522208875
 10
56.9780171585
 20
33.9319231373
 10
57.0056201475
 20
33.9080784039
 10
57.0222622332
 20
33.8818141163
 10
57.0271565431
 20
33.8543721049
 10
57.020071664
 20
33.8270498854
 10
57.0013425837
 20
33.8011393094
 10
56.9718548524
 20
33.7778654832
 10
56.9330027116
 20
33.7583288421
  0
LINE
  5
9A
330
1F
100
AcDbEntity
  8
0
  6
Continuous
 62
     7
370
    25
100
AcDbLine
 10
55.3120652116
 20
34.2004027057
 30
0.0
 11
56.9407583934
 21
33.9522208875
 31
0.0
  0
LWPOLYLINE
  5
9B
330
1F
100
AcDbEntity
  8
0
  6
Continuous
 62
     7
370
    25
100
AcDbPolyline
 90
        9
 70
   128
 43
0.0
 10
55.3120652116
 20
34.4485845239
 10
55.2443444913
 20
34.4283542633
 10
55.1913084001
 20
34.3991552789
 10
55.1575367867
 20
34.3635090033
 10
55.1459459459
 20
34.3244936148
 10
55.1575367867
 20
34.2854782264
 10
55.1913084001
 20
34.2498319507
 10
55.2443444913
 20
34.2206329663
 10
55.3120652116
 20
34.2004027057
  0
LINE
  5
9C
330
1F
100
AcDbEntity
  8
0
  6
Continuous
 62
     7
370
    25
100
AcDbLine
 10
56.1477399275
 20
34.3244936148
 30
0.0
 11
56.6460424844
 21
34.2485617966
 31
0.0
  0
LINE
  5
9D
330
1F
100
AcDbEntity
  8
0
  6
Continuous
 62
     7
370
    25
100
AcDbLine
 10
56.6460424844
 20
34.2485617966
 30
0.0
 11
56.6460424844
 21
34.400425433
 31
0.0
  0
LINE
  5
9E
330
1F
100
AcDbEntity
  8
0
  6
Continuous
 62
     7
370
    25
100
AcDbLine
 10
56.6460424844
 20
34.400425433
 30
0.0
 11
56.1477399275
 21
34.3244936148
 31
0.0
  0
LINE
  5
9F
330
1F
100
AcDbEntity
  8
0
  6
Continuous
 62
     7
370
    25
100
AcDbLine
 10
56.9407583934
 20
34.7054265961
 30
0.0
 11
56.9407583934
 21
34.6967663421
 31
0.0
  0
LINE
  5
A0
330
1F
100
AcDbEntity
  8
0
  6
Continuous
 62
     7
370
    25
100
AcDbLine
 10
56.9330027116
 20
34.8993186416
 30
0.0
 11
56.9330027116
 21
34.8906583875
 31
0.0
  0
LINE
  5
A1
330
1F
100
AcDbEntity
  8
0
  6
Continuous
 62
     7
370
    25
100
AcDbLine
 10
57.6697924844
 20
34.7131822779
 30
0.0
 11
57.6697924844
 21
34.7045220239
 31
0.0
  0
LINE
  5
A2
330
1F
100
AcDbEntity
  8
0
  6
Continuous
 62
     7
370
    25
100
AcDbLine
 10
57.6697924844
 20
33.9531254597
 30
0.0
 11
57.6697924844
 21
33.9444652057
 31
0.0
  0
LINE
  5
A3
330
1F
100
AcDbEntity
  8
0
  6
Continuous
 62
     7
370
    25
100
AcDbLine
 10
55.3120652116
 20
34.4572447779
 30
0.0
 11
55.3120652116
 21
34.4485845239
 31
0.0
  0
LINE
  5
A4
330
1F
100
AcDbEntity
  8
0
  6
Continuous
 62
     7
370
    25
100
AcDbLine
 10
56.1761563861
 20
34.3288237418
 30
0.0
 11
56.6460424844
 21
34.2572220507
 31
0.0
  0
LINE
  5
A5
330
1F
100
AcDbEntity
  8
0
  6
Continuous
 62
     7
370
    25
100
AcDbLine
 10
56.9330027116
 20
33.7669890961
 30
0.0
 11
56.9330027116
 21
33.7583288421
 31
0.0
  0
LINE
  5
A6
330
1F
100
AcDbEntity
  8
0
  6
Continuous
 62
     7
370
    25
100
AcDbLine
 10
67.0016083786
 20
60.3676904177
 30
0.0
 11
67.1459459459
 21
60.6176904177
 31
0.0
  0
LINE
  5
A7
330
1F
100
AcDbEntity
  8
0
  6
Continuous
 62
     7
370
    25
100
AcDbLine
 10
67.1459459459
 20
74.1176904177
 30
0.0
 11
67.0016083786
 21
74.3676904177
 31
0.0
  0
LINE
  5
A8
330
1F
100
AcDbEntity
  8
0
  6
Continuous
 62
     7
370
    25
100
AcDbLine
 10
32.2902835132
 20
74.3676904177
 30
0.0
 11
32.1459459459
 21
74.1176904177
 31
0.0
  0
LINE
  5
A9
330
1F
100
AcDbEntity
  8
0
  6
Continuous
 62
     7
370
    25
100
AcDbLine
 10
32.1459459459
 20
60.6176904177
 30
0.0
 11
32.2902835132
 21
60.3676904177
 31
0.0
  0
SPLINE
  5
AA
330
1F
100
AcDbEntity
  8
0
  6
Continuous
 62
     7
370
    25
100
AcDbSpline
210
0.0
220
0.0
230
1.0
 70
     8
 71
     3
 72
    16
 73
    12
 74
     0
 42
0.000000001
 43
0.00000001
 40
0.0
 40
0.0
 40
0.0
 40
0.0
 40
0.2500000000000001
 40
0.2500000000000001
 40
0.5000000000000001
 40
0.5000000000000001
 40
0.625
 40
0.625
 40
0.7499999999999999
 40
0.7499999999999999
 40
1.0
 40
1.0
 40
1.0
 40
1.0
 10
66.37639359630973
 20
67.36769041769034
 30
0.0
 10
66.56688806729451
 20
67.93917383064466
 30
0.0
 10
66.7238900805076
 20
68.51482393257707
 30
0.0
 10
66.94138889134562
 20
69.67813004000548
 30
0.0
 10
67.00116825241568
 20
70.26587529947642
 30
0.0
 10
67.00182475326966
 20
71.15856695266228
 30
0.0
 10
66.98721098678617
 20
71.457530631579
 30
0.0
 10
66.93022512890934
 20
72.04891238151353
 30
0.0
 10
66.88791085965009
 20
72.34262057183273
 30
0.0
 10
66.7245160397599
 20
73.21851606636726
 30
0.0
 10
66.56712551244648
 20
73.79549466927944
 30
0.0
 10
66.37639359630948
 20
74.36769041769044
 30
0.0
  0
SPLINE
  5
AB
330
1F
100
AcDbEntity
  8
0
  6
Continuous
 62
     7
370
    25
100
AcDbSpline
210
0.0
220
0.0
230
1.0
 70
    24
 71
     3
 72
    12
 73
     8
 74
     0
 42
0.000000001
 43
0.00000001
 40
0.0
 40
0.0
 40
0.0
 40
0.0
 40
0.1882145731497976
 40
0.3767638472701715
 40
0.5666187915942617
 40
0.7570651906318957
 40
1.0
 40
1.0
 40
1.0
 40
1.0
 10
66.37639359630923
 20
74.36769041769041
 30
0.0
 10
66.44515862953192
 20
74.3676904176904
 30
0.0
 10
66.58281098046872
 20
74.3676904176904
 30
0.0
 10
66.75031038385615
 20
74.3676904176904
 30
0.0
 10
66.88089237751576
 20
74.3676904176904
 30
0.0
 10
66.98008140823013
 20
74.3676904176904
 30
0.0
 10
66.9930972064128
 20
74.3676904176904
 30
0.0
 10
67.00039330137251
 20
74.3676904176904
 30
0.0
  0
SPLINE
  5
AC
330
1F
100
AcDbEntity
  8
0
  6
Continuous
 62
     7
370
    25
100
AcDbSpline
210
0.0
220
0.0
230
1.0
 70
    24
 71
     3
 72
    12
 73
     8
 74
     0
 42
0.000000001
 43
0.00000001
 40
0.0
 40
0.0
 40
0.0
 40
0.0
 40
0.2429318680625547
 40
0.4308735839632681
 40
0.6194305468980339
 40
0.8095233527016227
 40
1.0
 40
1.0
 40
1.0
 40
1.0
 10
66.99900393559379
 20
60.36769041769039
 30
0.0
 10
66.99231684017018
 20
60.36769041769039
 30
0.0
 10
66.98045634284455
 20
60.3676904176904
 30
0.0
 10
66.88190727127116
 20
60.36769041769041
 30
0.0
 10
66.75261608434793
 20
60.36769041769042
 30
0.0
 10
66.58493055696746
 20
60.36769041769043
 30
0.0
 10
66.4459526407999
 20
60.36769041769043
 30
0.0
 10
66.37639359630923
 20
60.36769041769043
 30
0.0
  0
SPLINE
  5
AD
330
1F
100
AcDbEntity
  8
0
  6
Continuous
 62
     7
370
    25
100
AcDbSpline
210
0.0
220
0.0
230
1.0
 70
     8
 71
     3
 72
    16
 73
    12
 74
     0
 42
0.000000001
 43
0.00000001
 40
0.0
 40
0.0
 40
0.0
 40
0.0
 40
0.2500000000000002
 40
0.2500000000000002
 40
0.5000000000000004
 40
0.5000000000000004
 40
0.6250000000000004
 40
0.6250000000000004
 40
0.7500000000000004
 40
0.7500000000000004
 40
1.0
 40
1.0
 40
1.0
 40
1.0
 10
66.37639359630973
 20
60.36769041769037
 30
0.0
 10
66.56688806729451
 20
60.93917383064471
 30
0.0
 10
66.7238900805076
 20
61.51482393257711
 30
0.0
 10
66.94138889134561
 20
62.67813004000553
 30
0.0
 10
67.00116825241567
 20
63.26587529947644
 30
0.0
 10
67.00182475326963
 20
64.1585669526623
 30
0.0
 10
66.98721098678615
 20
64.457530631579
 30
0.0
 10
66.93022512890931
 20
65.04891238151355
 30
0.0
 10
66.88791085965008
 20
65.34262057183274
 30
0.0
 10
66.7245160397599
 20
66.21851606636724
 30
0.0
 10
66.56712551244648
 20
66.79549466927944
 30
0.0
 10
66.37639359630948
 20
67.36769041769043
 30
0.0
  0
LINE
  5
AE
330
1F
100
AcDbEntity
  8
0
  6
Continuous
 62
     7
370
    25
100
AcDbLine
 10
67.1459459459
 20
60.6176904177
 30
0.0
 11
67.1459459459
 21
74.1176904177
 31
0.0
  0
SPLINE
  5
AF
330
1F
100
AcDbEntity
  8
0
  6
Continuous
 62
     7
370
    25
100
AcDbSpline
210
0.0
220
0.0
230
1.0
 70
    24
 71
     3
 72
    12
 73
     8
 74
     0
 42
0.000000001
 43
0.00000001
 40
0.0
 40
0.0
 40
0.0
 40
0.0
 40
0.2429318680625547
 40
0.4308735839632681
 40
0.6194305468980339
 40
0.8095233527016227
 40
1.0
 40
1.0
 40
1.0
 40
1.0
 10
32.29288795629805
 20
60.36769041769039
 30
0.0
 10
32.29957505172165
 20
60.36769041769039
 30
0.0
 10
32.31143554904729
 20
60.3676904176904
 30
0.0
 10
32.40998462062068
 20
60.36769041769041
 30
0.0
 10
32.5392758075439
 20
60.36769041769042
 30
0.0
 10
32.70696133492438
 20
60.36769041769043
 30
0.0
 10
32.84593925109193
 20
60.36769041769043
 30
0.0
 10
32.9154982955826
 20
60.36769041769043
 30
0.0
  0
SPLINE
  5
B0
330
1F
100
AcDbEntity
  8
0
  6
Continuous
 62
     7
370
    25
100
AcDbSpline
210
0.0
220
0.0
230
1.0
 70
    24
 71
     3
 72
    12
 73
     8
 74
     0
 42
0.000000001
 43
0.00000001
 40
0.0
 40
0.0
 40
0.0
 40
0.0
 40
0.1882145731497976
 40
0.3767638472701715
 40
0.5666187915942617
 40
0.7570651906318957
 40
1.0
 40
1.0
 40
1.0
 40
1.0
 10
32.9154982955826
 20
74.36769041769041
 30
0.0
 10
32.84673326235991
 20
74.3676904176904
 30
0.0
 10
32.7090809114231
 20
74.3676904176904
 30
0.0
 10
32.54158150803568
 20
74.3676904176904
 30
0.0
 10
32.41099951437607
 20
74.3676904176904
 30
0.0
 10
32.3118104836617
 20
74.3676904176904
 30
0.0
 10
32.29879468547902
 20
74.3676904176904
 30
0.0
 10
32.29149859051932
 20
74.3676904176904
 30
0.0
  0
SPLINE
  5
B1
330
1F
100
AcDbEntity
  8
0
  6
Continuous
 62
     7
370
    25
100
AcDbSpline
210
0.0
220
0.0
230
1.0
 70
     8
 71
     3
 72
    16
 73
    12
 74
     0
 42
0.000000001
 43
0.00000001
 40
0.0
 40
0.0
 40
0.0
 40
0.0
 40
0.2500000000000001
 40
0.2500000000000001
 40
0.5000000000000001
 40
0.5000000000000001
 40
0.625
 40
0.625
 40
0.7499999999999999
 40
0.7499999999999999
 40
1.0
 40
1.0
 40
1.0
 40
1.0
 10
32.91549829558211
 20
67.36769041769034
 30
0.0
 10
32.72500382459732
 20
67.93917383064466
 30
0.0
 10
32.56800181138424
 20
68.51482393257707
 30
0.0
 10
32.3505030005462
 20
69.67813004000548
 30
0.0
 10
32.29072363947615
 20
70.26587529947642
 30
0.0
 10
32.29006713862218
 20
71.15856695266228
 30
0.0
 10
32.30468090510567
 20
71.457530631579
 30
0.0
 10
32.36166676298249
 20
72.04891238151353
 30
0.0
 10
32.40398103224174
 20
72.34262057183273
 30
0.0
 10
32.56737585213193
 20
73.21851606636726
 30
0.0
 10
32.72476637944535
 20
73.79549466927944
 30
0.0
 10
32.91549829558235
 20
74.36769041769044
 30
0.0
  0
SPLINE
  5
B2
330
1F
100
AcDbEntity
  8
0
  6
Continuous
 62
     7
370
    25
100
AcDbSpline
210
0.0
220
0.0
230
1.0
 70
     8
 71
     3
 72
    16
 73
    12
 74
     0
 42
0.000000001
 43
0.00000001
 40
0.0
 40
0.0
 40
0.0
 40
0.0
 40
0.2500000000000002
 40
0.2500000000000002
 40
0.5000000000000004
 40
0.5000000000000004
 40
0.6250000000000004
 40
0.6250000000000004
 40
0.7500000000000004
 40
0.7500000000000004
 40
1.0
 40
1.0
 40
1.0
 40
1.0
 10
32.91549829558211
 20
60.36769041769037
 30
0.0
 10
32.72500382459732
 20
60.93917383064471
 30
0.0
 10
32.56800181138424
 20
61.51482393257711
 30
0.0
 10
32.35050300054622
 20
62.67813004000553
 30
0.0
 10
32.29072363947617
 20
63.26587529947644
 30
0.0
 10
32.29006713862221
 20
64.1585669526623
 30
0.0
 10
32.30468090510567
 20
64.457530631579
 30
0.0
 10
32.36166676298252
 20
65.04891238151355
 30
0.0
 10
32.40398103224175
 20
65.34262057183274
 30
0.0
 10
32.56737585213193
 20
66.21851606636724
 30
0.0
 10
32.72476637944536
 20
66.79549466927944
 30
0.0
 10
32.91549829558235
 20
67.36769041769043
 30
0.0
  0
LINE
  5
B3
330
1F
100
AcDbEntity
  8
0
  6
Continuous
 62
     7
370
    25
100
AcDbLine
 10
32.1459459459
 20
60.6176904177
 30
0.0
 11
32.1459459459
 21
74.1176904177
 31
0.0
  0
LINE
  5
B4
330
1F
100
AcDbEntity
  8
0
  6
Continuous
 62
     7
370
    25
100
AcDbLine
 10
32.9154982956
 20
74.3676904177
 30
0.0
 11
66.3763935963
 21
74.3676904177
 31
0.0
  0
LINE
  5
B5
330
1F
100
AcDbEntity
  8
0
  6
Continuous
 62
     7
370
    25
100
AcDbLine
 10
32.9154982956
 20
67.3676904177
 30
0.0
 11
66.3763935963
 21
67.3676904177
 31
0.0
  0
LINE
  5
B6
330
1F
100
AcDbEntity
  8
0
  6
Continuous
 62
     7
370
    25
100
AcDbLine
 10
32.9154982956
 20
60.3676904177
 30
0.0
 11
66.3763935963
 21
60.3676904177
 31
0.0
  0
LINE
  5
B7
330
1F
100
AcDbEntity
  8
0
  6
Continuous
 62
     7
370
    25
100
AcDbLine
 10
58.1459459459
 20
60.3676904177
 30
0.0
 11
58.1459459459
 21
60.3576904177
 31
0.0
  0
LINE
  5
B8
330
1F
100
AcDbEntity
  8
0
  6
Continuous
 62
     7
370
    25
100
AcDbLine
 10
58.1459459459
 20
60.3576904177
 30
0.0
 11
56.7059459459
 21
60.3576904177
 31
0.0
  0
LINE
  5
B9
330
1F
100
AcDbEntity
  8
0
  6
Continuous
 62
     7
370
    25
100
AcDbLine
 10
56.7059459459
 20
60.3676904177
 30
0.0
 11
56.7059459459
 21
60.3576904177
 31
0.0
  0
LINE
  5
BA
330
1F
100
AcDbEntity
  8
0
  6
Continuous
 62
     7
370
    25
100
AcDbLine
 10
58.1459459459
 20
74.3776904177
 30
0.0
 11
58.1459459459
 21
74.3676904177
 31
0.0
  0
LINE
  5
BB
330
1F
100
AcDbEntity
  8
0
  6
Continuous
 62
     7
370
    25
100
AcDbLine
 10
58.1459459459
 20
74.3776904177
 30
0.0
 11
56.7059459459
 21
74.3776904177
 31
0.0
  0
LINE
  5
BC
330
1F
100
AcDbEntity
  8
0
  6
Continuous
 62
     7
370
    25
100
AcDbLine
 10
56.7059459459
 20
74.3776904177
 30
0.0
 11
56.7059459459
 21
74.3676904177
 31
0.0
  0
LINE
  5
BD
330
1F
100
AcDbEntity
  8
0
  6
Continuous
 62
     7
370
    25
100
AcDbLine
 10
53.8259459459
 20
60.3676904177
 30
0.0
 11
53.8259459459
 21
60.3576904177
 31
0.0
  0
LINE
  5
BE
330
1F
100
AcDbEntity
  8
0
  6
Continuous
 62
     7
370
    25
100
AcDbLine
 10
56.7059459459
 20
60.3576904177
 30
0.0
 11
53.8259459459
 21
60.3576904177
 31
0.0
  0
LINE
  5
BF
330
1F
100
AcDbEntity
  8
0
  6
Continuous
 62
     7
370
    25
100
AcDbLine
 10
53.8259459459
 20
74.3776904177
 30
0.0
 11
53.8259459459
 21
74.3676904177
 31
0.0
  0
LINE
  5
C0
330
1F
100
AcDbEntity
  8
0
  6
Continuous
 62
     7
370
    25
100
AcDbLine
 10
56.7059459459
 20
74.3776904177
 30
0.0
 11
53.8259459459
 21
74.3776904177
 31
0.0
  0
MTEXT
  5
C2
330
1F
100
AcDbEntity
  8
0
  6
Continuous
 62
     7
370
     0
100
AcDbMText
 10
69.7765356265
 20
55.1244709108
 30
0.0
 40
1.75
 41
0.0
 71
     1
 72
     1
  1
AS-1011R
  7
SLDTEXTSTYLE0
 73
     1
 44
1.0
  0
SPLINE
  5
C3
330
1F
100
AcDbEntity
  8
0
  6
Continuous
 62
     7
370
    25
100
AcDbSpline
210
0.0
220
0.0
230
1.0
 70
     8
 71
     3
 72
     9
 73
     5
 74
     0
 42
0.000000001
 43
0.00000001
 40
0.0
 40
0.0
 40
0.0
 40
0.0
 40
0.7624677835377903
 40
1.0
 40
1.0
 40
1.0
 40
1.0
 10
89.38068422440058
 20
38.85357412263091
 30
0.0
 10
89.40312584441958
 20
38.86429793459423
 30
0.0
 10
89.4325587208027
 20
38.87836254452904
 30
0.0
 10
89.45798351273777
 20
38.89856035856004
 30
0.0
 10
89.4640227199192
 20
38.90335799009451
 30
0.0
  0
SPLINE
  5
C4
330
1F
100
AcDbEntity
  8
0
  6
Continuous
 62
     7
370
    25
100
AcDbSpline
210
0.0
220
0.0
230
1.0
 70
     8
 71
     3
 72
    17
 73
    13
 74
     0
 42
0.000000001
 43
0.00000001
 40
0.0
 40
0.0
 40
0.0
 40
0.0
 40
0.0657606050989949
 40
0.1716541102809249
 40
0.2802679013940439
 40
0.3904932494744266
 40
0.5011233237888582
 40
0.6109250361690897
 40
0.7187259723629078
 40
0.823503470127818
 40
0.9288368930973258
 40
1.0
 40
1.0
 40
1.0
 40
1.0
 10
89.58451608886787
 20
41.79533169533167
 30
0.0
 10
89.54303481662801
 20
41.828999357751
 30
0.0
 10
89.43475675457341
 20
41.91688164881459
 30
0.0
 10
89.23383633175003
 20
42.02637562939267
 30
0.0
 10
88.9881893954539
 20
42.1231953956167
 30
0.0
 10
88.726344154978
 20
42.18221103462708
 30
0.0
 10
88.45787108913507
 20
42.20204746461564
 30
0.0
 10
88.191416639789
 20
42.18173202891943
 30
0.0
 10
87.93524320801419
 20
42.123939974751
 30
0.0
 10
87.69435922327021
 20
42.0301913843588
 30
0.0
 10
87.4920062271494
 20
41.92162277016945
 30
0.0
 10
87.38038589249642
 20
41.83162047204382
 30
0.0
 10
87.33538075945967
 20
41.79533169533167
 30
0.0
  0
SPLINE
  5
C5
330
1F
100
AcDbEntity
  8
0
  6
Continuous
 62
     7
370
    25
100
AcDbSpline
210
0.0
220
0.0
230
1.0
 70
     8
 71
     3
 72
    10
 73
     6
 74
     0
 42
0.000000001
 43
0.00000001
 40
0.0
 40
0.0
 40
0.0
 40
0.0
 40
0.3513585137550171
 40
0.9851507894079264
 40
1.0
 40
1.0
 40
1.0
 40
1.0
 10
87.45786566696347
 20
38.90529546293284
 30
0.0
 10
87.49779778520784
 20
38.8781222917338
 30
0.0
 10
87.60976079811665
 20
38.80193324263021
 30
0.0
 10
87.73427338305163
 20
38.73883333941919
 30
0.0
 10
87.81977646290899
 20
38.7132880189059
 30
0.0
 10
87.82173386659963
 20
38.71270321535573
 30
0.0
  0
SPLINE
  5
C6
330
1F
100
AcDbEntity
  8
0
  6
Continuous
 62
     7
370
    25
100
AcDbSpline
210
0.0
220
0.0
230
1.0
 70
     8
 71
     3
 72
    12
 73
     8
 74
     0
 42
0.000000001
 43
0.00000001
 40
0.0
 40
0.0
 40
0.0
 40
0.0
 40
0.049472102848024
 40
0.3588290106053708
 40
0.6675029532276856
 40
0.9721568904909857
 40
1.0
 40
1.0
 40
1.0
 40
1.0
 10
88.0301341351783
 20
38.65012793252631
 30
0.0
 10
88.04383893059521
 20
38.64587815125934
 30
0.0
 10
88.14324198599196
 20
38.61505381351083
 30
0.0
 10
88.33785634739513
 20
38.59435056916588
 30
0.0
 10
88.6046537697299
 20
38.59642735674176
 30
0.0
 10
88.79145916378359
 20
38.61790038099579
 30
0.0
 10
88.88341069276215
 20
38.646956515124
 30
0.0
 10
88.89111066037306
 20
38.64938965891367
 30
0.0
  0
SPLINE
  5
C7
330
1F
100
AcDbEntity
  8
0
  6
Continuous
 62
     7
370
    25
100
AcDbSpline
210
0.0
220
0.0
230
1.0
 70
     8
 71
     3
 72
    10
 73
     6
 74
     0
 42
0.000000001
 43
0.00000001
 40
0.0
 40
0.0
 40
0.0
 40
0.0
 40
0.0444971960406255
 40
0.8114723253365758
 40
1.0
 40
1.0
 40
1.0
 40
1.0
 10
89.10109343797468
 20
38.71450336011982
 30
0.0
 10
89.1057865597397
 20
38.71594369371732
 30
0.0
 10
89.1913725914589
 20
38.74221031178823
 30
0.0
 10
89.29205952183287
 20
38.79148919249064
 30
0.0
 10
89.37928589162027
 20
38.85060443673494
 30
0.0
 10
89.39649629079146
 20
38.86226830573497
 30
0.0
  0
SPLINE
  5
C8
330
1F
100
AcDbEntity
  8
0
  6
Continuous
 62
     7
370
    25
100
AcDbSpline
210
0.0
220
0.0
230
1.0
 70
     8
 71
     3
 72
    12
 73
     8
 74
     0
 42
0.000000001
 43
0.00000001
 40
0.0
 40
0.0
 40
0.0
 40
0.0
 40
0.1188240306979716
 40
0.3487789641267827
 40
0.58202896522409
 40
0.8160127683490087
 40
1.0
 40
1.0
 40
1.0
 40
1.0
 10
88.95703311683273
 20
38.8788636821857
 30
0.0
 10
88.91871790940526
 20
38.86557855405577
 30
0.0
 10
88.80625296205109
 20
38.82658330031602
 30
0.0
 10
88.60854590376047
 20
38.79725281075455
 30
0.0
 10
88.37074752445577
 20
38.79222294433968
 30
0.0
 10
88.14881998582992
 20
38.81867213169211
 30
0.0
 10
88.01281781076956
 20
38.86180826173424
 30
0.0
 10
87.9529508305103
 20
38.88079641280275
 30
0.0
  0
SPLINE
  5
C9
330
1F
100
AcDbEntity
  8
0
  6
Continuous
 62
     7
370
    25
100
AcDbSpline
210
0.0
220
0.0
230
1.0
 70
     8
 71
     3
 72
    15
 73
    11
 74
     0
 42
0.000000001
 43
0.00000001
 40
0.0
 40
0.0
 40
0.0
 40
0.0
 40
0.0517493049196869
 40
0.1931269895402395
 40
0.3385687092704223
 40
0.4868047807024846
 40
0.6362473285432737
 40
0.7852355827158147
 40
0.9321606131376861
 40
1.0
 40
1.0
 40
1.0
 40
1.0
 10
87.69306986971891
 20
41.79533169533167
 30
0.0
 10
87.71682210470783
 20
41.80948693800068
 30
0.0
 10
87.80546479556872
 20
41.86231391620108
 30
0.0
 10
87.97646432997297
 20
41.92494059072104
 30
0.0
 10
88.20228832958017
 20
41.98070530961061
 30
0.0
 10
88.43895833139035
 20
42.00096964606983
 30
0.0
 10
88.67793580244266
 20
41.98674534721047
 30
0.0
 10
88.91053607126192
 20
41.93544411492258
 30
0.0
 10
89.09515987117008
 20
41.87094947956555
 30
0.0
 10
89.19451172812957
 20
41.81348383639646
 30
0.0
 10
89.2258948089257
 20
41.79533169533168
 30
0.0
  0
LINE
  5
CA
330
1F
100
AcDbEntity
  8
0
  6
Continuous
 62
     7
370
    25
100
AcDbLine
 10
85.844432269
 20
38.9953316953
 30
0.0
 11
87.2065567472
 21
38.9953316953
 31
0.0
  0
LINE
  5
CB
330
1F
100
AcDbEntity
  8
0
  6
Continuous
 62
     7
370
    25
100
AcDbLine
 10
87.8686887338
 20
38.9953316953
 30
0.0
 11
89.0509672859
 21
38.9953316953
 31
0.0
  0
LINE
  5
CC
330
1F
100
AcDbEntity
  8
0
  6
Continuous
 62
     7
370
    25
100
AcDbLine
 10
89.7130992725
 20
38.9953316953
 30
0.0
 11
91.0752237507
 21
38.9953316953
 31
0.0
  0
LINE
  5
CD
330
1F
100
AcDbEntity
  8
0
  6
Continuous
 62
     7
370
    25
100
AcDbLine
 10
90.9678953651
 20
41.7953316953
 30
0.0
 11
85.9517606545
 21
41.7953316953
 31
0.0
  0
CIRCLE
  5
CE
330
1F
100
AcDbEntity
  8
0
  6
Continuous
 62
     7
370
    25
100
AcDbCircle
 10
88.4598280098
 20
40.3953316953
 30
0.0
 40
0.8500000000000014
  0
ARC
  5
CF
330
1F
100
AcDbEntity
  8
0
  6
Continuous
 62
     7
370
    25
100
AcDbCircle
 10
88.4598280098
 20
40.3953316953
 30
0.0
 40
2.227627876995033
100
AcDbArc
 50
38.9374214514
 51
141.0625785486
  0
LWPOLYLINE
  5
D0
330
1F
100
AcDbEntity
  8
0
  6
Continuous
 62
     7
370
    25
100
AcDbPolyline
 90
        3
 70
   128
 43
0.0
 10
90.1925501336
 20
38.9953316953
 10
90.041122979
 20
38.8263090127
 10
89.9943431105
 20
38.7805284986
  0
ARC
  5
D1
330
1F
100
AcDbEntity
  8
0
  6
Continuous
 62
     7
370
    25
100
AcDbCircle
 10
88.4598280098
 20
40.3953316953
 30
0.0
 40
2.227627876995035
100
AcDbArc
 50
292.1519905411
 51
302.7645722923
  0
ARC
  5
D2
330
1F
100
AcDbEntity
  8
0
  6
Continuous
 62
     7
370
    25
100
AcDbCircle
 10
88.4598280098
 20
40.3953316953
 30
0.0
 40
2.227627876995037
100
AcDbArc
 50
257.0192307692
 51
282.9807692308
  0
ARC
  5
D3
330
1F
100
AcDbEntity
  8
0
  6
Continuous
 62
     7
370
    25
100
AcDbCircle
 10
88.4598280098
 20
40.3953316953
 30
0.0
 40
2.227627876995036
100
AcDbArc
 50
237.2354277077
 51
247.8480094589
  0
LWPOLYLINE
  5
D4
330
1F
100
AcDbEntity
  8
0
  6
Continuous
 62
     7
370
    25
100
AcDbPolyline
 90
        3
 70
   128
 43
0.0
 10
86.9253129092
 20
38.7805284986
 10
86.8908053272
 20
38.8140367261
 10
86.727105886
 20
38.9953316953
  0
ARC
  5
D5
330
1F
100
AcDbEntity
  8
0
  6
Continuous
 62
     7
370
    25
100
AcDbCircle
 10
88.4598280098
 20
40.3953316953
 30
0.0
 40
2.300000000000007
100
AcDbArc
 50
37.4952497646
 51
142.5047502354
  0
ARC
  5
D6
330
1F
100
AcDbEntity
  8
0
  6
Continuous
 62
     7
370
    25
100
AcDbCircle
 10
88.4598280098
 20
40.3953316953
 30
0.0
 40
2.299999999999994
100
AcDbArc
 50
314.2820700178
 51
322.5047502354
  0
ARC
  5
D7
330
1F
100
AcDbEntity
  8
0
  6
Continuous
 62
     7
370
    25
100
AcDbCircle
 10
88.4598280098
 20
40.3953316953
 30
0.0
 40
2.300000000000007
100
AcDbArc
 50
257.0192307692
 51
282.9807692308
  0
ARC
  5
D8
330
1F
100
AcDbEntity
  8
0
  6
Continuous
 62
     7
370
    25
100
AcDbCircle
 10
88.4598280098
 20
40.3953316953
 30
0.0
 40
2.300000000000006
100
AcDbArc
 50
217.4952497646
 51
225.7179299822
  0
ARC
  5
D9
330
1F
100
AcDbEntity
  8
0
  6
Continuous
 62
     7
370
    25
100
AcDbCircle
 10
89.5981906177
 20
39.0087621616
 30
0.0
 40
0.4687390184264301
100
AcDbArc
 50
202.6377294839
 51
212.6191915963
  0
SPLINE
  5
DA
330
1F
100
AcDbEntity
  8
0
  6
Continuous
 62
     7
370
    25
100
AcDbSpline
210
0.0
220
0.0
230
1.0
 70
     8
 71
     3
 72
     9
 73
     5
 74
     0
 42
0.000000001
 43
0.00000001
 40
0.0
 40
0.0
 40
0.0
 40
0.0
 40
0.6729172976451764
 40
1.0
 40
1.0
 40
1.0
 40
1.0
 10
89.20338492114954
 20
38.75608701572278
 30
0.0
 10
89.26384609778937
 20
38.78489626763966
 30
0.0
 10
89.35369544012518
 20
38.82770873808393
 30
0.0
 10
89.43472261967968
 20
38.88521142187056
 30
0.0
 10
89.46122520853255
 20
38.90401955507614
 30
0.0
  0
LINE
  5
DB
330
1F
100
AcDbEntity
  8
0
  6
Continuous
 62
     7
370
    25
100
AcDbLine
 10
89.1690083879
 20
38.8318734799
 30
0.0
 11
89.2033849211
 21
38.7560870157
 31
0.0
  0
CIRCLE
  5
DC
330
1F
100
AcDbEntity
  8
0
  6
Continuous
 62
     7
370
    25
100
AcDbCircle
 10
88.4598280098
 20
40.3953316953
 30
0.0
 40
0.4999999999999968
  0
CIRCLE
  5
DD
330
1F
100
AcDbEntity
  8
0
  6
Continuous
 62
     7
370
    25
100
AcDbCircle
 10
88.4598280098
 20
40.3953316953
 30
0.0
 40
0.7499999999999969
  0
ARC
  5
DE
330
1F
100
AcDbEntity
  8
0
  6
Continuous
 62
     7
370
    25
100
AcDbCircle
 10
88.4598280098
 20
40.3953316953
 30
0.0
 40
2.200000000000006
100
AcDbArc
 50
257.0192307692
 51
282.9807692308
  0
ARC
  5
DF
330
1F
100
AcDbEntity
  8
0
  6
Continuous
 62
     7
370
    25
100
AcDbCircle
 10
88.4598280098
 20
40.3953316953
 30
0.0
 40
2.200000000000005
100
AcDbArc
 50
291.3476351678
 51
303.5689276656
  0
LWPOLYLINE
  5
E0
330
1F
100
AcDbEntity
  8
0
  6
Continuous
 62
     7
370
    25
100
AcDbPolyline
 90
        3
 70
   128
 43
0.0
 10
89.9683889619
 20
38.7940060401
 10
90.0114791374
 20
38.8357231616
 10
90.1568842847
 20
38.9953316953
  0
ARC
  5
E1
330
1F
100
AcDbEntity
  8
0
  6
Continuous
 62
     7
370
    25
100
AcDbCircle
 10
88.4598280098
 20
40.3953316953
 30
0.0
 40
2.200000000000001
100
AcDbArc
 50
39.5211963586
 51
140.4788036414
  0
LWPOLYLINE
  5
E2
330
1F
100
AcDbEntity
  8
0
  6
Continuous
 62
     7
370
    25
100
AcDbPolyline
 90
        3
 70
   128
 43
0.0
 10
86.762771735
 20
38.9953316953
 10
86.8565464672
 20
38.8888496028
 10
86.9512670578
 20
38.7940060401
  0
LWPOLYLINE
  5
E3
330
1F
100
AcDbEntity
  8
0
  6
Continuous
 62
     7
370
    25
100
AcDbPolyline
 90
        3
 70
   128
 43
0.0
 10
87.2433605321
 20
38.5622449882
 10
87.4560387187
 20
38.437678238
 10
87.6589714608
 20
38.3462761109
  0
LINE
  5
E4
330
1F
100
AcDbEntity
  8
0
  6
Continuous
 62
     7
370
    25
100
AcDbLine
 10
89.1786248222
 20
37.2771060552
 30
0.0
 11
88.8948105229
 21
38.5083260744
 31
0.0
  0
ARC
  5
E5
330
1F
100
AcDbEntity
  8
0
  6
Continuous
 62
     7
370
    25
100
AcDbCircle
 10
89.3820332792
 20
38.6206380764
 30
0.0
 40
0.5
100
AcDbArc
 50
43.587901362
 51
192.9807692308
  0
ARC
  5
E6
330
1F
100
AcDbEntity
  8
0
  6
Continuous
 62
     7
370
    25
100
AcDbCircle
 10
90.3960777317
 20
39.5858913324
 30
0.0
 40
0.9000000000000009
100
AcDbArc
 50
223.587901362
 51
341.1015410482
  0
ARC
  5
E7
330
1F
100
AcDbEntity
  8
0
  6
Continuous
 62
     7
370
    25
100
AcDbCircle
 10
88.4598280098
 20
40.2487596029
 30
0.0
 40
2.946572092424948
100
AcDbArc
 50
341.1015410482
 51
198.8984589518
  0
ARC
  5
E8
330
1F
100
AcDbEntity
  8
0
  6
Continuous
 62
     7
370
    25
100
AcDbCircle
 10
86.523578288
 20
39.5858913324
 30
0.0
 40
0.9000000000000032
100
AcDbArc
 50
198.8984589518
 51
316.412098638
  0
ARC
  5
E9
330
1F
100
AcDbEntity
  8
0
  6
Continuous
 62
     7
370
    25
100
AcDbCircle
 10
87.5376227405
 20
38.6206380764
 30
0.0
 40
0.5
100
AcDbArc
 50
347.0192307692
 51
136.412098638
  0
LINE
  5
EA
330
1F
100
AcDbEntity
  8
0
  6
Continuous
 62
     7
370
    25
100
AcDbLine
 10
88.0248454967
 20
38.5083260744
 30
0.0
 11
87.7410311974
 21
37.2771060552
 31
0.0
  0
CIRCLE
  5
EB
330
1F
100
AcDbEntity
  8
0
  6
Continuous
 62
     7
370
    25
100
AcDbCircle
 10
87.5376227405
 20
38.6206380764
 30
0.0
 40
0.3000000000000114
  0
CIRCLE
  5
EC
330
1F
100
AcDbEntity
  8
0
  6
Continuous
 62
     7
370
    25
100
AcDbCircle
 10
89.3820332792
 20
38.6206380764
 30
0.0
 40
0.2999999999999972
  0
SPLINE
  5
ED
330
1F
100
AcDbEntity
  8
0
  6
Continuous
 62
     7
370
    25
100
AcDbSpline
210
0.0
220
0.0
230
1.0
 70
    24
 71
     3
 72
    16
 73
    12
 74
     0
 42
0.000000001
 43
0.00000001
 40
0.0
 40
0.0
 40
0.0
 40
0.0
 40
0.2500000000000001
 40
0.2500000000000001
 40
0.5000000000000001
 40
0.5000000000000001
 40
0.625
 40
0.625
 40
0.7499999999999999
 40
0.7499999999999999
 40
1.0
 40
1.0
 40
1.0
 40
1.0
 10
88.45982800982792
 20
48.47823546398648
 30
0.0
 10
89.03131142278225
 20
48.14828936167988
 30
0.0
 10
89.60696152471466
 20
47.81593762037017
 30
0.0
 10
90.77026763214307
 20
47.14430252609644
 30
0.0
 10
91.35801289161401
 20
46.80496764232596
 30
0.0
 10
92.25070454479987
 20
46.28957187605577
 30
0.0
 10
92.5496682237166
 20
46.11696511555528
 30
0.0
 10
93.14104997365112
 20
45.77553070303675
 30
0.0
 10
93.43475816397032
 20
45.60595820029276
 30
0.0
 10
94.31065365850485
 20
45.10025970074128
 30
0.0
 10
94.88763226141702
 20
44.76714094903327
 30
0.0
 10
95.45982800982803
 20
44.43678357965902
 30
0.0
  0
SPLINE
  5
EE
330
1F
100
AcDbEntity
  8
0
  6
Continuous
 62
     7
370
    25
100
AcDbSpline
210
0.0
220
0.0
230
1.0
 70
    24
 71
     3
 72
    14
 73
    10
 74
     0
 42
0.000000001
 43
0.00000001
 40
0.0
 40
0.0
 40
0.0
 40
0.0
 40
0.25
 40
0.25
 40
0.5
 40
0.5
 40
0.75
 40
0.75
 40
1.0
 40
1.0
 40
1.0
 40
1.0
 10
95.45982800982797
 20
36.35387981100425
 30
0.0
 10
95.45982800982797
 20
37.01194852033733
 30
0.0
 10
95.45982800982797
 20
37.68518319912747
 30
0.0
 10
95.45982800982797
 20
39.0342799409774
 30
0.0
 10
95.45982800982797
 20
39.71304273774797
 30
0.0
 10
95.45982800982799
 20
41.08048550122306
 30
0.0
 10
95.45982800982799
 20
41.77311492704791
 30
0.0
 10
95.45982800982799
 20
43.12167935323946
 30
0.0
 10
95.45982800982799
 20
43.7834082884921
 30
0.0
 10
95.459828009828
 20
44.43678357965904
 30
0.0
  0
SPLINE
  5
EF
330
1F
100
AcDbEntity
  8
0
  6
Continuous
 62
     7
370
    25
100
AcDbSpline
210
0.0
220
0.0
230
1.0
 70
    24
 71
     3
 72
    16
 73
    12
 74
     0
 42
0.000000001
 43
0.00000001
 40
0.0
 40
0.0
 40
0.0
 40
0.0
 40
0.2500000000000001
 40
0.2500000000000001
 40
0.5000000000000001
 40
0.5000000000000001
 40
0.6250000000000001
 40
0.6250000000000001
 40
0.7500000000000002
 40
0.7500000000000002
 40
1.0
 40
1.0
 40
1.0
 40
1.0
 10
95.45982800982803
 20
36.3538798110043
 30
0.0
 10
94.88834459687368
 20
36.0239337086977
 30
0.0
 10
94.31269449494127
 20
35.691581967388
 30
0.0
 10
93.14938838751286
 20
35.01994687311427
 30
0.0
 10
92.56164312804191
 20
34.6806119893438
 30
0.0
 10
91.66895147485604
 20
34.16521622307361
 30
0.0
 10
91.36998779593932
 20
33.99260946257314
 30
0.0
 10
90.7786060460048
 20
33.6511750500546
 30
0.0
 10
90.4848978556856
 20
33.48160254731062
 30
0.0
 10
89.60900236115107
 20
32.97590404775914
 30
0.0
 10
89.03202375823889
 20
32.64278529605114
 30
0.0
 10
88.45982800982787
 20
32.31242792667688
 30
0.0
  0
SPLINE
  5
F0
330
1F
100
AcDbEntity
  8
0
  6
Continuous
 62
     7
370
    25
100
AcDbSpline
210
0.0
220
0.0
230
1.0
 70
    24
 71
     3
 72
    16
 73
    12
 74
     0
 42
0.000000001
 43
0.00000001
 40
0.0
 40
0.0
 40
0.0
 40
0.0
 40
0.25
 40
0.25
 40
0.5
 40
0.5
 40
0.625
 40
0.625
 40
0.75
 40
0.75
 40
1.0
 40
1.0
 40
1.0
 40
1.0
 10
88.45982800982797
 20
32.31242792667688
 30
0.0
 10
87.88834459687364
 20
32.64237402898348
 30
0.0
 10
87.31269449494124
 20
32.97472577029318
 30
0.0
 10
86.14938838751281
 20
33.64636086456693
 30
0.0
 10
85.56164312804191
 20
33.9856957483374
 30
0.0
 10
84.66895147485603
 20
34.5010915146076
 30
0.0
 10
84.36998779593932
 20
34.67369827510809
 30
0.0
 10
83.77860604600478
 20
35.01513268762663
 30
0.0
 10
83.48489785568559
 20
35.18470519037062
 30
0.0
 10
82.60900236115108
 20
35.69040368992211
 30
0.0
 10
82.03202375823889
 20
36.02352244163012
 30
0.0
 10
81.4598280098279
 20
36.35387981100438
 30
0.0
  0
SPLINE
  5
F1
330
1F
100
AcDbEntity
  8
0
  6
Continuous
 62
     7
370
    25
100
AcDbSpline
210
0.0
220
0.0
230
1.0
 70
    24
 71
     3
 72
    14
 73
    10
 74
     0
 42
0.000000001
 43
0.00000001
 40
0.0
 40
0.0
 40
0.0
 40
0.0
 40
0.2500000000000001
 40
0.2500000000000001
 40
0.5
 40
0.5
 40
0.7499999999999999
 40
0.7499999999999999
 40
1.0
 40
1.0
 40
1.0
 40
1.0
 10
81.45982800982793
 20
36.35387981100435
 30
0.0
 10
81.45982800982794
 20
37.01194852033724
 30
0.0
 10
81.45982800982794
 20
37.68518319912734
 30
0.0
 10
81.45982800982796
 20
39.03427994097887
 30
0.0
 10
81.45982800982797
 20
39.71304273775069
 30
0.0
 10
81.45982800982799
 20
41.08048550122938
 30
0.0
 10
81.459828009828
 20
41.77311492705348
 30
0.0
 10
81.45982800982802
 20
43.12167935324103
 30
0.0
 10
81.45982800982802
 20
43.78340828849264
 30
0.0
 10
81.45982800982802
 20
44.43678357965914
 30
0.0
  0
SPLINE
  5
F2
330
1F
100
AcDbEntity
  8
0
  6
Continuous
 62
     7
370
    25
100
AcDbSpline
210
0.0
220
0.0
230
1.0
 70
    24
 71
     3
 72
    16
 73
    12
 74
     0
 42
0.000000001
 43
0.00000001
 40
0.0
 40
0.0
 40
0.0
 40
0.0
 40
0.2500000000000002
 40
0.2500000000000002
 40
0.5000000000000004
 40
0.5000000000000004
 40
0.6250000000000004
 40
0.6250000000000004
 40
0.7500000000000004
 40
0.7500000000000004
 40
1.0
 40
1.0
 40
1.0
 40
1.0
 10
81.45982800982796
 20
44.43678357965911
 30
0.0
 10
82.03131142278231
 20
44.7667296819657
 30
0.0
 10
82.60696152471469
 20
45.09908142327539
 30
0.0
 10
83.7702676321431
 20
45.77071651754911
 30
0.0
 10
84.35801289161402
 20
46.11005140131957
 30
0.0
 10
85.25070454479989
 20
46.62544716758975
 30
0.0
 10
85.5496682237166
 20
46.79805392809023
 30
0.0
 10
86.14104997365114
 20
47.13948834060876
 30
0.0
 10
86.43475816397033
 20
47.30906084335274
 30
0.0
 10
87.31065365850483
 20
47.81475934290422
 30
0.0
 10
87.88763226141702
 20
48.14787809461222
 30
0.0
 10
88.45982800982802
 20
48.47823546398646
 30
0.0
  0
CIRCLE
  5
F3
330
1F
100
AcDbEntity
  8
0
  6
Continuous
 62
     7
370
    25
100
AcDbCircle
 10
88.4598280098
 20
40.3953316953
 30
0.0
 40
6.75
  0
CIRCLE
  5
F4
330
1F
100
AcDbEntity
  8
0
  6
Continuous
 62
     7
370
    25
100
AcDbCircle
 10
88.4598280098
 20
40.3953316953
 30
0.0
 40
5.0
  0
CIRCLE
  5
F5
330
1F
100
AcDbEntity
  8
0
  6
Continuous
 62
     7
370
    25
100
AcDbCircle
 10
88.4598280098
 20
40.3953316953
 30
0.0
 40
4.592230000000001
  0
CIRCLE
  5
F6
330
1F
100
AcDbEntity
  8
0
  6
Continuous
 62
     7
370
    25
100
AcDbCircle
 10
88.4598280098
 20
40.3953316953
 30
0.0
 40
4.390003058483245
  0
CIRCLE
  5
F7
330
1F
100
AcDbEntity
  8
0
  6
Continuous
 62
     7
370
    25
100
AcDbCircle
 10
88.4598280098
 20
40.3953316953
 30
0.0
 40
3.949999999999989
  0
CIRCLE
  5
F8
330
1F
100
AcDbEntity
  8
0
  6
Continuous
 62
     7
370
    25
100
AcDbCircle
 10
88.4598280098
 20
40.3953316953
 30
0.0
 40
3.199999999999989
  0
ENDSEC
  0
SECTION
  2
OBJECTS
  0
DICTIONARY
  5
C
330
0
100
AcDbDictionary
281
     1
  3
ACAD_GROUP
350
D
  3
ACAD_LAYOUT
350
1A
  3
ACAD_MLINESTYLE
350
17
  3
ACAD_PLOTSETTINGS
350
19
  3
ACAD_PLOTSTYLENAME
350
E
  3
ACAD_SCALELIST
350
47
  0
DICTIONARY
  5
D
102
{ACAD_REACTORS
330
C
102
}
330
C
100
AcDbDictionary
281
     1
  0
DICTIONARY
  5
1A
102
{ACAD_REACTORS
330
C
102
}
330
C
100
AcDbDictionary
281
     1
  3
Layout1
350
1E
  3
Layout2
350
26
  3
Model
350
22
  0
DICTIONARY
  5
17
102
{ACAD_REACTORS
330
C
102
}
330
C
100
AcDbDictionary
281
     1
  3
Standard
350
18
  0
DICTIONARY
  5
19
102
{ACAD_REACTORS
330
C
102
}
330
C
100
AcDbDictionary
281
     1
  0
ACDBDICTIONARYWDFLT
  5
E
102
{ACAD_REACTORS
330
C
102
}
330
C
100
AcDbDictionary
281
     1
  3
Normal
350
F
100
AcDbDictionaryWithDefault
340
F
  0
DICTIONARY
  5
47
102
{ACAD_REACTORS
330
C
102
}
330
C
100
AcDbDictionary
281
     1
  3
A0
350
48
  3
A1
350
49
  3
A2
350
4A
  3
A3
350
4B
  3
A4
350
4C
  3
A5
350
4D
  3
A6
350
4E
  3
A7
350
4F
  3
A8
350
50
  3
A9
350
51
  3
B0
350
52
  3
B1
350
53
  3
B2
350
54
  3
B3
350
55
  3
B4
350
56
  3
B5
350
57
  3
B6
350
58
  3
B7
350
59
  3
B8
350
5A
  3
B9
350
5B
  3
C0
350
5C
  3
C1
350
5D
  3
C2
350
5E
  3
C3
350
5F
  3
C4
350
60
  3
C5
350
61
  3
C6
350
62
  3
C7
350
63
  3
C8
350
64
  3
C9
350
65
  3
D0
350
66
  3
D1
350
67
  3
D2
350
68
  0
LAYOUT
  5
1E
102
{ACAD_REACTORS
330
1A
102
}
330
1A
100
AcDbPlotSettings
  1

  2
none_device
  4

  6

 40
0.0
 41
0.0
 42
0.0
 43
0.0
 44
0.0
 45
0.0
 46
0.0
 47
0.0
 48
0.0
 49
0.0
140
0.0
141
0.0
142
1.0
143
1.0
 70
   688
 72
     1
 73
     0
 74
     5
  7

 75
    16
147
1.0
148
0.0
149
0.0
100
AcDbLayout
  1
Layout1
 70
     1
 71
     1
 10
0.0
 20
0.0
 11
420.0
 21
297.0
 12
0.0
 22
0.0
 32
0.0
 14
1.0000000000E+20
 24
1.0000000000E+20
 34
1.0000000000E+20
 15
-1.0000000000E+20
 25
-1.0000000000E+20
 35
-1.0000000000E+20
146
0.0
 13
0.0
 23
0.0
 33
0.0
 16
1.0
 26
0.0
 36
0.0
 17
0.0
 27
1.0
 37
0.0
 76
     0
330
1B
  0
LAYOUT
  5
26
102
{ACAD_REACTORS
330
1A
102
}
330
1A
100
AcDbPlotSettings
  1

  2
none_device
  4

  6

 40
0.0
 41
0.0
 42
0.0
 43
0.0
 44
0.0
 45
0.0
 46
0.0
 47
0.0
 48
0.0
 49
0.0
140
0.0
141
0.0
142
1.0
143
1.0
 70
   688
 72
     1
 73
     0
 74
     5
  7

 75
    16
147
1.0
148
0.0
149
0.0
100
AcDbLayout
  1
Layout2
 70
     1
 71
     2
 10
0.0
 20
0.0
 11
0.0
 21
0.0
 12
0.0
 22
0.0
 32
0.0
 14
0.0
 24
0.0
 34
0.0
 15
0.0
 25
0.0
 35
0.0
146
0.0
 13
0.0
 23
0.0
 33
0.0
 16
1.0
 26
0.0
 36
0.0
 17
0.0
 27
1.0
 37
0.0
 76
     0
330
23
  0
LAYOUT
  5
22
102
{ACAD_REACTORS
330
1A
102
}
330
1A
100
AcDbPlotSettings
  1

  2
none_device
  4
Letter_(8.50_x_11.00_Inches)
  6

 40
6.35
 41
6.35
 42
6.35000508
 43
6.35000508
 44
215.9
 45
279.4
 46
0.0
 47
0.0
 48
0.0
 49
0.0
140
0.0
141
0.0
142
1.0
143
1.0
 70
  1712
 72
     1
 73
     0
 74
     0
  7

 75
     0
147
1.0
148
0.0
149
0.0
100
AcDbLayout
  1
Model
 70
     1
 71
     0
 10
0.0
 20
0.0
 11
148.5
 21
105.0
 12
0.0
 22
0.0
 32
0.0
 14
0.0
 24
0.0
 34
0.0
 15
148.5
 25
105.0
 35
0.0
146
0.0
 13
0.0
 23
0.0
 33
0.0
 16
1.0
 26
0.0
 36
0.0
 17
0.0
 27
1.0
 37
0.0
 76
     0
330
1F
331
29
  0
MLINESTYLE
  5
18
102
{ACAD_REACTORS
330
17
102
}
330
17
100
AcDbMlineStyle
  2
Standard
 70
     0
  3

 62
   256
 51
90.0
 52
90.0
 71
     2
 49
0.5
 62
   256
  6
BYLAYER
 49
-0.5
 62
   256
  6
BYLAYER
  0
ACDBPLACEHOLDER
  5
F
102
{ACAD_REACTORS
330
E
102
}
330
E
  0
SCALE
  5
48
102
{ACAD_REACTORS
330
47
102
}
330
47
100
AcDbScale
 70
     0
300
1:1
140
1.0
141
1.0
290
     1
  0
SCALE
  5
49
102
{ACAD_REACTORS
330
47
102
}
330
47
100
AcDbScale
 70
     0
300
1:2
140
1.0
141
2.0
290
     0
  0
SCALE
  5
4A
102
{ACAD_REACTORS
330
47
102
}
330
47
100
AcDbScale
 70
     0
300
1:4
140
1.0
141
4.0
290
     0
  0
SCALE
  5
4B
102
{ACAD_REACTORS
330
47
102
}
330
47
100
AcDbScale
 70
     0
300
1:5
140
1.0
141
5.0
290
     0
  0
SCALE
  5
4C
102
{ACAD_REACTORS
330
47
102
}
330
47
100
AcDbScale
 70
     0
300
1:8
140
1.0
141
8.0
290
     0
  0
SCALE
  5
4D
102
{ACAD_REACTORS
330
47
102
}
330
47
100
AcDbScale
 70
     0
300
1:10
140
1.0
141
10.0
290
     0
  0
SCALE
  5
4E
102
{ACAD_REACTORS
330
47
102
}
330
47
100
AcDbScale
 70
     0
300
1:16
140
1.0
141
16.0
290
     0
  0
SCALE
  5
4F
102
{ACAD_REACTORS
330
47
102
}
330
47
100
AcDbScale
 70
     0
300
1:20
140
1.0
141
20.0
290
     0
  0
SCALE
  5
50
102
{ACAD_REACTORS
330
47
102
}
330
47
100
AcDbScale
 70
     0
300
1:30
140
1.0
141
30.0
290
     0
  0
SCALE
  5
51
102
{ACAD_REACTORS
330
47
102
}
330
47
100
AcDbScale
 70
     0
300
1:40
140
1.0
141
40.0
290
     0
  0
SCALE
  5
52
102
{ACAD_REACTORS
330
47
102
}
330
47
100
AcDbScale
 70
     0
300
1:50
140
1.0
141
50.0
290
     0
  0
SCALE
  5
53
102
{ACAD_REACTORS
330
47
102
}
330
47
100
AcDbScale
 70
     0
300
1:100
140
1.0
141
100.0
290
     0
  0
SCALE
  5
54
102
{ACAD_REACTORS
330
47
102
}
330
47
100
AcDbScale
 70
     0
300
2:1
140
2.0
141
1.0
290
     0
  0
SCALE
  5
55
102
{ACAD_REACTORS
330
47
102
}
330
47
100
AcDbScale
 70
     0
300
4:1
140
4.0
141
1.0
290
     0
  0
SCALE
  5
56
102
{ACAD_REACTORS
330
47
102
}
330
47
100
AcDbScale
 70
     0
300
8:1
140
8.0
141
1.0
290
     0
  0
SCALE
  5
57
102
{ACAD_REACTORS
330
47
102
}
330
47
100
AcDbScale
 70
     0
300
10:1
140
10.0
141
1.0
290
     0
  0
SCALE
  5
58
102
{ACAD_REACTORS
330
47
102
}
330
47
100
AcDbScale
 70
     0
300
100:1
140
100.0
141
1.0
290
     0
  0
SCALE
  5
59
102
{ACAD_REACTORS
330
47
102
}
330
47
100
AcDbScale
 70
     0
300
1/128" = 1'-0"
140
0.0078125
141
12.0
290
     0
  0
SCALE
  5
5A
102
{ACAD_REACTORS
330
47
102
}
330
47
100
AcDbScale
 70
     0
300
1/64" = 1'-0"
140
0.015625
141
12.0
290
     0
  0
SCALE
  5
5B
102
{ACAD_REACTORS
330
47
102
}
330
47
100
AcDbScale
 70
     0
300
1/32" = 1'-0"
140
0.03125
141
12.0
290
     0
  0
SCALE
  5
5C
102
{ACAD_REACTORS
330
47
102
}
330
47
100
AcDbScale
 70
     0
300
1/16" = 1'-0"
140
0.0625
141
12.0
290
     0
  0
SCALE
  5
5D
102
{ACAD_REACTORS
330
47
102
}
330
47
100
AcDbScale
 70
     0
300
3/32" = 1'-0"
140
0.09375
141
12.0
290
     0
  0
SCALE
  5
5E
102
{ACAD_REACTORS
330
47
102
}
330
47
100
AcDbScale
 70
     0
300
1/8" = 1'-0"
140
0.125
141
12.0
290
     0
  0
SCALE
  5
5F
102
{ACAD_REACTORS
330
47
102
}
330
47
100
AcDbScale
 70
     0
300
3/16" = 1'-0"
140
0.1875
141
12.0
290
     0
  0
SCALE
  5
60
102
{ACAD_REACTORS
330
47
102
}
330
47
100
AcDbScale
 70
     0
300
1/4" = 1'-0"
140
0.25
141
12.0
290
     0
  0
SCALE
  5
61
102
{ACAD_REACTORS
330
47
102
}
330
47
100
AcDbScale
 70
     0
300
3/8" = 1'-0"
140
0.375
141
12.0
290
     0
  0
SCALE
  5
62
102
{ACAD_REACTORS
330
47
102
}
330
47
100
AcDbScale
 70
     0
300
1/2" = 1'-0"
140
0.5
141
12.0
290
     0
  0
SCALE
  5
63
102
{ACAD_REACTORS
330
47
102
}
330
47
100
AcDbScale
 70
     0
300
3/4" = 1'-0"
140
0.75
141
12.0
290
     0
  0
SCALE
  5
64
102
{ACAD_REACTORS
330
47
102
}
330
47
100
AcDbScale
 70
     0
300
1" = 1'-0"
140
1.0
141
12.0
290
     0
  0
SCALE
  5
65
102
{ACAD_REACTORS
330
47
102
}
330
47
100
AcDbScale
 70
     0
300
1-1/2" = 1'-0"
140
1.5
141
12.0
290
     0
  0
SCALE
  5
66
102
{ACAD_REACTORS
330
47
102
}
330
47
100
AcDbScale
 70
     0
300
3" = 1'-0"
140
3.0
141
12.0
290
     0
  0
SCALE
  5
67
102
{ACAD_REACTORS
330
47
102
}
330
47
100
AcDbScale
 70
     0
300
6" = 1'-0"
140
6.0
141
12.0
290
     0
  0
SCALE
  5
68
102
{ACAD_REACTORS
330
47
102
}
330
47
100
AcDbScale
 70
     0
300
1'-0" = 1'-0"
140
12.0
141
12.0
290
     0
  0
ENDSEC
  0
EOF
