  0
SECTION
  2
HEADER
  9
$ACADVER
  1
AC1015
  9
$ACADMAINTVER
 70
     6
  9
$DWGCODEPAGE
  3
DOS932
  9
$INSBASE
 10
0.0
 20
0.0
 30
0.0
  9
$EXTMIN
 10
0.0
 20
0.0
 30
0.0
  9
$EXTMAX
 10
215.9
 20
139.7
 30
0.0
  9
$LIMMIN
 10
0.0
 20
0.0
  9
$LIMMAX
 10
215.9
 20
139.7
  9
$ORTHOMODE
 70
     0
  9
$REGENMODE
 70
     1
  9
$FILLMODE
 70
     1
  9
$QTEXTMODE
 70
     0
  9
$MIRRTEXT
 70
     1
  9
$LTSCALE
 40
0.5
  9
$ATTMODE
 70
     1
  9
$TEXTSIZE
 40
1.75
  9
$TRACEWID
 40
1.0
  9
$TEXTSTYLE
  7
Standard
  9
$CLAYER
  8
0
  9
$CELTYPE
  6
ByLayer
  9
$CECOLOR
 62
   256
  9
$CELTSCALE
 40
1.0
  9
$DISPSILH
 70
     0
  9
$DIMSCALE
 40
1.0
  9
$DIMASZ
 40
1.778
  9
$DIMEXO
 40
0.5
  9
$DIMDLI
 40
3.75
  9
$DIMRND
 40
0.0
  9
$DIMDLE
 40
0.0
  9
$DIMEXE
 40
0.5
  9
$DIMTP
 40
0.0
  9
$DIMTM
 40
0.0
  9
$DIMTXT
 40
1.75
  9
$DIMCEN
 40
2.5
  9
$DIMTSZ
 40
0.0
  9
$DIMTOL
 70
     0
  9
$DIMLIM
 70
     0
  9
$DIMTIH
 70
     1
  9
$DIMTOH
 70
     1
  9
$DIMSE1
 70
     0
  9
$DIMSE2
 70
     0
  9
$DIMTAD
 70
     1
  9
$DIMZIN
 70
     1
  9
$DIMBLK
  1

  9
$DIMASO
 70
     1
  9
$DIMSHO
 70
     1
  9
$DIMPOST
  1

  9
$DIMAPOST
  1

  9
$DIMALT
 70
     0
  9
$DIMALTD
 70
     3
  9
$DIMALTF
 40
0.0393700787
  9
$DIMLFAC
 40
1.0
  9
$DIMTOFL
 70
     1
  9
$DIMTVP
 40
0.0
  9
$DIMTIX
 70
     0
  9
$DIMSOXD
 70
     0
  9
$DIMSAH
 70
     0
  9
$DIMBLK1
  1

  9
$DIMBLK2
  1

  9
$DIMSTYLE
  2
ISO-25
  9
$DIMCLRD
 70
     0
  9
$DIMCLRE
 70
     0
  9
$DIMCLRT
 70
     0
  9
$DIMTFAC
 40
1.0
  9
$DIMGAP
 40
0.762
  9
$DIMJUST
 70
     0
  9
$DIMSD1
 70
     0
  9
$DIMSD2
 70
     0
  9
$DIMTOLJ
 70
     0
  9
$DIMTZIN
 70
     1
  9
$DIMALTZ
 70
     0
  9
$DIMALTTZ
 70
     0
  9
$DIMUPT
 70
     0
  9
$DIMDEC
 70
     2
  9
$DIMTDEC
 70
     2
  9
$DIMALTU
 70
     2
  9
$DIMALTTD
 70
     3
  9
$DIMTXSTY
  7
Standard
  9
$DIMAUNIT
 70
     0
  9
$DIMADEC
 70
     2
  9
$DIMALTRND
 40
0.0
  9
$DIMAZIN
 70
     0
  9
$DIMDSEP
 70
    44
  9
$DIMATFIT
 70
     3
  9
$DIMFRAC
 70
     0
  9
$DIMLDRBLK
  1

  9
$DIMLUNIT
 70
     2
  9
$DIMLWD
 70
    -2
  9
$DIMLWE
 70
    -2
  9
$DIMTMOVE
 70
     0
  9
$LUNITS
 70
     2
  9
$LUPREC
 70
     2
  9
$SKETCHINC
 40
1.0
  9
$FILLETRAD
 40
10.0
  9
$AUNITS
 70
     0
  9
$AUPREC
 70
     2
  9
$MENU
  1
.
  9
$ELEVATION
 40
0.0
  9
$PELEVATION
 40
0.0
  9
$THICKNESS
 40
0.0
  9
$LIMCHECK
 70
     0
  9
$CHAMFERA
 40
0.0
  9
$CHAMFERB
 40
0.0
  9
$CHAMFERC
 40
0.0
  9
$CHAMFERD
 40
0.0
  9
$SKPOLY
 70
     0
  9
$TDCREATE
 40
2459439.589632882
  9
$TDUCREATE
 40
2459439.214632882
  9
$TDUPDATE
 40
2459439.589633484
  9
$TDUUPDATE
 40
2459439.214633484
  9
$TDINDWG
 40
0.0000000116
  9
$TDUSRTIMER
 40
0.0000000116
  9
$USRTIMER
 70
     1
  9
$ANGBASE
 50
0.0
  9
$ANGDIR
 70
     0
  9
$PDMODE
 70
     0
  9
$PDSIZE
 40
-1.0
  9
$PLINEWID
 40
0.0
  9
$SPLFRAME
 70
     0
  9
$SPLINETYPE
 70
     6
  9
$SPLINESEGS
 70
     8
  9
$HANDSEED
  5
1CD
  9
$SURFTAB1
 70
     6
  9
$SURFTAB2
 70
     6
  9
$SURFTYPE
 70
     6
  9
$SURFU
 70
     6
  9
$SURFV
 70
     6
  9
$UCSBASE
  2

  9
$UCSNAME
  2

  9
$UCSORG
 10
0.0
 20
0.0
 30
0.0
  9
$UCSXDIR
 10
1.0
 20
0.0
 30
0.0
  9
$UCSYDIR
 10
0.0
 20
1.0
 30
0.0
  9
$UCSORTHOREF
  2

  9
$UCSORTHOVIEW
 70
     0
  9
$UCSORGTOP
 10
0.0
 20
0.0
 30
0.0
  9
$UCSORGBOTTOM
 10
0.0
 20
0.0
 30
0.0
  9
$UCSORGLEFT
 10
0.0
 20
0.0
 30
0.0
  9
$UCSORGRIGHT
 10
0.0
 20
0.0
 30
0.0
  9
$UCSORGFRONT
 10
0.0
 20
0.0
 30
0.0
  9
$UCSORGBACK
 10
0.0
 20
0.0
 30
0.0
  9
$PUCSBASE
  2

  9
$PUCSNAME
  2

  9
$PUCSORG
 10
0.0
 20
0.0
 30
0.0
  9
$PUCSXDIR
 10
1.0
 20
0.0
 30
0.0
  9
$PUCSYDIR
 10
0.0
 20
1.0
 30
0.0
  9
$PUCSORTHOREF
  2

  9
$PUCSORTHOVIEW
 70
     0
  9
$PUCSORGTOP
 10
0.0
 20
0.0
 30
0.0
  9
$PUCSORGBOTTOM
 10
0.0
 20
0.0
 30
0.0
  9
$PUCSORGLEFT
 10
0.0
 20
0.0
 30
0.0
  9
$PUCSORGRIGHT
 10
0.0
 20
0.0
 30
0.0
  9
$PUCSORGFRONT
 10
0.0
 20
0.0
 30
0.0
  9
$PUCSORGBACK
 10
0.0
 20
0.0
 30
0.0
  9
$USERI1
 70
     0
  9
$USERI2
 70
     0
  9
$USERI3
 70
     0
  9
$USERI4
 70
     0
  9
$USERI5
 70
     0
  9
$USERR1
 40
0.0
  9
$USERR2
 40
0.0
  9
$USERR3
 40
0.0
  9
$USERR4
 40
0.0
  9
$USERR5
 40
0.0
  9
$WORLDVIEW
 70
     1
  9
$SHADEDGE
 70
     3
  9
$SHADEDIF
 70
    70
  9
$TILEMODE
 70
     1
  9
$MAXACTVP
 70
    64
  9
$PINSBASE
 10
0.0
 20
0.0
 30
0.0
  9
$PLIMCHECK
 70
     0
  9
$PEXTMIN
 10
1.0000000000E+20
 20
1.0000000000E+20
 30
1.0000000000E+20
  9
$PEXTMAX
 10
-1.0000000000E+20
 20
-1.0000000000E+20
 30
-1.0000000000E+20
  9
$PLIMMIN
 10
0.0
 20
0.0
  9
$PLIMMAX
 10
420.0
 20
297.0
  9
$UNITMODE
 70
     0
  9
$VISRETAIN
 70
     1
  9
$PLINEGEN
 70
     0
  9
$PSLTSCALE
 70
     1
  9
$TREEDEPTH
 70
  3020
  9
$CMLSTYLE
  2
Standard
  9
$CMLJUST
 70
     0
  9
$CMLSCALE
 40
20.0
  9
$PROXYGRAPHICS
 70
     1
  9
$MEASUREMENT
 70
     1
  9
$CELWEIGHT
370
    -1
  9
$ENDCAPS
280
     0
  9
$JOINSTYLE
280
     0
  9
$LWDISPLAY
290
     1
  9
$INSUNITS
 70
     4
  9
$HYPERLINKBASE
  1

  9
$STYLESHEET
  1

  9
$XEDIT
290
     1
  9
$CEPSNTYPE
380
     0
  9
$PSTYLEMODE
290
     1
  9
$FINGERPRINTGUID
  2
{D113FE91-00DA-4A0E-8A9C-18DFEC9764E2}
  9
$VERSIONGUID
  2
{FAEB1C32-E019-11D5-929B-00C0DF256EC4}
  9
$EXTNAMES
290
     1
  9
$PSVPSCALE
 40
0.0
  9
$OLESTARTUP
290
     0
  0
ENDSEC
  0
SECTION
  2
CLASSES
  0
CLASS
  1
ACDBDICTIONARYWDFLT
  2
AcDbDictionaryWithDefault
  3
ObjectDBX Classes
 90
        0
280
     0
281
     0
  0
CLASS
  1
VISUALSTYLE
  2
AcDbVisualStyle
  3
ObjectDBX Classes
 90
     4095
280
     0
281
     0
  0
CLASS
  1
MATERIAL
  2
AcDbMaterial
  3
ObjectDBX Classes
 90
     1153
280
     0
281
     0
  0
CLASS
  1
SCALE
  2
AcDbScale
  3
ObjectDBX Classes
 90
     1153
280
     0
281
     0
  0
CLASS
  1
TABLESTYLE
  2
AcDbTableStyle
  3
ObjectDBX Classes
 90
     4095
280
     0
281
     0
  0
CLASS
  1
MLEADERSTYLE
  2
AcDbMLeaderStyle
  3
ACDB_MLEADERSTYLE_CLASS
 90
     4095
280
     0
281
     0
  0
CLASS
  1
SUN
  2
AcDbSun
  3
SCENEOE
 90
     1153
280
     0
281
     0
  0
CLASS
  1
ACDBPLACEHOLDER
  2
AcDbPlaceHolder
  3
ObjectDBX Classes
 90
        0
280
     0
281
     0
  0
CLASS
  1
LAYOUT
  2
AcDbLayout
  3
ObjectDBX Classes
 90
        0
280
     0
281
     0
  0
ENDSEC
  0
SECTION
  2
TABLES
  0
TABLE
  2
VPORT
  5
8
330
0
100
AcDbSymbolTable
 70
     1
  0
VPORT
  5
29
330
8
100
AcDbSymbolTableRecord
100
AcDbViewportTableRecord
  2
*Active
 70
     0
 10
0.0
 20
0.0
 11
1.0
 21
1.0
 12
107.95
 22
69.85
 13
0.0
 23
0.0
 14
10.0
 24
10.0
 15
10.0
 25
10.0
 16
0.0
 26
0.0
 36
1.0
 17
0.0
 27
0.0
 37
0.0
 40
139.7
 41
1.5454545455
 42
50.0
 43
0.0
 44
0.0
 50
0.0
 51
0.0
 71
     0
 72
  2000
 73
     1
 74
     3
 75
     0
 76
     0
 77
     0
 78
     0
281
     0
 65
     1
110
0.0
120
0.0
130
0.0
111
1.0
121
0.0
131
0.0
112
0.0
122
1.0
132
0.0
 79
     0
146
0.0
  0
ENDTAB
  0
TABLE
  2
LTYPE
  5
5
330
0
100
AcDbSymbolTable
 70
     6
  0
LTYPE
  5
14
330
5
100
AcDbSymbolTableRecord
100
AcDbLinetypeTableRecord
  2
ByBlock
 70
     0
  3

 72
    65
 73
     0
 40
0.0
  0
LTYPE
  5
15
330
5
100
AcDbSymbolTableRecord
100
AcDbLinetypeTableRecord
  2
ByLayer
 70
     0
  3

 72
    65
 73
     0
 40
0.0
  0
LTYPE
  5
16
330
5
100
AcDbSymbolTableRecord
100
AcDbLinetypeTableRecord
  2
Continuous
 70
     0
  3
Solid line
 72
    65
 73
     0
 40
0.0
  0
LTYPE
  5
6E
330
5
100
AcDbSymbolTableRecord
100
AcDbLinetypeTableRecord
  2
HIDDEN
 70
     0
  3
Hidden __ __ __ __ __ __ __ __ __ __ __ __ __ __
 72
    65
 73
     2
 40
1.905
 49
1.27
 74
     0
 49
-0.635
 74
     0
  0
LTYPE
  5
6F
330
5
100
AcDbSymbolTableRecord
100
AcDbLinetypeTableRecord
  2
PHANTOM
 70
     0
  3
Phantom ______  __  __  ______  __  __  ______
 72
    65
 73
     6
 40
12.7
 49
6.35
 74
     0
 49
-1.27
 74
     0
 49
1.27
 74
     0
 49
-1.27
 74
     0
 49
1.27
 74
     0
 49
-1.27
 74
     0
  0
LTYPE
  5
70
330
5
100
AcDbSymbolTableRecord
100
AcDbLinetypeTableRecord
  2
CENTER
 70
     0
  3
Center ____ _ ____ _ ____ _ ____ _ ____ _ ____
 72
    65
 73
     4
 40
10.16
 49
6.35
 74
     0
 49
-1.27
 74
     0
 49
1.27
 74
     0
 49
-1.27
 74
     0
  0
LTYPE
  5
71
330
5
100
AcDbSymbolTableRecord
100
AcDbLinetypeTableRecord
  2
CENTERX2
 70
     0
  3
Center (2x) ________  __  ________  __  _____
 72
    65
 73
     4
 40
20.32
 49
12.7
 74
     0
 49
-2.54
 74
     0
 49
2.54
 74
     0
 49
-2.54
 74
     0
  0
LTYPE
  5
72
330
5
100
AcDbSymbolTableRecord
100
AcDbLinetypeTableRecord
  2
DOT2
 70
     0
  3
Dot (.5x) ........................................
 72
    65
 73
     2
 40
0.635
 49
0.0
 74
     0
 49
-0.635
 74
     0
  0
ENDTAB
  0
TABLE
  2
LAYER
  5
2
330
0
100
AcDbSymbolTable
 70
     1
  0
LAYER
  5
10
330
2
100
AcDbSymbolTableRecord
100
AcDbLayerTableRecord
  2
0
 70
     0
 62
     7
  6
Continuous
370
    -3
390
F
  0
ENDTAB
  0
TABLE
  2
STYLE
  5
3
330
0
100
AcDbSymbolTable
 70
     2
  0
STYLE
  5
11
330
3
100
AcDbSymbolTableRecord
100
AcDbTextStyleTableRecord
  2
Standard
 70
     0
 40
0.0
 41
1.0
 50
0.0
 71
     0
 42
1.75
  3
txt
  4
bigfont
  0
STYLE
  5
73
330
3
100
AcDbSymbolTableRecord
100
AcDbTextStyleTableRecord
  2
SLDTEXTSTYLE0
 70
     0
 40
0.0
 41
0.7
 50
0.0
 71
     0
 42
1.75
  3
TXT
  4
bigfont
  0
ENDTAB
  0
TABLE
  2
VIEW
  5
6
330
0
100
AcDbSymbolTable
 70
     0
  0
ENDTAB
  0
TABLE
  2
UCS
  5
7
330
0
100
AcDbSymbolTable
 70
     0
  0
ENDTAB
  0
TABLE
  2
APPID
  5
9
330
0
100
AcDbSymbolTable
 70
     1
  0
APPID
  5
12
330
9
100
AcDbSymbolTableRecord
100
AcDbRegAppTableRecord
  2
ACAD
 70
     0
  0
ENDTAB
  0
TABLE
  2
DIMSTYLE
  5
A
330
0
100
AcDbSymbolTable
 70
     1
100
AcDbDimStyleTable
  0
DIMSTYLE
105
27
330
A
100
AcDbSymbolTableRecord
100
AcDbDimStyleTableRecord
  2
ISO-25
 70
     0
 41
2.5
 42
0.625
 43
3.75
 44
1.25
 73
     0
 74
     0
 77
     1
 78
     8
140
2.5
141
2.5
143
0.0393700787
147
0.625
171
     3
172
     1
178
     0
271
     2
272
     2
274
     3
278
    44
283
     0
284
     8
340
11
  0
ENDTAB
  0
TABLE
  2
BLOCK_RECORD
  5
1
330
0
100
AcDbSymbolTable
 70
     1
  0
BLOCK_RECORD
  5
1F
330
1
100
AcDbSymbolTableRecord
100
AcDbBlockTableRecord
  2
*Model_Space
340
22
  0
BLOCK_RECORD
  5
1B
330
1
100
AcDbSymbolTableRecord
100
AcDbBlockTableRecord
  2
*Paper_Space
340
1E
  0
BLOCK_RECORD
  5
23
330
1
100
AcDbSymbolTableRecord
100
AcDbBlockTableRecord
  2
*Paper_Space0
340
26
  0
ENDTAB
  0
ENDSEC
  0
SECTION
  2
BLOCKS
  0
BLOCK
  5
20
330
1F
100
AcDbEntity
  8
0
100
AcDbBlockBegin
  2
*Model_Space
 70
     0
 10
0.0
 20
0.0
 30
0.0
  3
*Model_Space
  1

  0
ENDBLK
  5
21
330
1F
100
AcDbEntity
  8
0
100
AcDbBlockEnd
  0
BLOCK
  5
1C
330
1B
100
AcDbEntity
 67
     1
  8
0
100
AcDbBlockBegin
  2
*Paper_Space
 70
     0
 10
0.0
 20
0.0
 30
0.0
  3
*Paper_Space
  1

  0
ENDBLK
  5
1D
330
1B
100
AcDbEntity
 67
     1
  8
0
100
AcDbBlockEnd
  0
BLOCK
  5
24
330
23
100
AcDbEntity
  8
0
100
AcDbBlockBegin
  2
*Paper_Space0
 70
     0
 10
0.0
 20
0.0
 30
0.0
  3
*Paper_Space0
  1

  0
ENDBLK
  5
25
330
23
100
AcDbEntity
  8
0
100
AcDbBlockEnd
  0
ENDSEC
  0
SECTION
  2
ENTITIES
  0
MTEXT
  5
74
330
1F
100
AcDbEntity
  8
0
  6
Continuous
 62
     7
370
     0
100
AcDbMText
 10
85.9444402655
 20
69.9764845256
 30
0.0
 40
2.6458333333
 41
0.0
 71
     1
 72
     1
  1
5R-RS2208
  7
SLDTEXTSTYLE0
 73
     1
 44
1.0
  0
LINE
  5
75
330
1F
100
AcDbEntity
  8
0
  6
Continuous
 62
     7
370
    25
100
AcDbLine
 10
76.4327878872
 20
56.035368293
 30
0.0
 11
75.5292609413
 21
54.4704137168
 31
0.0
  0
LINE
  5
76
330
1F
100
AcDbEntity
  8
0
  6
Continuous
 62
     7
370
    25
100
AcDbLine
 10
75.5292609413
 20
37.9704137168
 30
0.0
 11
76.4327878872
 21
36.4054591406
 31
0.0
  0
LINE
  5
77
330
1F
100
AcDbEntity
  8
0
  6
Continuous
 62
     7
370
    25
100
AcDbLine
 10
88.3292609413
 20
37.9704137168
 30
0.0
 11
88.5292609413
 21
38.1704137168
 31
0.0
  0
LINE
  5
78
330
1F
100
AcDbEntity
  8
0
  6
Continuous
 62
     7
370
    25
100
AcDbLine
 10
88.5292609413
 20
54.2704137168
 30
0.0
 11
88.3292609413
 21
54.4704137168
 31
0.0
  0
LINE
  5
79
330
1F
100
AcDbEntity
  8
0
  6
Continuous
 62
     7
370
    25
100
AcDbLine
 10
88.3292609413
 20
54.4704137168
 30
0.0
 11
87.4622736432
 21
54.4704137168
 31
0.0
  0
LINE
  5
7A
330
1F
100
AcDbEntity
  8
0
  6
Continuous
 62
     7
370
    25
100
AcDbLine
 10
87.4622736432
 20
37.9704137168
 30
0.0
 11
88.3292609413
 21
37.9704137168
 31
0.0
  0
LINE
  5
7B
330
1F
100
AcDbEntity
  8
0
  6
Continuous
 62
     7
370
    25
100
AcDbLine
 10
86.8127545904
 20
54.8454137168
 30
0.0
 11
86.1257339955
 21
56.035368293
 31
0.0
  0
ARC
  5
7C
330
1F
100
AcDbEntity
  8
0
  6
Continuous
 62
     7
370
    25
100
AcDbCircle
 10
87.4622736432
 20
55.2204137168
 30
0.0
 40
0.75
100
AcDbArc
 50
210.0
 51
270.0
  0
ARC
  5
7D
330
1F
100
AcDbEntity
  8
0
  6
Continuous
 62
     7
370
    25
100
AcDbCircle
 10
87.4622736432
 20
37.2204137168
 30
0.0
 40
0.75
100
AcDbArc
 50
90.0
 51
150.0
  0
LINE
  5
7E
330
1F
100
AcDbEntity
  8
0
  6
Continuous
 62
     7
370
    25
100
AcDbLine
 10
86.1257339955
 20
36.4054591406
 30
0.0
 11
86.8127545904
 21
37.5954137168
 31
0.0
  0
LINE
  5
7F
330
1F
100
AcDbEntity
  8
0
  6
Continuous
 62
     7
370
    25
100
AcDbLine
 10
57.1290660951
 20
36.4054591406
 30
0.0
 11
58.032593041
 21
37.9704137168
 31
0.0
  0
LINE
  5
80
330
1F
100
AcDbEntity
  8
0
  6
Continuous
 62
     7
370
    25
100
AcDbLine
 10
58.032593041
 20
54.4704137168
 30
0.0
 11
57.1290660951
 21
56.035368293
 31
0.0
  0
LINE
  5
81
330
1F
100
AcDbEntity
  8
0
  6
Continuous
 62
     7
370
    25
100
AcDbLine
 10
45.232593041
 20
37.9704137168
 30
0.0
 11
46.0995803391
 21
37.9704137168
 31
0.0
  0
LINE
  5
82
330
1F
100
AcDbEntity
  8
0
  6
Continuous
 62
     7
370
    25
100
AcDbLine
 10
46.0995803391
 20
54.4704137168
 30
0.0
 11
45.232593041
 21
54.4704137168
 31
0.0
  0
LINE
  5
83
330
1F
100
AcDbEntity
  8
0
  6
Continuous
 62
     7
370
    25
100
AcDbLine
 10
45.232593041
 20
54.4704137168
 30
0.0
 11
45.032593041
 21
54.2704137168
 31
0.0
  0
LINE
  5
84
330
1F
100
AcDbEntity
  8
0
  6
Continuous
 62
     7
370
    25
100
AcDbLine
 10
45.032593041
 20
38.1704137168
 30
0.0
 11
45.232593041
 21
37.9704137168
 31
0.0
  0
ARC
  5
85
330
1F
100
AcDbEntity
  8
0
  6
Continuous
 62
     7
370
    25
100
AcDbCircle
 10
46.0995803391
 20
55.2204137168
 30
0.0
 40
0.7500000000000027
100
AcDbArc
 50
270.0
 51
330.0
  0
LINE
  5
86
330
1F
100
AcDbEntity
  8
0
  6
Continuous
 62
     7
370
    25
100
AcDbLine
 10
47.4361199868
 20
56.035368293
 30
0.0
 11
46.7490993919
 21
54.8454137168
 31
0.0
  0
ARC
  5
87
330
1F
100
AcDbEntity
  8
0
  6
Continuous
 62
     7
370
    25
100
AcDbCircle
 10
46.0995803391
 20
37.2204137168
 30
0.0
 40
0.7500000000000027
100
AcDbArc
 50
30.0
 51
90.0
  0
LINE
  5
88
330
1F
100
AcDbEntity
  8
0
  6
Continuous
 62
     7
370
    25
100
AcDbLine
 10
46.7490993919
 20
37.5954137168
 30
0.0
 11
47.4361199868
 21
36.4054591406
 31
0.0
  0
ARC
  5
89
330
1F
100
AcDbEntity
  8
0
  6
Continuous
 62
     7
370
    25
100
AcDbCircle
 10
63.9922518566
 20
53.4704137168
 30
0.0
 40
0.5
100
AcDbArc
 50
270.0
 51
330.0
  0
ARC
  5
8A
330
1F
100
AcDbEntity
  8
0
  6
Continuous
 62
     7
370
    25
100
AcDbCircle
 10
63.9922518566
 20
38.9704137168
 30
0.0
 40
0.5
100
AcDbArc
 50
30.0
 51
90.0
  0
ARC
  5
8B
330
1F
100
AcDbEntity
  8
0
  6
Continuous
 62
     7
370
    25
100
AcDbCircle
 10
69.5696021257
 20
38.9704137168
 30
0.0
 40
0.5000000000000041
100
AcDbArc
 50
90.0
 51
150.0
  0
ARC
  5
8C
330
1F
100
AcDbEntity
  8
0
  6
Continuous
 62
     7
370
    25
100
AcDbCircle
 10
69.5696021257
 20
53.4704137168
 30
0.0
 40
0.5000000000000041
100
AcDbArc
 50
210.0
 51
270.0
  0
LINE
  5
8D
330
1F
100
AcDbEntity
  8
0
  6
Continuous
 62
     7
370
    25
100
AcDbLine
 10
70.0809269912
 20
39.4704137168
 30
0.0
 11
70.2809269912
 21
39.6704137168
 31
0.0
  0
LINE
  5
8E
330
1F
100
AcDbEntity
  8
0
  6
Continuous
 62
     7
370
    25
100
AcDbLine
 10
70.2809269912
 20
52.7704137168
 30
0.0
 11
70.0809269912
 21
52.9704137168
 31
0.0
  0
LINE
  5
8F
330
1F
100
AcDbEntity
  8
0
  6
Continuous
 62
     7
370
    25
100
AcDbLine
 10
63.4809269912
 20
39.4704137168
 30
0.0
 11
63.9922518566
 21
39.4704137168
 31
0.0
  0
LINE
  5
90
330
1F
100
AcDbEntity
  8
0
  6
Continuous
 62
     7
370
    25
100
AcDbLine
 10
63.9922518566
 20
52.9704137168
 30
0.0
 11
63.4809269912
 21
52.9704137168
 31
0.0
  0
LINE
  5
91
330
1F
100
AcDbEntity
  8
0
  6
Continuous
 62
     7
370
    25
100
AcDbLine
 10
63.4809269912
 20
52.9704137168
 30
0.0
 11
63.2809269912
 21
52.7704137168
 31
0.0
  0
LINE
  5
92
330
1F
100
AcDbEntity
  8
0
  6
Continuous
 62
     7
370
    25
100
AcDbLine
 10
63.2809269912
 20
39.6704137168
 30
0.0
 11
63.4809269912
 21
39.4704137168
 31
0.0
  0
LINE
  5
93
330
1F
100
AcDbEntity
  8
0
  6
Continuous
 62
     7
370
    25
100
AcDbLine
 10
70.0809269912
 20
52.9704137168
 30
0.0
 11
69.5696021257
 21
52.9704137168
 31
0.0
  0
LINE
  5
94
330
1F
100
AcDbEntity
  8
0
  6
Continuous
 62
     7
370
    25
100
AcDbLine
 10
69.5696021257
 20
39.4704137168
 30
0.0
 11
70.0809269912
 21
39.4704137168
 31
0.0
  0
LINE
  5
95
330
1F
100
AcDbEntity
  8
0
  6
Continuous
 62
     7
370
    25
100
AcDbLine
 10
73.2809269912
 20
39.6419137168
 30
0.0
 11
75.5292609413
 21
39.6419137168
 31
0.0
  0
LINE
  5
96
330
1F
100
AcDbEntity
  8
0
  6
Continuous
 62
     7
370
    25
100
AcDbLine
 10
75.5292609413
 20
52.7989137168
 30
0.0
 11
73.2809269912
 21
52.7989137168
 31
0.0
  0
LINE
  5
97
330
1F
100
AcDbEntity
  8
0
  6
Continuous
 62
     7
370
    25
100
AcDbLine
 10
73.2809269912
 20
52.7989137168
 30
0.0
 11
72.2809269912
 21
51.7989137168
 31
0.0
  0
LINE
  5
98
330
1F
100
AcDbEntity
  8
0
  6
Continuous
 62
     7
370
    25
100
AcDbLine
 10
72.2809269912
 20
40.6419137168
 30
0.0
 11
73.2809269912
 21
39.6419137168
 31
0.0
  0
LINE
  5
99
330
1F
100
AcDbEntity
  8
0
  6
Continuous
 62
     7
370
    25
100
AcDbLine
 10
60.2809269912
 20
39.6419137168
 30
0.0
 11
61.2809269912
 21
40.6419137168
 31
0.0
  0
LINE
  5
9A
330
1F
100
AcDbEntity
  8
0
  6
Continuous
 62
     7
370
    25
100
AcDbLine
 10
61.2809269912
 20
51.7989137168
 30
0.0
 11
60.2809269912
 21
52.7989137168
 31
0.0
  0
LINE
  5
9B
330
1F
100
AcDbEntity
  8
0
  6
Continuous
 62
     7
370
    25
100
AcDbLine
 10
60.2809269912
 20
52.7989137168
 30
0.0
 11
58.032593041
 21
52.7989137168
 31
0.0
  0
LINE
  5
9C
330
1F
100
AcDbEntity
  8
0
  6
Continuous
 62
     7
370
    25
100
AcDbLine
 10
58.032593041
 20
39.6419137168
 30
0.0
 11
60.2809269912
 21
39.6419137168
 31
0.0
  0
LINE
  5
9D
330
1F
100
AcDbEntity
  8
0
  6
Continuous
 62
     7
370
    25
100
AcDbLine
 10
70.2809269912
 20
40.7204137168
 30
0.0
 11
72.2809269912
 21
40.7204137168
 31
0.0
  0
LINE
  5
9E
330
1F
100
AcDbEntity
  8
0
  6
Continuous
 62
     7
370
    25
100
AcDbLine
 10
72.2809269912
 20
51.7204137168
 30
0.0
 11
70.2809269912
 21
51.7204137168
 31
0.0
  0
LINE
  5
9F
330
1F
100
AcDbEntity
  8
0
  6
Continuous
 62
     7
370
    25
100
AcDbLine
 10
63.2809269912
 20
51.7204137168
 30
0.0
 11
61.2809269912
 21
51.7204137168
 31
0.0
  0
LINE
  5
A0
330
1F
100
AcDbEntity
  8
0
  6
Continuous
 62
     7
370
    25
100
AcDbLine
 10
61.2809269912
 20
40.7204137168
 30
0.0
 11
63.2809269912
 21
40.7204137168
 31
0.0
  0
LINE
  5
A1
330
1F
100
AcDbEntity
  8
0
  6
Continuous
 62
     7
370
    25
100
AcDbLine
 10
68.5113746415
 20
38.1375099482
 30
0.0
 11
69.1365894239
 21
39.2204137168
 31
0.0
  0
LINE
  5
A2
330
1F
100
AcDbEntity
  8
0
  6
Continuous
 62
     7
370
    25
100
AcDbLine
 10
64.4252645584
 20
39.2204137168
 30
0.0
 11
65.0504793408
 21
38.1375099482
 31
0.0
  0
LINE
  5
A3
330
1F
100
AcDbEntity
  8
0
  6
Continuous
 62
     7
370
    25
100
AcDbLine
 10
69.1365894239
 20
53.2204137168
 30
0.0
 11
68.5113746415
 21
54.3033174855
 31
0.0
  0
LINE
  5
A4
330
1F
100
AcDbEntity
  8
0
  6
Continuous
 62
     7
370
    25
100
AcDbLine
 10
65.0504793408
 20
54.3033174855
 30
0.0
 11
64.4252645584
 21
53.2204137168
 31
0.0
  0
SPLINE
  5
A5
330
1F
100
AcDbEntity
  8
0
  6
Continuous
 62
     7
370
    25
100
AcDbSpline
210
0.0
220
0.0
230
1.0
 70
     8
 71
     3
 72
    16
 73
    12
 74
     0
 42
0.000000001
 43
0.00000001
 40
0.0
 40
0.0
 40
0.0
 40
0.0
 40
0.1120102749541304
 40
0.2377440458013614
 40
0.3634452870972628
 40
0.4922378783757058
 40
0.6210287926568645
 40
0.71525568826663
 40
0.8094925111982041
 40
0.9047415002555057
 40
1.0
 40
1.0
 40
1.0
 40
1.0
 10
76.43278788716314
 20
41.31293642870239
 30
0.0
 10
76.33411119470735
 20
41.67168745975358
 30
0.0
 10
76.1246679440739
 20
42.43314368859015
 30
0.0
 10
75.88451039061142
 20
43.61719703722169
 30
0.0
 10
75.71714092032907
 20
44.86999025352395
 30
0.0
 10
75.65596378530157
 20
46.14310281156656
 30
0.0
 10
75.70006477309269
 20
47.31216874401701
 30
0.0
 10
75.81778688470833
 20
48.35984157871419
 30
0.0
 10
75.97589708788568
 20
49.28912569713817
 30
0.0
 10
76.17931598882474
 20
50.21316103355548
 30
0.0
 10
76.3482944424186
 20
50.82297086664315
 30
0.0
 10
76.43278788716314
 20
51.12789100492606
 30
0.0
  0
SPLINE
  5
A6
330
1F
100
AcDbEntity
  8
0
  6
Continuous
 62
     7
370
    25
100
AcDbSpline
210
0.0
220
0.0
230
1.0
 70
     8
 71
     3
 72
    15
 73
    11
 74
     0
 42
0.000000001
 43
0.00000001
 40
0.0
 40
0.0
 40
0.0
 40
0.0
 40
0.1323052378296956
 40
0.2645730682660305
 40
0.3997997819746813
 40
0.5350020935366634
 40
0.6501929590834554
 40
0.7654017933211804
 40
0.8826895567076665
 40
1.0
 40
1.0
 40
1.0
 40
1.0
 10
76.43278788716314
 20
36.40545914059052
 30
0.0
 10
76.31721791532316
 20
36.61748168424701
 30
0.0
 10
76.086110647382
 20
37.04146682525083
 30
0.0
 10
75.83744801580563
 20
37.69436641090597
 30
0.0
 10
75.68793406865211
 20
38.35957326312884
 30
0.0
 10
75.65832378160374
 20
39.00068390942619
 30
0.0
 10
75.73514518425438
 20
39.60715867428951
 30
0.0
 10
75.8925546553754
 20
40.1795216340419
 30
0.0
 10
76.1234570159064
 20
40.74929677429616
 30
0.0
 10
76.32967095146375
 20
41.12504443536562
 30
0.0
 10
76.43278788716314
 20
41.31293642870239
 30
0.0
  0
SPLINE
  5
A7
330
1F
100
AcDbEntity
  8
0
  6
Continuous
 62
     7
370
    25
100
AcDbSpline
210
0.0
220
0.0
230
1.0
 70
     8
 71
     3
 72
    15
 73
    11
 74
     0
 42
0.000000001
 43
0.00000001
 40
0.0
 40
0.0
 40
0.0
 40
0.0
 40
0.1323052378296974
 40
0.264573068266034
 40
0.3997997819746865
 40
0.5350020935366704
 40
0.6501929590834606
 40
0.7654017933211844
 40
0.8826895567076685
 40
1.0
 40
1.0
 40
1.0
 40
1.0
 10
76.43278788716314
 20
51.12789100492606
 30
0.0
 10
76.31721791532316
 20
51.33991354858256
 30
0.0
 10
76.08611064738201
 20
51.76389868958637
 30
0.0
 10
75.83744801580565
 20
52.4167982752415
 30
0.0
 10
75.68793406865214
 20
53.08200512746436
 30
0.0
 10
75.65832378160376
 20
53.72311577376169
 30
0.0
 10
75.7351451842544
 20
54.32959053862502
 30
0.0
 10
75.89255465537543
 20
54.90195349837739
 30
0.0
 10
76.1234570159064
 20
55.4717286386316
 30
0.0
 10
76.32967095146377
 20
55.84747629970105
 30
0.0
 10
76.43278788716314
 20
56.03536829303781
 30
0.0
  0
LINE
  5
A8
330
1F
100
AcDbEntity
  8
0
  6
Continuous
 62
     7
370
    25
100
AcDbLine
 10
75.5292609413
 20
46.2204137168
 30
0.0
 11
75.5292609413
 21
54.4704137168
 31
0.0
  0
LINE
  5
A9
330
1F
100
AcDbEntity
  8
0
  6
Continuous
 62
     7
370
    25
100
AcDbLine
 10
75.5292609413
 20
37.9704137168
 30
0.0
 11
75.5292609413
 21
46.2204137168
 31
0.0
  0
SPLINE
  5
AA
330
1F
100
AcDbEntity
  8
0
  6
Continuous
 62
     7
370
    25
100
AcDbSpline
210
0.0
220
0.0
230
1.0
 70
     8
 71
     3
 72
    11
 73
     7
 74
     0
 42
0.000000001
 43
0.00000001
 40
0.0
 40
0.0
 40
0.0
 40
0.0
 40
0.2488617730236801
 40
0.4977454583558499
 40
0.7488627517928867
 40
1.0
 40
1.0
 40
1.0
 40
1.0
 10
86.81275459036479
 20
52.85008590456206
 30
0.0
 10
86.77960053514845
 20
52.70512352425906
 30
0.0
 10
86.71328950549731
 20
52.41518599969837
 30
0.0
 10
86.55524749941237
 20
51.98314641220391
 30
0.0
 10
86.36239531996561
 20
51.55340834122696
 30
0.0
 10
86.20462319307714
 20
51.269733873859
 30
0.0
 10
86.12573399545865
 20
51.12789100492606
 30
0.0
  0
LINE
  5
AB
330
1F
100
AcDbEntity
  8
0
  6
Continuous
 62
     7
370
    25
100
AcDbLine
 10
86.8127545904
 20
47.6835012057
 30
0.0
 11
86.8127545904
 21
52.8500859046
 31
0.0
  0
SPLINE
  5
AC
330
1F
100
AcDbEntity
  8
0
  6
Continuous
 62
     7
370
    25
100
AcDbSpline
210
0.0
220
0.0
230
1.0
 70
     8
 71
     3
 72
    11
 73
     7
 74
     0
 42
0.000000001
 43
0.00000001
 40
0.0
 40
0.0
 40
0.0
 40
0.0
 40
0.2490252138763565
 40
0.4980311639765296
 40
0.7490269204800198
 40
1.0
 40
1.0
 40
1.0
 40
1.0
 10
86.12573399545865
 20
51.12789100492606
 30
0.0
 10
86.2039828682841
 20
50.8465981436573
 30
0.0
 10
86.36047456085808
 20
50.28403418101563
 30
0.0
 10
86.55325744922446
 20
49.4270898678896
 30
0.0
 10
86.71232333445927
 20
48.56066983194756
 30
0.0
 10
86.77927851332043
 20
47.97588194161077
 30
0.0
 10
86.81275459036479
 20
47.68350120565418
 30
0.0
  0
SPLINE
  5
AD
330
1F
100
AcDbEntity
  8
0
  6
Continuous
 62
     7
370
    25
100
AcDbSpline
210
0.0
220
0.0
230
1.0
 70
     8
 71
     3
 72
    10
 73
     6
 74
     0
 42
0.000000001
 43
0.00000001
 40
0.0
 40
0.0
 40
0.0
 40
0.0
 40
0.0789477693778934
 40
0.5375793028234307
 40
1.0
 40
1.0
 40
1.0
 40
1.0
 10
86.81275459036479
 20
47.68350120565418
 30
0.0
 10
86.81988488817835
 20
47.60673155128578
 30
0.0
 10
86.86843724827338
 20
47.08398369408138
 30
0.0
 10
86.91035406315201
 20
46.1058119881822
 30
0.0
 10
86.84537685231403
 20
45.20805259409133
 30
0.0
 10
86.81275459036479
 20
44.75732622797427
 30
0.0
  0
SPLINE
  5
AE
330
1F
100
AcDbEntity
  8
0
  6
Continuous
 62
     7
370
    25
100
AcDbSpline
210
0.0
220
0.0
230
1.0
 70
     8
 71
     3
 72
    10
 73
     6
 74
     0
 42
0.000000001
 43
0.00000001
 40
0.0
 40
0.0
 40
0.0
 40
0.0
 40
0.3355445600395945
 40
0.6726666839999053
 40
1.0
 40
1.0
 40
1.0
 40
1.0
 10
86.81275459036479
 20
44.75732622797427
 30
0.0
 10
86.76562037438038
 20
44.36669666167083
 30
0.0
 10
86.67113034073049
 20
43.58360098279393
 30
0.0
 10
86.43271456271509
 20
42.43434901337914
 30
0.0
 10
86.22705090031741
 20
41.68305123161824
 30
0.0
 10
86.12573399545865
 20
41.31293642870239
 30
0.0
  0
LINE
  5
AF
330
1F
100
AcDbEntity
  8
0
  6
Continuous
 62
     7
370
    25
100
AcDbLine
 10
76.4327878872
 20
41.3129364287
 30
0.0
 11
86.1257339955
 21
41.3129364287
 31
0.0
  0
LINE
  5
B0
330
1F
100
AcDbEntity
  8
0
  6
Continuous
 62
     7
370
    25
100
AcDbLine
 10
76.4327878872
 20
51.1278910049
 30
0.0
 11
86.1257339955
 21
51.1278910049
 31
0.0
  0
SPLINE
  5
B1
330
1F
100
AcDbEntity
  8
0
  6
Continuous
 62
     7
370
    25
100
AcDbSpline
210
0.0
220
0.0
230
1.0
 70
     8
 71
     3
 72
    11
 73
     7
 74
     0
 42
0.000000001
 43
0.00000001
 40
0.0
 40
0.0
 40
0.0
 40
0.0
 40
0.2858113857234066
 40
0.5527245545213759
 40
0.8220275582229318
 40
1.0
 40
1.0
 40
1.0
 40
1.0
 10
87.46227364320312
 20
47.6198887061394
 30
0.0
 10
87.4583333417806
 20
47.35452632748962
 30
0.0
 10
87.45071327674039
 20
46.84134767243115
 30
0.0
 10
87.43925218708945
 20
46.06954843685649
 30
0.0
 10
87.45668957633109
 20
45.40033460949205
 30
0.0
 10
87.46068417759034
 20
44.98585971639194
 30
0.0
 10
87.46227364320312
 20
44.82093872748904
 30
0.0
  0
ARC
  5
B2
330
1F
100
AcDbEntity
  8
0
  6
Continuous
 62
     7
370
    25
100
AcDbCircle
 10
87.3935503789
 20
42.1748596267
 30
0.0
 40
2.646971381584038
100
AcDbArc
 50
88.5122636654
 51
102.674909816
  0
ARC
  5
B3
330
1F
100
AcDbEntity
  8
0
  6
Continuous
 62
     7
370
    25
100
AcDbCircle
 10
87.3935503789
 20
50.265967807
 30
0.0
 40
2.64697138158273
100
AcDbArc
 50
257.325090184
 51
271.4877363346
  0
LINE
  5
B4
330
1F
100
AcDbEntity
  8
0
  6
Continuous
 62
     7
370
    25
100
AcDbLine
 10
86.8127545904
 20
39.5907415291
 30
0.0
 11
86.8127545904
 21
44.757326228
 31
0.0
  0
SPLINE
  5
B5
330
1F
100
AcDbEntity
  8
0
  6
Continuous
 62
     7
370
    25
100
AcDbSpline
210
0.0
220
0.0
230
1.0
 70
     8
 71
     3
 72
    11
 73
     7
 74
     0
 42
0.000000001
 43
0.00000001
 40
0.0
 40
0.0
 40
0.0
 40
0.0
 40
0.2490252138763568
 40
0.4980311639765298
 40
0.74902692048002
 40
0.9999999999999999
 40
0.9999999999999999
 40
0.9999999999999999
 40
0.9999999999999999
 10
86.12573399545865
 20
41.31293642870239
 30
0.0
 10
86.2039828682841
 20
41.172289998068
 30
0.0
 10
86.36047456085807
 20
40.89100801674717
 30
0.0
 10
86.55325744922446
 20
40.46253586018415
 30
0.0
 10
86.71232333445926
 20
40.02932584221313
 30
0.0
 10
86.77927851332042
 20
39.73693189704473
 30
0.0
 10
86.81275459036479
 20
39.59074152906644
 30
0.0
  0
SPLINE
  5
B6
330
1F
100
AcDbEntity
  8
0
  6
Continuous
 62
     7
370
    25
100
AcDbSpline
210
0.0
220
0.0
230
1.0
 70
     8
 71
     3
 72
    10
 73
     6
 74
     0
 42
0.000000001
 43
0.00000001
 40
0.0
 40
0.0
 40
0.0
 40
0.0
 40
0.3089808900029883
 40
0.6190948628358307
 40
1.0
 40
1.0
 40
1.0
 40
1.0
 10
86.81275459036479
 20
39.59074152906644
 30
0.0
 10
86.8369015969015
 20
39.44029356669858
 30
0.0
 10
86.88528416094807
 20
39.13884592498468
 30
0.0
 10
86.89273925366473
 20
38.64983468638862
 30
0.0
 10
86.84117690586514
 20
38.31320940123041
 30
0.0
 10
86.81275459036479
 20
38.12765404022647
 30
0.0
  0
SPLINE
  5
B7
330
1F
100
AcDbEntity
  8
0
  6
Continuous
 62
     7
370
    25
100
AcDbSpline
210
0.0
220
0.0
230
1.0
 70
     8
 71
     3
 72
    11
 73
     7
 74
     0
 42
0.000000001
 43
0.00000001
 40
0.0
 40
0.0
 40
0.0
 40
0.0
 40
0.2488617730236804
 40
0.4977454583558502
 40
0.7488627517928871
 40
1.0
 40
1.0
 40
1.0
 40
1.0
 10
86.81275459036479
 20
38.12765404022647
 30
0.0
 10
86.77960053514845
 20
37.98269165992347
 30
0.0
 10
86.71328950549731
 20
37.6927541353628
 30
0.0
 10
86.55524749941237
 20
37.26071454786834
 30
0.0
 10
86.36239531996561
 20
36.83097647689141
 30
0.0
 10
86.20462319307714
 20
36.54730200952346
 30
0.0
 10
86.12573399545865
 20
36.40545914059052
 30
0.0
  0
LINE
  5
B8
330
1F
100
AcDbEntity
  8
0
  6
Continuous
 62
     7
370
    25
100
AcDbLine
 10
76.4327878872
 20
36.4054591406
 30
0.0
 11
86.1257339955
 21
36.4054591406
 31
0.0
  0
ARC
  5
B9
330
1F
100
AcDbEntity
  8
0
  6
Continuous
 62
     7
370
    25
100
AcDbCircle
 10
87.4333213436
 20
53.3725183111
 30
0.0
 40
0.8111958547050321
100
AcDbArc
 50
220.0927969335
 51
272.0453715946
  0
LINE
  5
BA
330
1F
100
AcDbEntity
  8
0
  6
Continuous
 62
     7
370
    25
100
AcDbLine
 10
87.4622736432
 20
52.5618392877
 30
0.0
 11
87.4622736432
 21
47.6198887061
 31
0.0
  0
LINE
  5
BB
330
1F
100
AcDbEntity
  8
0
  6
Continuous
 62
     7
370
    25
100
AcDbLine
 10
87.4622736432
 20
44.8209387275
 30
0.0
 11
87.4622736432
 21
39.8789881459
 31
0.0
  0
ARC
  5
BC
330
1F
100
AcDbEntity
  8
0
  6
Continuous
 62
     7
370
    25
100
AcDbCircle
 10
87.4333213436
 20
39.0683091225
 30
0.0
 40
0.8111958547050742
100
AcDbArc
 50
87.9546284054
 51
139.9072030665
  0
SPLINE
  5
BD
330
1F
100
AcDbEntity
  8
0
  6
Continuous
 62
     7
370
    25
100
AcDbSpline
210
0.0
220
0.0
230
1.0
 70
     8
 71
     3
 72
    10
 73
     6
 74
     0
 42
0.000000001
 43
0.00000001
 40
0.0
 40
0.0
 40
0.0
 40
0.0
 40
0.3089808900030074
 40
0.6190948628358686
 40
1.0
 40
1.0
 40
1.0
 40
1.0
 10
86.81275459036479
 20
54.3131733934018
 30
0.0
 10
86.8369015969015
 20
54.16272543103396
 30
0.0
 10
86.88528416094806
 20
53.86127778932009
 30
0.0
 10
86.8927392536647
 20
53.3722665507241
 30
0.0
 10
86.84117690586514
 20
53.03564126556595
 30
0.0
 10
86.81275459036479
 20
52.85008590456206
 30
0.0
  0
LINE
  5
BE
330
1F
100
AcDbEntity
  8
0
  6
Continuous
 62
     7
370
    25
100
AcDbLine
 10
76.4327878872
 20
56.035368293
 30
0.0
 11
86.1257339955
 21
56.035368293
 31
0.0
  0
SPLINE
  5
BF
330
1F
100
AcDbEntity
  8
0
  6
Continuous
 62
     7
370
    25
100
AcDbSpline
210
0.0
220
0.0
230
1.0
 70
     8
 71
     3
 72
    11
 73
     7
 74
     0
 42
0.000000001
 43
0.00000001
 40
0.0
 40
0.0
 40
0.0
 40
0.0
 40
0.2490252138763565
 40
0.4980311639765296
 40
0.7490269204800201
 40
1.0
 40
1.0
 40
1.0
 40
1.0
 10
86.12573399545865
 20
56.03536829303781
 30
0.0
 10
86.2039828682841
 20
55.89472186240343
 30
0.0
 10
86.36047456085807
 20
55.61343988108259
 30
0.0
 10
86.55325744922445
 20
55.18496772451956
 30
0.0
 10
86.71232333445927
 20
54.75175770654852
 30
0.0
 10
86.77927851332043
 20
54.45936376138011
 30
0.0
 10
86.81275459036479
 20
54.3131733934018
 30
0.0
  0
LINE
  5
C0
330
1F
100
AcDbEntity
  8
0
  6
Continuous
 62
     7
370
    25
100
AcDbLine
 10
88.5292609413
 20
46.2204137168
 30
0.0
 11
88.5292609413
 21
38.1704137168
 31
0.0
  0
LINE
  5
C1
330
1F
100
AcDbEntity
  8
0
  6
Continuous
 62
     7
370
    25
100
AcDbLine
 10
88.5292609413
 20
54.2704137168
 30
0.0
 11
88.5292609413
 21
46.2204137168
 31
0.0
  0
LINE
  5
C2
330
1F
100
AcDbEntity
  8
0
  6
Continuous
 62
     7
370
    25
100
AcDbLine
 10
88.3292609413
 20
46.2204137168
 30
0.0
 11
88.3292609413
 21
54.4704137168
 31
0.0
  0
LINE
  5
C3
330
1F
100
AcDbEntity
  8
0
  6
Continuous
 62
     7
370
    25
100
AcDbLine
 10
88.3292609413
 20
37.9704137168
 30
0.0
 11
88.3292609413
 21
46.2204137168
 31
0.0
  0
SPLINE
  5
C4
330
1F
100
AcDbEntity
  8
0
  6
Continuous
 62
     7
370
    25
100
AcDbSpline
210
0.0
220
0.0
230
1.0
 70
     8
 71
     3
 72
    11
 73
     7
 74
     0
 42
0.000000001
 43
0.00000001
 40
0.0
 40
0.0
 40
0.0
 40
0.0
 40
0.2858113857233994
 40
0.5527245545213822
 40
0.8220275582229518
 40
1.0
 40
1.0
 40
1.0
 40
1.0
 10
87.46227364320312
 20
39.87898814592504
 30
0.0
 10
87.4583333417806
 20
39.71329585985611
 30
0.0
 10
87.45071327674039
 20
39.39286707507109
 30
0.0
 10
87.43925218708945
 20
38.99280468030706
 30
0.0
 10
87.45668957633109
 20
38.69202054300027
 30
0.0
 10
87.46068417759032
 20
38.54000189910379
 30
0.0
 10
87.46227364320312
 20
38.47951315659985
 30
0.0
  0
SPLINE
  5
C5
330
1F
100
AcDbEntity
  8
0
  6
Continuous
 62
     7
370
    25
100
AcDbSpline
210
0.0
220
0.0
230
1.0
 70
     8
 71
     3
 72
    11
 73
     7
 74
     0
 42
0.000000001
 43
0.00000001
 40
0.0
 40
0.0
 40
0.0
 40
0.0
 40
0.2858113857233213
 40
0.5527245545214223
 40
0.8220275582231135
 40
1.0
 40
1.0
 40
1.0
 40
1.0
 10
87.46227364320312
 20
53.96131427702843
 30
0.0
 10
87.4583333417806
 20
53.86164418444761
 30
0.0
 10
87.4507132767404
 20
53.66889431417418
 30
0.0
 10
87.43925218708947
 20
53.29715747336349
 30
0.0
 10
87.45668957633112
 20
52.92872778330585
 30
0.0
 10
87.46068417759034
 20
52.66627153410228
 30
0.0
 10
87.46227364320312
 20
52.56183928770346
 30
0.0
  0
ARC
  5
C6
330
1F
100
AcDbEntity
  8
0
  6
Continuous
 62
     7
370
    25
100
AcDbCircle
 10
87.4538101085
 20
37.7197127723
 30
0.0
 40
0.7598475211239067
100
AcDbArc
 50
89.3617997906
 51
147.5290082717
  0
ARC
  5
C7
330
1F
100
AcDbEntity
  8
0
  6
Continuous
 62
     7
370
    25
100
AcDbCircle
 10
87.4538101085
 20
54.7211146613
 30
0.0
 40
0.7598475211158066
100
AcDbArc
 50
212.4709917279
 51
270.6382002097
  0
SPLINE
  5
C8
330
1F
100
AcDbEntity
  8
0
  6
Continuous
 62
     7
370
    25
100
AcDbSpline
210
0.0
220
0.0
230
1.0
 70
     8
 71
     3
 72
    11
 73
     7
 74
     0
 42
0.000000001
 43
0.00000001
 40
0.0
 40
0.0
 40
0.0
 40
0.0
 40
0.2488617730236802
 40
0.4977454583558502
 40
0.748862751792887
 40
0.9999999999999999
 40
0.9999999999999999
 40
0.9999999999999999
 40
0.9999999999999999
 10
46.74909939193609
 20
47.6835012056541
 30
0.0
 10
46.78225344715243
 20
47.97342596626007
 30
0.0
 10
46.84856447680358
 20
48.55330101538143
 30
0.0
 10
47.0066064828885
 20
49.41738019037034
 30
0.0
 10
47.19945866233525
 20
50.27685633232419
 30
0.0
 10
47.35723078922373
 20
50.84420526706008
 30
0.0
 10
47.43611998684224
 20
51.12789100492596
 30
0.0
  0
LINE
  5
C9
330
1F
100
AcDbEntity
  8
0
  6
Continuous
 62
     7
370
    25
100
AcDbLine
 10
46.7490993919
 20
52.8500859046
 30
0.0
 11
46.7490993919
 21
47.6835012057
 31
0.0
  0
SPLINE
  5
CA
330
1F
100
AcDbEntity
  8
0
  6
Continuous
 62
     7
370
    25
100
AcDbSpline
210
0.0
220
0.0
230
1.0
 70
     8
 71
     3
 72
    11
 73
     7
 74
     0
 42
0.000000001
 43
0.00000001
 40
0.0
 40
0.0
 40
0.0
 40
0.0
 40
0.2490252138763565
 40
0.4980311639765298
 40
0.7490269204800201
 40
1.0
 40
1.0
 40
1.0
 40
1.0
 10
47.43611998684224
 20
51.12789100492596
 30
0.0
 10
47.3578711140168
 20
51.26853743556035
 30
0.0
 10
47.20137942144282
 20
51.54981941688118
 30
0.0
 10
47.00859653307644
 20
51.97829157344421
 30
0.0
 10
46.84953064784162
 20
52.41150159141523
 30
0.0
 10
46.78257546898047
 20
52.70389553658362
 30
0.0
 10
46.7490993919361
 20
52.85008590456192
 30
0.0
  0
SPLINE
  5
CB
330
1F
100
AcDbEntity
  8
0
  6
Continuous
 62
     7
370
    25
100
AcDbSpline
210
0.0
220
0.0
230
1.0
 70
     8
 71
     3
 72
    11
 73
     7
 74
     0
 42
0.000000001
 43
0.00000001
 40
0.0
 40
0.0
 40
0.0
 40
0.0
 40
0.2488617730236801
 40
0.4977454583558504
 40
0.7488627517928869
 40
1.0
 40
1.0
 40
1.0
 40
1.0
 10
46.7490993919361
 20
39.59074152906638
 30
0.0
 10
46.78225344715243
 20
39.73570390936937
 30
0.0
 10
46.84856447680358
 20
40.02564143393004
 30
0.0
 10
47.00660648288851
 20
40.45768102142448
 30
0.0
 10
47.19945866233527
 20
40.88741909240142
 30
0.0
 10
47.35723078922373
 20
41.17109355976936
 30
0.0
 10
47.43611998684223
 20
41.3129364287023
 30
0.0
  0
LINE
  5
CC
330
1F
100
AcDbEntity
  8
0
  6
Continuous
 62
     7
370
    25
100
AcDbLine
 10
46.7490993919
 20
44.757326228
 30
0.0
 11
46.7490993919
 21
39.5907415291
 31
0.0
  0
SPLINE
  5
CD
330
1F
100
AcDbEntity
  8
0
  6
Continuous
 62
     7
370
    25
100
AcDbSpline
210
0.0
220
0.0
230
1.0
 70
     8
 71
     3
 72
    10
 73
     6
 74
     0
 42
0.000000001
 43
0.00000001
 40
0.0
 40
0.0
 40
0.0
 40
0.0
 40
0.3273333707077128
 40
0.6629523133412114
 40
0.9999999999999999
 40
0.9999999999999999
 40
0.9999999999999999
 40
0.9999999999999999
 10
47.43611998684224
 20
41.3129364287023
 30
0.0
 10
47.33480236074585
 20
41.68305121735357
 30
0.0
 10
47.12960252286308
 20
42.4326492641633
 30
0.0
 10
46.89103710074031
 20
43.58185928471957
 30
0.0
 10
46.79647890874235
 20
44.36494948565309
 30
0.0
 10
46.7490993919361
 20
44.75732622797418
 30
0.0
  0
SPLINE
  5
CE
330
1F
100
AcDbEntity
  8
0
  6
Continuous
 62
     7
370
    25
100
AcDbSpline
210
0.0
220
0.0
230
1.0
 70
     8
 71
     3
 72
    10
 73
     6
 74
     0
 42
0.000000001
 43
0.00000001
 40
0.0
 40
0.0
 40
0.0
 40
0.0
 40
0.3089808900029886
 40
0.6190948628358313
 40
1.0
 40
1.0
 40
1.0
 40
1.0
 10
46.7490993919361
 20
52.85008590456192
 30
0.0
 10
46.72495238539939
 20
53.00053386692978
 30
0.0
 10
46.67656982135281
 20
53.30198150864367
 30
0.0
 10
46.66911472863615
 20
53.79099274723973
 30
0.0
 10
46.72067707643574
 20
54.12761803239793
 30
0.0
 10
46.7490993919361
 20
54.31317339340187
 30
0.0
  0
SPLINE
  5
CF
330
1F
100
AcDbEntity
  8
0
  6
Continuous
 62
     7
370
    25
100
AcDbSpline
210
0.0
220
0.0
230
1.0
 70
     8
 71
     3
 72
    11
 73
     7
 74
     0
 42
0.000000001
 43
0.00000001
 40
0.0
 40
0.0
 40
0.0
 40
0.0
 40
0.2488617730236806
 40
0.4977454583558505
 40
0.7488627517928871
 40
1.0
 40
1.0
 40
1.0
 40
1.0
 10
46.7490993919361
 20
54.31317339340187
 30
0.0
 10
46.78225344715243
 20
54.45813577370485
 30
0.0
 10
46.84856447680358
 20
54.74807329826554
 30
0.0
 10
47.0066064828885
 20
55.18011288576
 30
0.0
 10
47.19945866233527
 20
55.60985095673692
 30
0.0
 10
47.35723078922374
 20
55.89352542410487
 30
0.0
 10
47.43611998684224
 20
56.03536829303781
 30
0.0
  0
LINE
  5
D0
330
1F
100
AcDbEntity
  8
0
  6
Continuous
 62
     7
370
    25
100
AcDbLine
 10
57.1290660951
 20
56.035368293
 30
0.0
 11
47.4361199868
 21
56.035368293
 31
0.0
  0
SPLINE
  5
D1
330
1F
100
AcDbEntity
  8
0
  6
Continuous
 62
     7
370
    25
100
AcDbSpline
210
0.0
220
0.0
230
1.0
 70
     8
 71
     3
 72
    15
 73
    11
 74
     0
 42
0.000000001
 43
0.00000001
 40
0.0
 40
0.0
 40
0.0
 40
0.0
 40
0.1323052378296956
 40
0.2645730682660304
 40
0.3997997819746812
 40
0.5350020935366634
 40
0.6501929590834554
 40
0.7654017933211805
 40
0.8826895567076665
 40
1.0
 40
1.0
 40
1.0
 40
1.0
 10
57.12906609513773
 20
56.03536829303781
 30
0.0
 10
57.24463606697773
 20
55.82334574938132
 30
0.0
 10
57.4757433349189
 20
55.39936060837751
 30
0.0
 10
57.72440596649525
 20
54.74646102272237
 30
0.0
 10
57.87391991364876
 20
54.08125417049951
 30
0.0
 10
57.90353020069715
 20
53.44014352420216
 30
0.0
 10
57.8267087980465
 20
52.83366875933883
 30
0.0
 10
57.66929932692548
 20
52.26130579958645
 30
0.0
 10
57.43839696639449
 20
51.69153065933221
 30
0.0
 10
57.23218303083711
 20
51.31578299826274
 30
0.0
 10
57.12906609513773
 20
51.12789100492596
 30
0.0
  0
LINE
  5
D2
330
1F
100
AcDbEntity
  8
0
  6
Continuous
 62
     7
370
    25
100
AcDbLine
 10
57.1290660951
 20
51.1278910049
 30
0.0
 11
47.4361199868
 21
51.1278910049
 31
0.0
  0
SPLINE
  5
D3
330
1F
100
AcDbEntity
  8
0
  6
Continuous
 62
     7
370
    25
100
AcDbSpline
210
0.0
220
0.0
230
1.0
 70
     8
 71
     3
 72
    11
 73
     7
 74
     0
 42
0.000000001
 43
0.00000001
 40
0.0
 40
0.0
 40
0.0
 40
0.0
 40
0.2858113857726351
 40
0.5527245545033771
 40
0.8220275581359244
 40
0.9999999999999999
 40
0.9999999999999999
 40
0.9999999999999999
 40
0.9999999999999999
 10
46.09958033909776
 20
44.82093872748896
 30
0.0
 10
46.1035206405214
 20
45.08630110618469
 30
0.0
 10
46.11114070556216
 20
45.59947976122693
 30
0.0
 10
46.12260179520917
 20
46.37127899671941
 30
0.0
 10
46.10516440597312
 20
47.0404928240381
 30
0.0
 10
46.10116980471201
 20
47.45496771715554
 30
0.0
 10
46.09958033909776
 20
47.61988870613931
 30
0.0
  0
ARC
  5
D4
330
1F
100
AcDbEntity
  8
0
  6
Continuous
 62
     7
370
    25
100
AcDbCircle
 10
46.1683036034
 20
50.265967807
 30
0.0
 40
2.646971381582813
100
AcDbArc
 50
268.5122636654
 51
282.674909816
  0
SPLINE
  5
D5
330
1F
100
AcDbEntity
  8
0
  6
Continuous
 62
     7
370
    25
100
AcDbSpline
210
0.0
220
0.0
230
1.0
 70
     8
 71
     3
 72
    10
 73
     6
 74
     0
 42
0.000000001
 43
0.00000001
 40
0.0
 40
0.0
 40
0.0
 40
0.0
 40
0.4586421336634354
 40
0.9210522271454904
 40
1.0
 40
1.0
 40
1.0
 40
1.0
 10
46.7490993919361
 20
44.75732622797418
 30
0.0
 10
46.71666175650632
 20
45.20435738472449
 30
0.0
 10
46.65151999528766
 20
46.1020922684333
 30
0.0
 10
46.6930747768352
 20
47.08030956465388
 30
0.0
 10
46.74196900602985
 20
47.6067315720207
 30
0.0
 10
46.74909939193609
 20
47.6835012056541
 30
0.0
  0
ARC
  5
D6
330
1F
100
AcDbEntity
  8
0
  6
Continuous
 62
     7
370
    25
100
AcDbCircle
 10
46.1683036034
 20
42.1748596267
 30
0.0
 40
2.646971381583182
100
AcDbArc
 50
77.325090184
 51
91.4877363346
  0
SPLINE
  5
D7
330
1F
100
AcDbEntity
  8
0
  6
Continuous
 62
     7
370
    25
100
AcDbSpline
210
0.0
220
0.0
230
1.0
 70
     8
 71
     3
 72
    16
 73
    12
 74
     0
 42
0.000000001
 43
0.00000001
 40
0.0
 40
0.0
 40
0.0
 40
0.0
 40
0.0943034347978452
 40
0.1885977507141886
 40
0.2837893215986492
 40
0.3789705446812173
 40
0.5045422210106495
 40
0.6301147857408411
 40
0.759034387482324
 40
0.8879898546356781
 40
1.0
 40
1.0
 40
1.0
 40
1.0
 10
57.12906609513773
 20
51.12789100492596
 30
0.0
 10
57.21274439783841
 20
50.82603734986232
 30
0.0
 10
57.38009291177919
 20
50.22235922814919
 30
0.0
 10
57.58348834872275
 20
49.30158072219712
 30
0.0
 10
57.74290494600018
 20
48.36929336473712
 30
0.0
 10
57.86046006333039
 20
47.32596573796685
 30
0.0
 10
57.90517473993353
 20
46.17525298419454
 30
0.0
 10
57.84859456194868
 20
44.91272577827687
 30
0.0
 10
57.68343204592265
 20
43.64875602421778
 30
0.0
 10
57.44000354300569
 20
42.44346648248036
 30
0.0
 10
57.22773618212581
 20
41.67168864563145
 30
0.0
 10
57.12906609513773
 20
41.3129364287023
 30
0.0
  0
LINE
  5
D8
330
1F
100
AcDbEntity
  8
0
  6
Continuous
 62
     7
370
    25
100
AcDbLine
 10
57.1290660951
 20
41.3129364287
 30
0.0
 11
47.4361199868
 21
41.3129364287
 31
0.0
  0
SPLINE
  5
D9
330
1F
100
AcDbEntity
  8
0
  6
Continuous
 62
     7
370
    25
100
AcDbSpline
210
0.0
220
0.0
230
1.0
 70
     8
 71
     3
 72
    15
 73
    11
 74
     0
 42
0.000000001
 43
0.00000001
 40
0.0
 40
0.0
 40
0.0
 40
0.0
 40
0.1323052378296956
 40
0.2645730682660304
 40
0.3997997819746812
 40
0.5350020935366634
 40
0.6501929590834554
 40
0.7654017933211806
 40
0.8826895567076666
 40
1.0
 40
1.0
 40
1.0
 40
1.0
 10
57.12906609513773
 20
41.3129364287023
 30
0.0
 10
57.24463606697773
 20
41.10091388504581
 30
0.0
 10
57.47574333491889
 20
40.67692874404199
 30
0.0
 10
57.72440596649524
 20
40.02402915838687
 30
0.0
 10
57.87391991364877
 20
39.35882230616402
 30
0.0
 10
57.90353020069714
 20
38.71771165986669
 30
0.0
 10
57.82670879804651
 20
38.11123689500335
 30
0.0
 10
57.66929932692548
 20
37.53887393525097
 30
0.0
 10
57.43839696639449
 20
36.96909879499674
 30
0.0
 10
57.23218303083711
 20
36.59335113392729
 30
0.0
 10
57.12906609513773
 20
36.40545914059052
 30
0.0
  0
LINE
  5
DA
330
1F
100
AcDbEntity
  8
0
  6
Continuous
 62
     7
370
    25
100
AcDbLine
 10
58.032593041
 20
54.4704137168
 30
0.0
 11
58.032593041
 21
37.9704137168
 31
0.0
  0
LINE
  5
DB
330
1F
100
AcDbEntity
  8
0
  6
Continuous
 62
     7
370
    25
100
AcDbLine
 10
46.0995803391
 20
47.6198887061
 30
0.0
 11
46.0995803391
 21
52.5618392877
 31
0.0
  0
ARC
  5
DC
330
1F
100
AcDbEntity
  8
0
  6
Continuous
 62
     7
370
    25
100
AcDbCircle
 10
46.1285326387
 20
53.3725183111
 30
0.0
 40
0.8111958547050635
100
AcDbArc
 50
267.9546284054
 51
319.9072030665
  0
LINE
  5
DD
330
1F
100
AcDbEntity
  8
0
  6
Continuous
 62
     7
370
    25
100
AcDbLine
 10
46.0995803391
 20
39.8789881459
 30
0.0
 11
46.0995803391
 21
44.8209387275
 31
0.0
  0
ARC
  5
DE
330
1F
100
AcDbEntity
  8
0
  6
Continuous
 62
     7
370
    25
100
AcDbCircle
 10
46.1285326387
 20
39.0683091225
 30
0.0
 40
0.8111958547160877
100
AcDbArc
 50
40.0927969339
 51
92.0453715942
  0
SPLINE
  5
DF
330
1F
100
AcDbEntity
  8
0
  6
Continuous
 62
     7
370
    25
100
AcDbSpline
210
0.0
220
0.0
230
1.0
 70
     8
 71
     3
 72
    10
 73
     6
 74
     0
 42
0.000000001
 43
0.00000001
 40
0.0
 40
0.0
 40
0.0
 40
0.0
 40
0.308980890002988
 40
0.61909486283583
 40
1.0
 40
1.0
 40
1.0
 40
1.0
 10
46.7490993919361
 20
38.12765404022644
 30
0.0
 10
46.72495238539938
 20
38.2781020025943
 30
0.0
 10
46.67656982135281
 20
38.57954964430818
 30
0.0
 10
46.66911472863615
 20
39.06856088290424
 30
0.0
 10
46.72067707643575
 20
39.40518616806245
 30
0.0
 10
46.7490993919361
 20
39.59074152906638
 30
0.0
  0
LINE
  5
E0
330
1F
100
AcDbEntity
  8
0
  6
Continuous
 62
     7
370
    25
100
AcDbLine
 10
57.1290660951
 20
36.4054591406
 30
0.0
 11
47.4361199868
 21
36.4054591406
 31
0.0
  0
SPLINE
  5
E1
330
1F
100
AcDbEntity
  8
0
  6
Continuous
 62
     7
370
    25
100
AcDbSpline
210
0.0
220
0.0
230
1.0
 70
     8
 71
     3
 72
    11
 73
     7
 74
     0
 42
0.000000001
 43
0.00000001
 40
0.0
 40
0.0
 40
0.0
 40
0.0
 40
0.2490252138763567
 40
0.49803116397653
 40
0.7490269204800202
 40
1.0
 40
1.0
 40
1.0
 40
1.0
 10
47.43611998684224
 20
36.40545914059052
 30
0.0
 10
47.3578711140168
 20
36.5461055712249
 30
0.0
 10
47.20137942144283
 20
36.82738755254573
 30
0.0
 10
47.00859653307644
 20
37.25585970910873
 30
0.0
 10
46.84953064784163
 20
37.68906972707975
 30
0.0
 10
46.78257546898048
 20
37.98146367224815
 30
0.0
 10
46.7490993919361
 20
38.12765404022644
 30
0.0
  0
SPLINE
  5
E2
330
1F
100
AcDbEntity
  8
0
  6
Continuous
 62
     7
370
    25
100
AcDbSpline
210
0.0
220
0.0
230
1.0
 70
     8
 71
     3
 72
    11
 73
     7
 74
     0
 42
0.000000001
 43
0.00000001
 40
0.0
 40
0.0
 40
0.0
 40
0.0
 40
0.2858113857234035
 40
0.5527245545213753
 40
0.822027558222934
 40
1.0
 40
1.0
 40
1.0
 40
1.0
 10
46.09958033909776
 20
38.47951315659982
 30
0.0
 10
46.10352064052029
 20
38.57918324918068
 30
0.0
 10
46.11114070556049
 20
38.77193311945411
 30
0.0
 10
46.12260179521142
 20
39.14366996026477
 30
0.0
 10
46.10516440596979
 20
39.51209965032241
 30
0.0
 10
46.10116980471055
 20
39.77455589952604
 30
0.0
 10
46.09958033909776
 20
39.87898814592499
 30
0.0
  0
SPLINE
  5
E3
330
1F
100
AcDbEntity
  8
0
  6
Continuous
 62
     7
370
    25
100
AcDbSpline
210
0.0
220
0.0
230
1.0
 70
     8
 71
     3
 72
    11
 73
     7
 74
     0
 42
0.000000001
 43
0.00000001
 40
0.0
 40
0.0
 40
0.0
 40
0.0
 40
0.2858113857233873
 40
0.5527245545213872
 40
0.822027558222975
 40
1.0
 40
1.0
 40
1.0
 40
1.0
 10
46.09958033909776
 20
52.56183928770332
 30
0.0
 10
46.10352064052029
 20
52.72753157377223
 30
0.0
 10
46.11114070556049
 20
53.04796035855726
 30
0.0
 10
46.12260179521142
 20
53.44802275332129
 30
0.0
 10
46.1051644059698
 20
53.74880689062807
 30
0.0
 10
46.10116980471054
 20
53.90082553452456
 30
0.0
 10
46.09958033909776
 20
53.96131427702849
 30
0.0
  0
LINE
  5
E4
330
1F
100
AcDbEntity
  8
0
  6
Continuous
 62
     7
370
    25
100
AcDbLine
 10
45.232593041
 20
54.4704137168
 30
0.0
 11
45.232593041
 21
37.9704137168
 31
0.0
  0
LINE
  5
E5
330
1F
100
AcDbEntity
  8
0
  6
Continuous
 62
     7
370
    25
100
AcDbLine
 10
45.032593041
 20
38.1704137168
 30
0.0
 11
45.032593041
 21
54.2704137168
 31
0.0
  0
ARC
  5
E6
330
1F
100
AcDbEntity
  8
0
  6
Continuous
 62
     7
370
    25
100
AcDbCircle
 10
46.1080438738
 20
54.7211146613
 30
0.0
 40
0.759847521115807
100
AcDbArc
 50
269.3617997903
 51
327.5290082721
  0
ARC
  5
E7
330
1F
100
AcDbEntity
  8
0
  6
Continuous
 62
     7
370
    25
100
AcDbCircle
 10
46.1080438738
 20
37.7197127723
 30
0.0
 40
0.7598475211157641
100
AcDbArc
 50
32.4709917279
 51
90.6382002097
  0
LINE
  5
E8
330
1F
100
AcDbEntity
  8
0
  6
Continuous
 62
     7
370
    25
100
AcDbLine
 10
64.4252645584
 20
46.2204137168
 30
0.0
 11
64.4252645584
 21
52.2825915433
 31
0.0
  0
SPLINE
  5
E9
330
1F
100
AcDbEntity
  8
0
  6
Continuous
 62
     7
370
    25
100
AcDbSpline
210
0.0
220
0.0
230
1.0
 70
     8
 71
     3
 72
    10
 73
     6
 74
     0
 42
0.000000001
 43
0.00000001
 40
0.0
 40
0.0
 40
0.0
 40
0.0
 40
0.5
 40
0.5
 40
1.0
 40
1.0
 40
1.0
 40
1.0
 10
65.05047934078664
 20
50.26186560114152
 30
0.0
 10
64.85962812713034
 20
50.5924295998804
 30
0.0
 10
64.70239500597371
 20
50.92540826149887
 30
0.0
 10
64.48485096884545
 20
51.59832714720606
 30
0.0
 10
64.42526455844785
 20
51.93831940984266
 30
0.0
 10
64.42526455844785
 20
52.28259154330524
 30
0.0
  0
SPLINE
  5
EA
330
1F
100
AcDbEntity
  8
0
  6
Continuous
 62
     7
370
    25
100
AcDbSpline
210
0.0
220
0.0
230
1.0
 70
     8
 71
     3
 72
    10
 73
     6
 74
     0
 42
0.000000001
 43
0.00000001
 40
0.0
 40
0.0
 40
0.0
 40
0.0
 40
0.5
 40
0.5
 40
1.0
 40
1.0
 40
1.0
 40
1.0
 10
64.42526455844785
 20
46.22041371681416
 30
0.0
 10
64.42526455844785
 20
46.90436702605311
 30
0.0
 10
64.48570921744056
 20
47.59724637255757
 30
0.0
 10
64.7047481333794
 20
48.94629928573688
 30
0.0
 10
64.86180028161733
 20
49.60826216752879
 30
0.0
 10
65.05047934078713
 20
50.26186560114155
 30
0.0
  0
LINE
  5
EB
330
1F
100
AcDbEntity
  8
0
  6
Continuous
 62
     7
370
    25
100
AcDbLine
 10
64.4252645584
 20
40.1582358903
 30
0.0
 11
64.4252645584
 21
46.2204137168
 31
0.0
  0
SPLINE
  5
EC
330
1F
100
AcDbEntity
  8
0
  6
Continuous
 62
     7
370
    25
100
AcDbSpline
210
0.0
220
0.0
230
1.0
 70
     8
 71
     3
 72
    10
 73
     6
 74
     0
 42
0.000000001
 43
0.00000001
 40
0.0
 40
0.0
 40
0.0
 40
0.0
 40
0.5
 40
0.5
 40
1.0
 40
1.0
 40
1.0
 40
1.0
 10
65.05047934078712
 20
42.17896183248678
 30
0.0
 10
64.86057759968728
 20
42.83680076054819
 30
0.0
 10
64.70153678555415
 20
43.50979704425093
 30
0.0
 10
64.4840491312531
 20
44.85841692848857
 30
0.0
 10
64.42526455844785
 20
45.53693787991725
 30
0.0
 10
64.42526455844785
 20
46.22041371681416
 30
0.0
  0
SPLINE
  5
ED
330
1F
100
AcDbEntity
  8
0
  6
Continuous
 62
     7
370
    25
100
AcDbSpline
210
0.0
220
0.0
230
1.0
 70
     8
 71
     3
 72
    12
 73
     8
 74
     0
 42
0.000000001
 43
0.00000001
 40
0.0
 40
0.0
 40
0.0
 40
0.0
 40
0.2499999999999998
 40
0.2499999999999998
 40
0.4999999999999997
 40
0.4999999999999997
 40
1.0
 40
1.0
 40
1.0
 40
1.0
 10
64.42526455844784
 20
40.15823589032309
 30
0.0
 10
64.42526455844784
 20
40.32972843711932
 30
0.0
 10
64.44004231690833
 20
40.50199004105163
 30
0.0
 10
64.49723051790359
 20
40.84275944582345
 30
0.0
 10
64.53958598762642
 20
41.01200441158748
 30
0.0
 10
64.70294656249905
 20
41.51673337326829
 30
0.0
 10
64.86010461198951
 20
41.84922312973262
 30
0.0
 10
65.05047934078688
 20
42.17896183248681
 30
0.0
  0
SPLINE
  5
EE
330
1F
100
AcDbEntity
  8
0
  6
Continuous
 62
     7
370
    25
100
AcDbSpline
210
0.0
220
0.0
230
1.0
 70
     8
 71
     3
 72
    10
 73
     6
 74
     0
 42
0.000000001
 43
0.00000001
 40
0.0
 40
0.0
 40
0.0
 40
0.0
 40
0.5
 40
0.5
 40
1.0
 40
1.0
 40
1.0
 40
1.0
 10
68.51137464151424
 20
50.26186560114152
 30
0.0
 10
68.70222585517055
 20
50.5924295998804
 30
0.0
 10
68.85945897632718
 20
50.92540826149887
 30
0.0
 10
69.07700301345544
 20
51.59832714720606
 30
0.0
 10
69.13658942385304
 20
51.93831940984266
 30
0.0
 10
69.13658942385304
 20
52.28259154330524
 30
0.0
  0
LINE
  5
EF
330
1F
100
AcDbEntity
  8
0
  6
Continuous
 62
     7
370
    25
100
AcDbLine
 10
69.1365894239
 20
46.2204137168
 30
0.0
 11
69.1365894239
 21
52.2825915433
 31
0.0
  0
SPLINE
  5
F0
330
1F
100
AcDbEntity
  8
0
  6
Continuous
 62
     7
370
    25
100
AcDbSpline
210
0.0
220
0.0
230
1.0
 70
     8
 71
     3
 72
    10
 73
     6
 74
     0
 42
0.000000001
 43
0.00000001
 40
0.0
 40
0.0
 40
0.0
 40
0.0
 40
0.5
 40
0.5
 40
1.0
 40
1.0
 40
1.0
 40
1.0
 10
69.13658942385304
 20
46.22041371681416
 30
0.0
 10
69.13658942385304
 20
46.90436702605311
 30
0.0
 10
69.07614476486033
 20
47.59724637255757
 30
0.0
 10
68.85710584892149
 20
48.94629928573688
 30
0.0
 10
68.70005370068355
 20
49.60826216752879
 30
0.0
 10
68.51137464151375
 20
50.26186560114155
 30
0.0
  0
LINE
  5
F1
330
1F
100
AcDbEntity
  8
0
  6
Continuous
 62
     7
370
    25
100
AcDbLine
 10
69.1365894239
 20
40.1582358903
 30
0.0
 11
69.1365894239
 21
46.2204137168
 31
0.0
  0
SPLINE
  5
F2
330
1F
100
AcDbEntity
  8
0
  6
Continuous
 62
     7
370
    25
100
AcDbSpline
210
0.0
220
0.0
230
1.0
 70
     8
 71
     3
 72
    10
 73
     6
 74
     0
 42
0.000000001
 43
0.00000001
 40
0.0
 40
0.0
 40
0.0
 40
0.0
 40
0.5
 40
0.5
 40
1.0
 40
1.0
 40
1.0
 40
1.0
 10
65.05047934078664
 20
38.13750994815937
 30
0.0
 10
64.85962812713034
 20
38.46807394689825
 30
0.0
 10
64.70239500597371
 20
38.80105260851672
 30
0.0
 10
64.48485096884544
 20
39.47397149422392
 30
0.0
 10
64.42526455844784
 20
39.81396375686051
 30
0.0
 10
64.42526455844784
 20
40.15823589032309
 30
0.0
  0
LINE
  5
F3
330
1F
100
AcDbEntity
  8
0
  6
Continuous
 62
     7
370
    25
100
AcDbLine
 10
68.5113746415
 20
42.1789618325
 30
0.0
 11
65.0504793408
 21
42.1789618325
 31
0.0
  0
SPLINE
  5
F4
330
1F
100
AcDbEntity
  8
0
  6
Continuous
 62
     7
370
    25
100
AcDbSpline
210
0.0
220
0.0
230
1.0
 70
     8
 71
     3
 72
    12
 73
     8
 74
     0
 42
0.000000001
 43
0.00000001
 40
0.0
 40
0.0
 40
0.0
 40
0.0
 40
0.2499999999999998
 40
0.2499999999999998
 40
0.4999999999999997
 40
0.4999999999999997
 40
1.0
 40
1.0
 40
1.0
 40
1.0
 10
69.13658942385305
 20
40.15823589032309
 30
0.0
 10
69.13658942385305
 20
40.32972843711932
 30
0.0
 10
69.12181166539256
 20
40.50199004105163
 30
0.0
 10
69.0646234643973
 20
40.84275944582345
 30
0.0
 10
69.02226799467446
 20
41.01200441158748
 30
0.0
 10
68.85890741980184
 20
41.51673337326829
 30
0.0
 10
68.70174937031138
 20
41.84922312973262
 30
0.0
 10
68.51137464151401
 20
42.17896183248681
 30
0.0
  0
SPLINE
  5
F5
330
1F
100
AcDbEntity
  8
0
  6
Continuous
 62
     7
370
    25
100
AcDbSpline
210
0.0
220
0.0
230
1.0
 70
     8
 71
     3
 72
    10
 73
     6
 74
     0
 42
0.000000001
 43
0.00000001
 40
0.0
 40
0.0
 40
0.0
 40
0.0
 40
0.5
 40
0.5
 40
1.0
 40
1.0
 40
1.0
 40
1.0
 10
68.51137464151424
 20
38.13750994815937
 30
0.0
 10
68.70222585517055
 20
38.46807394689825
 30
0.0
 10
68.85945897632718
 20
38.80105260851672
 30
0.0
 10
69.07700301345545
 20
39.47397149422392
 30
0.0
 10
69.13658942385305
 20
39.81396375686051
 30
0.0
 10
69.13658942385305
 20
40.15823589032309
 30
0.0
  0
LINE
  5
F6
330
1F
100
AcDbEntity
  8
0
  6
Continuous
 62
     7
370
    25
100
AcDbLine
 10
68.5113746415
 20
38.1375099482
 30
0.0
 11
65.0504793408
 21
38.1375099482
 31
0.0
  0
SPLINE
  5
F7
330
1F
100
AcDbEntity
  8
0
  6
Continuous
 62
     7
370
    25
100
AcDbSpline
210
0.0
220
0.0
230
1.0
 70
     8
 71
     3
 72
    12
 73
     8
 74
     0
 42
0.000000001
 43
0.00000001
 40
0.0
 40
0.0
 40
0.0
 40
0.0
 40
0.2499999999999999
 40
0.2499999999999999
 40
0.4999999999999998
 40
0.4999999999999998
 40
1.0
 40
1.0
 40
1.0
 40
1.0
 10
64.42526455844785
 20
52.28259154330524
 30
0.0
 10
64.42526455844785
 20
52.45408409010147
 30
0.0
 10
64.44004231690833
 20
52.62634569403378
 30
0.0
 10
64.49723051790359
 20
52.9671150988056
 30
0.0
 10
64.53958598762642
 20
53.13636006456963
 30
0.0
 10
64.70294656249905
 20
53.64108902625044
 30
0.0
 10
64.86010461198951
 20
53.97357878271476
 30
0.0
 10
65.05047934078688
 20
54.30331748546894
 30
0.0
  0
LINE
  5
F8
330
1F
100
AcDbEntity
  8
0
  6
Continuous
 62
     7
370
    25
100
AcDbLine
 10
68.5113746415
 20
54.3033174855
 30
0.0
 11
65.0504793408
 21
54.3033174855
 31
0.0
  0
SPLINE
  5
F9
330
1F
100
AcDbEntity
  8
0
  6
Continuous
 62
     7
370
    25
100
AcDbSpline
210
0.0
220
0.0
230
1.0
 70
     8
 71
     3
 72
    12
 73
     8
 74
     0
 42
0.000000001
 43
0.00000001
 40
0.0
 40
0.0
 40
0.0
 40
0.0
 40
0.2499999999999999
 40
0.2499999999999999
 40
0.4999999999999998
 40
0.4999999999999998
 40
1.0
 40
1.0
 40
1.0
 40
1.0
 10
69.13658942385304
 20
52.28259154330524
 30
0.0
 10
69.13658942385304
 20
52.45408409010147
 30
0.0
 10
69.12181166539256
 20
52.62634569403378
 30
0.0
 10
69.0646234643973
 20
52.9671150988056
 30
0.0
 10
69.02226799467446
 20
53.13636006456963
 30
0.0
 10
68.85890741980184
 20
53.64108902625044
 30
0.0
 10
68.70174937031138
 20
53.97357878271476
 30
0.0
 10
68.51137464151401
 20
54.30331748546894
 30
0.0
  0
LINE
  5
FA
330
1F
100
AcDbEntity
  8
0
  6
Continuous
 62
     7
370
    25
100
AcDbLine
 10
68.5113746415
 20
50.2618656011
 30
0.0
 11
65.0504793408
 21
50.2618656011
 31
0.0
  0
SPLINE
  5
FB
330
1F
100
AcDbEntity
  8
0
  6
Continuous
 62
     7
370
    25
100
AcDbSpline
210
0.0
220
0.0
230
1.0
 70
     8
 71
     3
 72
    10
 73
     6
 74
     0
 42
0.000000001
 43
0.00000001
 40
0.0
 40
0.0
 40
0.0
 40
0.0
 40
0.5
 40
0.5
 40
1.0
 40
1.0
 40
1.0
 40
1.0
 10
68.51137464151377
 20
42.17896183248678
 30
0.0
 10
68.70127638261361
 20
42.83680076054819
 30
0.0
 10
68.86031719674673
 20
43.50979704425093
 30
0.0
 10
69.07780485104779
 20
44.85841692848857
 30
0.0
 10
69.13658942385304
 20
45.53693787991725
 30
0.0
 10
69.13658942385304
 20
46.22041371681416
 30
0.0
  0
LINE
  5
FC
330
1F
100
AcDbEntity
  8
0
  6
Continuous
 62
     7
370
    25
100
AcDbLine
 10
70.2809269912
 20
52.7704137168
 30
0.0
 11
70.2809269912
 21
39.6704137168
 31
0.0
  0
LINE
  5
FD
330
1F
100
AcDbEntity
  8
0
  6
Continuous
 62
     7
370
    25
100
AcDbLine
 10
70.0809269912
 20
39.4704137168
 30
0.0
 11
70.0809269912
 21
52.9704137168
 31
0.0
  0
LINE
  5
FE
330
1F
100
AcDbEntity
  8
0
  6
Continuous
 62
     7
370
    25
100
AcDbLine
 10
63.4809269912
 20
39.4704137168
 30
0.0
 11
63.4809269912
 21
52.9704137168
 31
0.0
  0
LINE
  5
FF
330
1F
100
AcDbEntity
  8
0
  6
Continuous
 62
     7
370
    25
100
AcDbLine
 10
63.2809269912
 20
52.7704137168
 30
0.0
 11
63.2809269912
 21
39.6704137168
 31
0.0
  0
LINE
  5
100
330
1F
100
AcDbEntity
  8
0
  6
Continuous
 62
     7
370
    25
100
AcDbLine
 10
73.2809269912
 20
52.7989137168
 30
0.0
 11
73.2809269912
 21
39.6419137168
 31
0.0
  0
LINE
  5
101
330
1F
100
AcDbEntity
  8
0
  6
Continuous
 62
     7
370
    25
100
AcDbLine
 10
72.2809269912
 20
40.6419137168
 30
0.0
 11
72.2809269912
 21
51.7989137168
 31
0.0
  0
LINE
  5
102
330
1F
100
AcDbEntity
  8
0
  6
Continuous
 62
     7
370
    25
100
AcDbLine
 10
61.2809269912
 20
40.6419137168
 30
0.0
 11
61.2809269912
 21
51.7989137168
 31
0.0
  0
LINE
  5
103
330
1F
100
AcDbEntity
  8
0
  6
Continuous
 62
     7
370
    25
100
AcDbLine
 10
60.2809269912
 20
52.7989137168
 30
0.0
 11
60.2809269912
 21
39.6419137168
 31
0.0
  0
LINE
  5
104
330
1F
100
AcDbEntity
  8
0
  6
Continuous
 62
     1
370
    25
100
AcDbLine
 10
87.4622736432
 20
38.4795131566
 30
0.0
 11
87.4622736432
 21
37.9704137168
 31
0.0
  0
LINE
  5
105
330
1F
100
AcDbEntity
  8
0
  6
Continuous
 62
     1
370
    25
100
AcDbLine
 10
87.4622736432
 20
54.4704137168
 30
0.0
 11
87.4622736432
 21
53.961314277
 31
0.0
  0
LINE
  5
106
330
1F
100
AcDbEntity
  8
0
  6
Continuous
 62
     1
370
    25
100
AcDbLine
 10
86.8127545904
 20
54.3131733934
 30
0.0
 11
86.8127545904
 21
54.8454137168
 31
0.0
  0
LINE
  5
107
330
1F
100
AcDbEntity
  8
0
  6
Continuous
 62
     1
370
    25
100
AcDbLine
 10
86.8127545904
 20
37.5954137168
 30
0.0
 11
86.8127545904
 21
38.1276540402
 31
0.0
  0
LINE
  5
108
330
1F
100
AcDbEntity
  8
0
  6
Continuous
 62
     1
370
    25
100
AcDbLine
 10
46.0995803391
 20
37.9704137168
 30
0.0
 11
46.0995803391
 21
38.4795131566
 31
0.0
  0
LINE
  5
109
330
1F
100
AcDbEntity
  8
0
  6
Continuous
 62
     1
370
    25
100
AcDbLine
 10
46.0995803391
 20
53.961314277
 30
0.0
 11
46.0995803391
 21
54.4704137168
 31
0.0
  0
LINE
  5
10A
330
1F
100
AcDbEntity
  8
0
  6
Continuous
 62
     1
370
    25
100
AcDbLine
 10
46.7490993919
 20
54.8454137168
 30
0.0
 11
46.7490993919
 21
54.3131733934
 31
0.0
  0
LINE
  5
10B
330
1F
100
AcDbEntity
  8
0
  6
Continuous
 62
     1
370
    25
100
AcDbLine
 10
46.7490993919
 20
38.1276540402
 30
0.0
 11
46.7490993919
 21
37.5954137168
 31
0.0
  0
LINE
  5
10C
330
1F
100
AcDbEntity
  8
0
  6
Continuous
 62
     1
370
    25
100
AcDbLine
 10
64.4252645584
 20
52.2825915433
 30
0.0
 11
64.4252645584
 21
53.2204137168
 31
0.0
  0
LINE
  5
10D
330
1F
100
AcDbEntity
  8
0
  6
Continuous
 62
     1
370
    25
100
AcDbLine
 10
64.4252645584
 20
39.2204137168
 30
0.0
 11
64.4252645584
 21
40.1582358903
 31
0.0
  0
LINE
  5
10E
330
1F
100
AcDbEntity
  8
0
  6
Continuous
 62
     1
370
    25
100
AcDbLine
 10
63.9922518566
 20
46.2204137168
 30
0.0
 11
63.9922518566
 21
39.4704137168
 31
0.0
  0
LINE
  5
10F
330
1F
100
AcDbEntity
  8
0
  6
Continuous
 62
     1
370
    25
100
AcDbLine
 10
63.9922518566
 20
52.9704137168
 30
0.0
 11
63.9922518566
 21
46.2204137168
 31
0.0
  0
LINE
  5
110
330
1F
100
AcDbEntity
  8
0
  6
Continuous
 62
     1
370
    25
100
AcDbLine
 10
69.1365894239
 20
52.2825915433
 30
0.0
 11
69.1365894239
 21
53.2204137168
 31
0.0
  0
LINE
  5
111
330
1F
100
AcDbEntity
  8
0
  6
Continuous
 62
     1
370
    25
100
AcDbLine
 10
69.1365894239
 20
39.2204137168
 30
0.0
 11
69.1365894239
 21
40.1582358903
 31
0.0
  0
LINE
  5
112
330
1F
100
AcDbEntity
  8
0
  6
Continuous
 62
     1
370
    25
100
AcDbLine
 10
69.5696021257
 20
46.2204137168
 30
0.0
 11
69.5696021257
 21
39.4704137168
 31
0.0
  0
LINE
  5
113
330
1F
100
AcDbEntity
  8
0
  6
Continuous
 62
     1
370
    25
100
AcDbLine
 10
69.5696021257
 20
52.9704137168
 30
0.0
 11
69.5696021257
 21
46.2204137168
 31
0.0
  0
CIRCLE
  5
114
330
1F
100
AcDbEntity
  8
0
  6
Continuous
 62
     7
370
    25
100
AcDbCircle
 10
120.3738030973
 20
46.2204137168
 30
0.0
 40
4.05
  0
CIRCLE
  5
115
330
1F
100
AcDbEntity
  8
0
  6
Continuous
 62
     7
370
    25
100
AcDbCircle
 10
120.3738030973
 20
46.2204137168
 30
0.0
 40
8.049999999999997
  0
CIRCLE
  5
116
330
1F
100
AcDbEntity
  8
0
  6
Continuous
 62
     7
370
    25
100
AcDbCircle
 10
120.3738030973
 20
46.2204137168
 30
0.0
 40
4.174999999999997
  0
CIRCLE
  5
117
330
1F
100
AcDbEntity
  8
0
  6
Continuous
 62
     7
370
    25
100
AcDbCircle
 10
120.3738030973
 20
46.2204137168
 30
0.0
 40
4.074999999999989
  0
CIRCLE
  5
118
330
1F
100
AcDbEntity
  8
0
  6
Continuous
 62
     7
370
    25
100
AcDbCircle
 10
120.3738030973
 20
46.2204137168
 30
0.0
 40
8.249999999999986
  0
SPLINE
  5
119
330
1F
100
AcDbEntity
  8
0
  6
Continuous
 62
     7
370
    25
100
AcDbSpline
210
0.0
220
0.0
230
1.0
 70
    24
 71
     3
 72
    10
 73
     6
 74
     0
 42
0.000000001
 43
0.00000001
 40
0.0
 40
0.0
 40
0.0
 40
0.0
 40
0.3089808900030074
 40
0.6190948628358686
 40
1.0
 40
1.0
 40
1.0
 40
1.0
 10
117.3908740306395
 20
54.3131733934018
 30
0.0
 10
117.1302905159232
 20
54.16272543103396
 30
0.0
 10
116.6081678846529
 20
53.86127778932009
 30
0.0
 10
115.7611755739325
 20
53.3722665507241
 30
0.0
 10
115.1781234769262
 20
53.03564126556595
 30
0.0
 10
114.8567321640507
 20
52.85008590456206
 30
0.0
  0
LINE
  5
11A
330
1F
100
AcDbEntity
  8
0
  6
Continuous
 62
     7
370
    25
100
AcDbLine
 10
117.3908740306
 20
54.3131733934
 30
0.0
 11
117.5205665988
 21
53.961314277
 31
0.0
  0
LINE
  5
11B
330
1F
100
AcDbEntity
  8
0
  6
Continuous
 62
     7
370
    25
100
AcDbLine
 10
114.8567321641
 20
52.8500859046
 30
0.0
 11
115.0966048133
 21
52.5618392877
 31
0.0
  0
SPLINE
  5
11C
330
1F
100
AcDbEntity
  8
0
  6
Continuous
 62
     7
370
    25
100
AcDbSpline
210
0.0
220
0.0
230
1.0
 70
    24
 71
     3
 72
    10
 73
     6
 74
     0
 42
0.000000001
 43
0.00000001
 40
0.0
 40
0.0
 40
0.0
 40
0.0
 40
0.3089808900029885
 40
0.6190948628358308
 40
1.0
 40
1.0
 40
1.0
 40
1.0
 10
125.8908740306397
 20
52.85008590456194
 30
0.0
 10
125.6302905159233
 20
53.00053386692979
 30
0.0
 10
125.108167884653
 20
53.30198150864369
 30
0.0
 10
124.2611755739325
 20
53.79099274723974
 30
0.0
 10
123.6781234769261
 20
54.12761803239794
 30
0.0
 10
123.3567321640505
 20
54.31317339340188
 30
0.0
  0
LINE
  5
11D
330
1F
100
AcDbEntity
  8
0
  6
Continuous
 62
     7
370
    25
100
AcDbLine
 10
125.8908740306
 20
52.8500859046
 30
0.0
 11
125.6510013814
 21
52.5618392877
 31
0.0
  0
LINE
  5
11E
330
1F
100
AcDbEntity
  8
0
  6
Continuous
 62
     7
370
    25
100
AcDbLine
 10
123.3567321641
 20
54.3131733934
 30
0.0
 11
123.2270395959
 21
53.961314277
 31
0.0
  0
LINE
  5
11F
330
1F
100
AcDbEntity
  8
0
  6
Continuous
 62
     7
370
    25
100
AcDbLine
 10
117.5205665988
 20
38.4795131566
 30
0.0
 11
117.3908740306
 21
38.1276540402
 31
0.0
  0
SPLINE
  5
120
330
1F
100
AcDbEntity
  8
0
  6
Continuous
 62
     7
370
    25
100
AcDbSpline
210
0.0
220
0.0
230
1.0
 70
    24
 71
     3
 72
    10
 73
     6
 74
     0
 42
0.000000001
 43
0.00000001
 40
0.0
 40
0.0
 40
0.0
 40
0.0
 40
0.3089808900029883
 40
0.6190948628358307
 40
1.0
 40
1.0
 40
1.0
 40
1.0
 10
114.8567321640505
 20
39.59074152906644
 30
0.0
 10
115.1173156787668
 20
39.44029356669858
 30
0.0
 10
115.6394383100371
 20
39.13884592498468
 30
0.0
 10
116.4864306207577
 20
38.64983468638862
 30
0.0
 10
117.0694827177641
 20
38.31320940123041
 30
0.0
 10
117.3908740306397
 20
38.12765404022647
 30
0.0
  0
LINE
  5
121
330
1F
100
AcDbEntity
  8
0
  6
Continuous
 62
     7
370
    25
100
AcDbLine
 10
115.0966048133
 20
39.8789881459
 30
0.0
 11
114.8567321641
 21
39.5907415291
 31
0.0
  0
LINE
  5
122
330
1F
100
AcDbEntity
  8
0
  6
Continuous
 62
     7
370
    25
100
AcDbLine
 10
112.2433683147
 20
44.8209387275
 30
0.0
 11
111.8738030973
 21
44.757326228
 31
0.0
  0
SPLINE
  5
123
330
1F
100
AcDbEntity
  8
0
  6
Continuous
 62
     7
370
    25
100
AcDbSpline
210
0.0
220
0.0
230
1.0
 70
    24
 71
     3
 72
    10
 73
     6
 74
     0
 42
0.000000001
 43
0.00000001
 40
0.0
 40
0.0
 40
0.0
 40
0.0
 40
0.0789477693778934
 40
0.5375793028234307
 40
1.0
 40
1.0
 40
1.0
 40
1.0
 10
111.8738030973451
 20
47.68350120565418
 30
0.0
 10
111.8738030973451
 20
47.60673155128578
 30
0.0
 10
111.8738030973451
 20
47.08398369408138
 30
0.0
 10
111.8738030973451
 20
46.1058119881822
 30
0.0
 10
111.8738030973451
 20
45.20805259409133
 30
0.0
 10
111.8738030973451
 20
44.75732622797427
 30
0.0
  0
LINE
  5
124
330
1F
100
AcDbEntity
  8
0
  6
Continuous
 62
     7
370
    25
100
AcDbLine
 10
111.8738030973
 20
47.6835012057
 30
0.0
 11
112.2433683147
 21
47.6198887061
 31
0.0
  0
LINE
  5
125
330
1F
100
AcDbEntity
  8
0
  6
Continuous
 62
     7
370
    25
100
AcDbLine
 10
125.6510013814
 20
39.8789881459
 30
0.0
 11
125.8908740306
 21
39.5907415291
 31
0.0
  0
SPLINE
  5
126
330
1F
100
AcDbEntity
  8
0
  6
Continuous
 62
     7
370
    25
100
AcDbSpline
210
0.0
220
0.0
230
1.0
 70
    24
 71
     3
 72
    10
 73
     6
 74
     0
 42
0.000000001
 43
0.00000001
 40
0.0
 40
0.0
 40
0.0
 40
0.0
 40
0.3089808900029878
 40
0.61909486283583
 40
1.0
 40
1.0
 40
1.0
 40
1.0
 10
123.3567321640505
 20
38.12765404022645
 30
0.0
 10
123.6173156787669
 20
38.27810200259431
 30
0.0
 10
124.1394383100372
 20
38.57954964430819
 30
0.0
 10
124.9864306207577
 20
39.06856088290426
 30
0.0
 10
125.5694827177641
 20
39.40518616806247
 30
0.0
 10
125.8908740306397
 20
39.5907415290664
 30
0.0
  0
LINE
  5
127
330
1F
100
AcDbEntity
  8
0
  6
Continuous
 62
     7
370
    25
100
AcDbLine
 10
123.2270395959
 20
38.4795131566
 30
0.0
 11
123.3567321641
 21
38.1276540402
 31
0.0
  0
LINE
  5
128
330
1F
100
AcDbEntity
  8
0
  6
Continuous
 62
     7
370
    25
100
AcDbLine
 10
128.8738030973
 20
47.6835012057
 30
0.0
 11
128.50423788
 21
47.6198887061
 31
0.0
  0
SPLINE
  5
129
330
1F
100
AcDbEntity
  8
0
  6
Continuous
 62
     7
370
    25
100
AcDbSpline
210
0.0
220
0.0
230
1.0
 70
    24
 71
     3
 72
    10
 73
     6
 74
     0
 42
0.000000001
 43
0.00000001
 40
0.0
 40
0.0
 40
0.0
 40
0.0
 40
0.4586421336634354
 40
0.9210522271454904
 40
1.0
 40
1.0
 40
1.0
 40
1.0
 10
128.8738030973451
 20
44.75732622797421
 30
0.0
 10
128.8738030973451
 20
45.20435738472452
 30
0.0
 10
128.8738030973451
 20
46.10209226843332
 30
0.0
 10
128.8738030973451
 20
47.08030956465391
 30
0.0
 10
128.8738030973451
 20
47.60673157202073
 30
0.0
 10
128.8738030973451
 20
47.68350120565412
 30
0.0
  0
LINE
  5
12A
330
1F
100
AcDbEntity
  8
0
  6
Continuous
 62
     7
370
    25
100
AcDbLine
 10
128.50423788
 20
44.8209387275
 30
0.0
 11
128.8738030973
 21
44.757326228
 31
0.0
  0
ARC
  5
12B
330
1F
100
AcDbEntity
  8
0
  6
Continuous
 62
     7
370
    25
100
AcDbCircle
 10
120.3738030973
 20
46.2204137168
 30
0.0
 40
8.624999999999995
100
AcDbArc
 50
9.766500898
 51
50.233499102
  0
ARC
  5
12C
330
1F
100
AcDbEntity
  8
0
  6
Continuous
 62
     7
370
    25
100
AcDbCircle
 10
120.3738030973
 20
46.2204137168
 30
0.0
 40
8.624999999999996
100
AcDbArc
 50
129.766500898
 51
170.233499102
  0
ARC
  5
12D
330
1F
100
AcDbEntity
  8
0
  6
Continuous
 62
     7
370
    25
100
AcDbCircle
 10
120.3738030973
 20
46.2204137168
 30
0.0
 40
8.625000000000002
100
AcDbArc
 50
69.766500898
 51
110.233499102
  0
ARC
  5
12E
330
1F
100
AcDbEntity
  8
0
  6
Continuous
 62
     7
370
    25
100
AcDbCircle
 10
120.3738030973
 20
46.2204137168
 30
0.0
 40
8.625000000000002
100
AcDbArc
 50
249.766500898
 51
290.233499102
  0
ARC
  5
12F
330
1F
100
AcDbEntity
  8
0
  6
Continuous
 62
     7
370
    25
100
AcDbCircle
 10
120.3738030973
 20
46.2204137168
 30
0.0
 40
8.625000000000007
100
AcDbArc
 50
309.766500898
 51
350.233499102
  0
ARC
  5
130
330
1F
100
AcDbEntity
  8
0
  6
Continuous
 62
     7
370
    25
100
AcDbCircle
 10
120.3738030973
 20
46.2204137168
 30
0.0
 40
8.625000000000002
100
AcDbArc
 50
189.766500898
 51
230.233499102
  0
SPLINE
  5
131
330
1F
100
AcDbEntity
  8
0
  6
Continuous
 62
     7
370
    25
100
AcDbSpline
210
0.0
220
0.0
230
1.0
 70
    24
 71
     3
 72
    11
 73
     7
 74
     0
 42
0.000000001
 43
0.00000001
 40
0.0
 40
0.0
 40
0.0
 40
0.0
 40
0.2488261663104049
 40
0.4980307642143797
 40
0.7486902142220285
 40
1.0
 40
1.0
 40
1.0
 40
1.0
 10
128.8738030973451
 20
51.127891004926
 30
0.0
 10
128.6303914564103
 20
51.2684247813436
 30
0.0
 10
128.143197977722
 20
51.54970606741173
 30
0.0
 10
127.401394487793
 20
51.97798651200804
 30
0.0
 10
126.6508739795683
 20
52.4112997294639
 30
0.0
 10
126.1444260596874
 20
52.70369757233767
 30
0.0
 10
125.8908740306397
 20
52.85008590456194
 30
0.0
  0
SPLINE
  5
132
330
1F
100
AcDbEntity
  8
0
  6
Continuous
 62
     7
370
    25
100
AcDbSpline
210
0.0
220
0.0
230
1.0
 70
    24
 71
     3
 72
    11
 73
     7
 74
     0
 42
0.000000001
 43
0.00000001
 40
0.0
 40
0.0
 40
0.0
 40
0.0
 40
0.2485331657816016
 40
0.4977458539813222
 40
0.7486584446317363
 40
1.0
 40
1.0
 40
1.0
 40
1.0
 10
128.8738030973451
 20
47.68350120565412
 30
0.0
 10
128.8738030973451
 20
47.97304752699316
 30
0.0
 10
128.8738030973451
 20
48.55293182745989
 30
0.0
 10
128.8738030973451
 20
49.41676415705667
 30
0.0
 10
128.8738030973451
 20
50.27662358833328
 30
0.0
 10
128.8738030973451
 20
50.84397367879614
 30
0.0
 10
128.8738030973451
 20
51.127891004926
 30
0.0
  0
SPLINE
  5
133
330
1F
100
AcDbEntity
  8
0
  6
Continuous
 62
     7
370
    25
100
AcDbSpline
210
0.0
220
0.0
230
1.0
 70
    24
 71
     3
 72
    11
 73
     7
 74
     0
 42
0.000000001
 43
0.00000001
 40
0.0
 40
0.0
 40
0.0
 40
0.0
 40
0.2488261663104053
 40
0.49803076421438
 40
0.7486902142220282
 40
1.0
 40
1.0
 40
1.0
 40
1.0
 10
120.3738030973451
 20
36.40545914059052
 30
0.0
 10
120.6172147382799
 20
36.54599291700811
 30
0.0
 10
121.1044082169682
 20
36.82727420307623
 30
0.0
 10
121.8462117068972
 20
37.25555464767255
 30
0.0
 10
122.5967322151219
 20
37.6888678651284
 30
0.0
 10
123.1031801350028
 20
37.98126570800218
 30
0.0
 10
123.3567321640505
 20
38.12765404022645
 30
0.0
  0
SPLINE
  5
134
330
1F
100
AcDbEntity
  8
0
  6
Continuous
 62
     7
370
    25
100
AcDbSpline
210
0.0
220
0.0
230
1.0
 70
    24
 71
     3
 72
    11
 73
     7
 74
     0
 42
0.000000001
 43
0.00000001
 40
0.0
 40
0.0
 40
0.0
 40
0.0
 40
0.2485331657816016
 40
0.4977458539813222
 40
0.7486584446317365
 40
1.0
 40
1.0
 40
1.0
 40
1.0
 10
117.3908740306397
 20
38.12765404022647
 30
0.0
 10
117.6416285004916
 20
37.98288087955695
 30
0.0
 10
118.1438230359516
 20
37.69293872932359
 30
0.0
 10
118.8919237779927
 20
37.26102256452519
 30
0.0
 10
119.6365838891618
 20
36.83109284888689
 30
0.0
 10
120.1279234803421
 20
36.54741780365546
 30
0.0
 10
120.3738030973451
 20
36.40545914059052
 30
0.0
  0
SPLINE
  5
135
330
1F
100
AcDbEntity
  8
0
  6
Continuous
 62
     7
370
    25
100
AcDbSpline
210
0.0
220
0.0
230
1.0
 70
    24
 71
     3
 72
    11
 73
     7
 74
     0
 42
0.000000001
 43
0.00000001
 40
0.0
 40
0.0
 40
0.0
 40
0.0
 40
0.2485331657816016
 40
0.497745853981322
 40
0.748658444631736
 40
1.0
 40
1.0
 40
1.0
 40
1.0
 10
114.8567321640507
 20
52.85008590456206
 30
0.0
 10
114.6059776941988
 20
52.70531274389254
 30
0.0
 10
114.1037831587388
 20
52.41537059365918
 30
0.0
 10
113.3556824166976
 20
51.98345442886076
 30
0.0
 10
112.6110223055284
 20
51.55352471322244
 30
0.0
 10
112.1196827143482
 20
51.269849667991
 30
0.0
 10
111.8738030973451
 20
51.12789100492606
 30
0.0
  0
SPLINE
  5
136
330
1F
100
AcDbEntity
  8
0
  6
Continuous
 62
     7
370
    25
100
AcDbSpline
210
0.0
220
0.0
230
1.0
 70
    24
 71
     3
 72
    11
 73
     7
 74
     0
 42
0.000000001
 43
0.00000001
 40
0.0
 40
0.0
 40
0.0
 40
0.0
 40
0.2488261663104053
 40
0.4980307642143797
 40
0.7486902142220283
 40
1.0
 40
1.0
 40
1.0
 40
1.0
 10
111.8738030973451
 20
51.12789100492606
 30
0.0
 10
111.8738030973452
 20
50.84682345209087
 30
0.0
 10
111.8738030973452
 20
50.28426087995463
 30
0.0
 10
111.8738030973452
 20
49.42769999076199
 30
0.0
 10
111.8738030973452
 20
48.56107355585026
 30
0.0
 10
111.8738030973451
 20
47.97627787010272
 30
0.0
 10
111.8738030973451
 20
47.68350120565418
 30
0.0
  0
SPLINE
  5
137
330
1F
100
AcDbEntity
  8
0
  6
Continuous
 62
     7
370
    25
100
AcDbSpline
210
0.0
220
0.0
230
1.0
 70
    24
 71
     3
 72
    11
 73
     7
 74
     0
 42
0.000000001
 43
0.00000001
 40
0.0
 40
0.0
 40
0.0
 40
0.0
 40
0.2488261663104053
 40
0.49803076421438
 40
0.7486902142220285
 40
1.0
 40
1.0
 40
1.0
 40
1.0
 10
111.8738030973451
 20
41.31293642870239
 30
0.0
 10
112.1172147382799
 20
41.1724026522848
 30
0.0
 10
112.6044082169682
 20
40.89112136621667
 30
0.0
 10
113.3462117068972
 20
40.46284092162034
 30
0.0
 10
114.0967322151219
 20
40.02952770416448
 30
0.0
 10
114.6031801350028
 20
39.73712986129071
 30
0.0
 10
114.8567321640505
 20
39.59074152906644
 30
0.0
  0
SPLINE
  5
138
330
1F
100
AcDbEntity
  8
0
  6
Continuous
 62
     7
370
    25
100
AcDbSpline
210
0.0
220
0.0
230
1.0
 70
    24
 71
     3
 72
    10
 73
     6
 74
     0
 42
0.000000001
 43
0.00000001
 40
0.0
 40
0.0
 40
0.0
 40
0.0
 40
0.3355445600395945
 40
0.6726666839999053
 40
1.0
 40
1.0
 40
1.0
 40
1.0
 10
111.8738030973451
 20
44.75732622797427
 30
0.0
 10
111.8738030973451
 20
44.36669666167083
 30
0.0
 10
111.8738030973451
 20
43.58360098279393
 30
0.0
 10
111.8738030973451
 20
42.43434901337914
 30
0.0
 10
111.8738030973451
 20
41.68305123161824
 30
0.0
 10
111.8738030973451
 20
41.31293642870239
 30
0.0
  0
SPLINE
  5
139
330
1F
100
AcDbEntity
  8
0
  6
Continuous
 62
     7
370
    25
100
AcDbSpline
210
0.0
220
0.0
230
1.0
 70
    24
 71
     3
 72
    11
 73
     7
 74
     0
 42
0.000000001
 43
0.00000001
 40
0.0
 40
0.0
 40
0.0
 40
0.0
 40
0.2488261663104052
 40
0.4980307642143797
 40
0.7486902142220281
 40
1.0
 40
1.0
 40
1.0
 40
1.0
 10
120.3738030973451
 20
56.03536829303781
 30
0.0
 10
120.1303914564103
 20
55.89483451662021
 30
0.0
 10
119.6431979777219
 20
55.61355323055209
 30
0.0
 10
118.9013944877929
 20
55.18527278595575
 30
0.0
 10
118.1508739795682
 20
54.75195956849988
 30
0.0
 10
117.6444260596872
 20
54.45956172562608
 30
0.0
 10
117.3908740306395
 20
54.3131733934018
 30
0.0
  0
SPLINE
  5
13A
330
1F
100
AcDbEntity
  8
0
  6
Continuous
 62
     7
370
    25
100
AcDbSpline
210
0.0
220
0.0
230
1.0
 70
    24
 71
     3
 72
    11
 73
     7
 74
     0
 42
0.000000001
 43
0.00000001
 40
0.0
 40
0.0
 40
0.0
 40
0.0
 40
0.2485331657816021
 40
0.4977458539813225
 40
0.7486584446317367
 40
1.0
 40
1.0
 40
1.0
 40
1.0
 10
123.3567321640505
 20
54.31317339340188
 30
0.0
 10
123.1059776941986
 20
54.45794655407139
 30
0.0
 10
122.6037831587386
 20
54.74788870430476
 30
0.0
 10
121.8556824166975
 20
55.17980486910315
 30
0.0
 10
121.1110223055283
 20
55.60973458474146
 30
0.0
 10
120.6196827143481
 20
55.89340962997289
 30
0.0
 10
120.3738030973451
 20
56.03536829303781
 30
0.0
  0
SPLINE
  5
13B
330
1F
100
AcDbEntity
  8
0
  6
Continuous
 62
     7
370
    25
100
AcDbSpline
210
0.0
220
0.0
230
1.0
 70
    24
 71
     3
 72
    11
 73
     7
 74
     0
 42
0.000000001
 43
0.00000001
 40
0.0
 40
0.0
 40
0.0
 40
0.0
 40
0.2485331657816017
 40
0.4977458539813225
 40
0.7486584446317366
 40
1.0
 40
1.0
 40
1.0
 40
1.0
 10
125.8908740306397
 20
39.5907415290664
 30
0.0
 10
126.1416285004916
 20
39.73551468973591
 30
0.0
 10
126.6438230359516
 20
40.02545683996927
 30
0.0
 10
127.3919237779927
 20
40.45737300476766
 30
0.0
 10
128.1365838891619
 20
40.88730272040597
 30
0.0
 10
128.6279234803421
 20
41.1709777656374
 30
0.0
 10
128.8738030973451
 20
41.31293642870233
 30
0.0
  0
SPLINE
  5
13C
330
1F
100
AcDbEntity
  8
0
  6
Continuous
 62
     7
370
    25
100
AcDbSpline
210
0.0
220
0.0
230
1.0
 70
    24
 71
     3
 72
    10
 73
     6
 74
     0
 42
0.000000001
 43
0.00000001
 40
0.0
 40
0.0
 40
0.0
 40
0.0
 40
0.3273333707077127
 40
0.6629523133412113
 40
0.9999999999999999
 40
0.9999999999999999
 40
0.9999999999999999
 40
0.9999999999999999
 10
128.8738030973451
 20
41.31293642870233
 30
0.0
 10
128.8738030973451
 20
41.68305121735359
 30
0.0
 10
128.8738030973451
 20
42.43264926416333
 30
0.0
 10
128.8738030973451
 20
43.5818592847196
 30
0.0
 10
128.8738030973451
 20
44.36494948565312
 30
0.0
 10
128.8738030973451
 20
44.75732622797421
 30
0.0
  0
CIRCLE
  5
13D
330
1F
100
AcDbEntity
  8
0
  6
Continuous
 62
     7
370
    25
100
AcDbCircle
 10
120.3738030973
 20
46.2204137168
 30
0.0
 40
3.0
  0
LINE
  5
13E
330
1F
100
AcDbEntity
  8
0
  6
Continuous
 62
     7
370
    25
100
AcDbLine
 10
75.6735985086
 20
98.0819225664
 30
0.0
 11
75.5292609413
 21
97.8319225664
 31
0.0
  0
LINE
  5
13F
330
1F
100
AcDbEntity
  8
0
  6
Continuous
 62
     7
370
    25
100
AcDbLine
 10
75.5292609413
 20
81.3319225664
 30
0.0
 11
75.6735985086
 21
81.0819225664
 31
0.0
  0
LINE
  5
140
330
1F
100
AcDbEntity
  8
0
  6
Continuous
 62
     7
370
    25
100
AcDbLine
 10
88.3292609413
 20
81.3319225664
 30
0.0
 11
88.5292609413
 21
81.5319225664
 31
0.0
  0
LINE
  5
141
330
1F
100
AcDbEntity
  8
0
  6
Continuous
 62
     7
370
    25
100
AcDbLine
 10
88.5292609413
 20
97.6319225664
 30
0.0
 11
88.3292609413
 21
97.8319225664
 31
0.0
  0
LINE
  5
142
330
1F
100
AcDbEntity
  8
0
  6
Continuous
 62
     7
370
    25
100
AcDbLine
 10
88.3292609413
 20
97.8319225664
 30
0.0
 11
87.4455767358
 21
97.8319225664
 31
0.0
  0
LINE
  5
143
330
1F
100
AcDbEntity
  8
0
  6
Continuous
 62
     7
370
    25
100
AcDbLine
 10
87.4455767358
 20
81.3319225664
 30
0.0
 11
88.3292609413
 21
81.3319225664
 31
0.0
  0
SPLINE
  5
144
330
1F
100
AcDbEntity
  8
0
  6
Continuous
 62
     7
370
    25
100
AcDbSpline
210
0.0
220
0.0
230
1.0
 70
     8
 71
     3
 72
    13
 73
     9
 74
     0
 42
0.000000001
 43
0.00000001
 40
0.0
 40
0.0
 40
0.0
 40
0.0
 40
0.1462169292848364
 40
0.3305559531333372
 40
0.528952287790779
 40
0.7400882522911684
 40
0.9596004405723103
 40
1.0
 40
1.0
 40
1.0
 40
1.0
 10
86.88580077184838
 20
81.08019562426294
 30
0.0
 10
86.90597206827152
 20
81.10181428150501
 30
0.0
 10
86.9515737790153
 20
81.1506880739247
 30
0.0
 10
87.04163208133936
 20
81.2175657891173
 30
0.0
 10
87.15302154493094
 20
81.27715715860207
 30
0.0
 10
87.28102269486759
 20
81.3165528790498
 30
0.0
 10
87.38122110578809
 20
81.33457988088578
 30
0.0
 10
87.43648509491395
 20
81.33045693406638
 30
0.0
 10
87.44507509068205
 20
81.32981608102101
 30
0.0
  0
SPLINE
  5
145
330
1F
100
AcDbEntity
  8
0
  6
Continuous
 62
     7
370
    25
100
AcDbSpline
210
0.0
220
0.0
230
1.0
 70
     8
 71
     3
 72
    14
 73
    10
 74
     0
 42
0.000000001
 43
0.00000001
 40
0.0
 40
0.0
 40
0.0
 40
0.0
 40
0.0822108103314732
 40
0.284705728938444
 40
0.4747438248065423
 40
0.6527552690527161
 40
0.8182958027923262
 40
0.9696979781135129
 40
1.0
 40
1.0
 40
1.0
 40
1.0
 10
87.44533446722808
 20
97.83506971365784
 30
0.0
 10
87.42765635238392
 20
97.83426083712942
 30
0.0
 10
87.36643495640602
 20
97.83145960234383
 30
0.0
 10
87.26517880067232
 20
97.8511170347632
 30
0.0
 10
87.14887623085606
 20
97.88941196967876
 30
0.0
 10
87.04730918381601
 20
97.94296532846901
 30
0.0
 10
86.96318856972853
 20
98.00512748303004
 30
0.0
 10
86.90872611414673
 20
98.05515025355169
 30
0.0
 10
86.88639770057313
 20
98.08263619527104
 30
0.0
 10
86.88267408776068
 20
98.08721990671165
 30
0.0
  0
LINE
  5
146
330
1F
100
AcDbEntity
  8
0
  6
Continuous
 62
     7
370
    25
100
AcDbLine
 10
57.8882554737
 20
81.0819225664
 30
0.0
 11
58.032593041
 21
81.3319225664
 31
0.0
  0
LINE
  5
147
330
1F
100
AcDbEntity
  8
0
  6
Continuous
 62
     7
370
    25
100
AcDbLine
 10
58.032593041
 20
97.8319225664
 30
0.0
 11
57.8882554737
 21
98.0819225664
 31
0.0
  0
LINE
  5
148
330
1F
100
AcDbEntity
  8
0
  6
Continuous
 62
     7
370
    25
100
AcDbLine
 10
45.232593041
 20
81.3319225664
 30
0.0
 11
46.1162772465
 21
81.3319225664
 31
0.0
  0
LINE
  5
149
330
1F
100
AcDbEntity
  8
0
  6
Continuous
 62
     7
370
    25
100
AcDbLine
 10
46.1162772465
 20
97.8319225664
 30
0.0
 11
45.232593041
 21
97.8319225664
 31
0.0
  0
LINE
  5
14A
330
1F
100
AcDbEntity
  8
0
  6
Continuous
 62
     7
370
    25
100
AcDbLine
 10
45.232593041
 20
97.8319225664
 30
0.0
 11
45.032593041
 21
97.6319225664
 31
0.0
  0
LINE
  5
14B
330
1F
100
AcDbEntity
  8
0
  6
Continuous
 62
     7
370
    25
100
AcDbLine
 10
45.032593041
 20
81.5319225664
 30
0.0
 11
45.232593041
 21
81.3319225664
 31
0.0
  0
SPLINE
  5
14C
330
1F
100
AcDbEntity
  8
0
  6
Continuous
 62
     7
370
    25
100
AcDbSpline
210
0.0
220
0.0
230
1.0
 70
     8
 71
     3
 72
    13
 73
     9
 74
     0
 42
0.000000001
 43
0.00000001
 40
0.0
 40
0.0
 40
0.0
 40
0.0
 40
0.1462169292859201
 40
0.3305559531348675
 40
0.5289522877920853
 40
0.7400882522927104
 40
0.9596004405749948
 40
1.0
 40
1.0
 40
1.0
 40
1.0
 10
46.67605321045251
 20
98.0836495084804
 30
0.0
 10
46.6558819140292
 20
98.06203085123819
 30
0.0
 10
46.61028020328519
 20
98.0131570588183
 30
0.0
 10
46.52022190096082
 20
97.9462793436256
 30
0.0
 10
46.40883243736911
 20
97.88668797414094
 30
0.0
 10
46.28083128743216
 20
97.84729225369334
 30
0.0
 10
46.18063287651189
 20
97.82926525185744
 30
0.0
 10
46.12536888738637
 20
97.83338819867691
 30
0.0
 10
46.11677889161883
 20
97.83402905172225
 30
0.0
  0
SPLINE
  5
14D
330
1F
100
AcDbEntity
  8
0
  6
Continuous
 62
     7
370
    25
100
AcDbSpline
210
0.0
220
0.0
230
1.0
 70
     8
 71
     3
 72
    14
 73
    10
 74
     0
 42
0.000000001
 43
0.00000001
 40
0.0
 40
0.0
 40
0.0
 40
0.0
 40
0.0822108103331004
 40
0.2847057289381115
 40
0.4747438248084278
 40
0.6527552690535897
 40
0.8182958027930608
 40
0.9696979781144173
 40
1.0
 40
1.0
 40
1.0
 40
1.0
 10
46.11651951507278
 20
81.32877541908547
 30
0.0
 10
46.1341976299173
 20
81.32958429561391
 30
0.0
 10
46.19541902589511
 20
81.33238553039943
 30
0.0
 10
46.2966751816292
 20
81.31272809798001
 30
0.0
 10
46.41297775144532
 20
81.2744331630644
 30
0.0
 10
46.5145447984855
 20
81.22087980427395
 30
0.0
 10
46.59866541257275
 20
81.15871764971298
 30
0.0
 10
46.65312786815437
 20
81.10869487919143
 30
0.0
 10
46.67545628172788
 20
81.0812089374722
 30
0.0
 10
46.6791798945402
 20
81.07662522603172
 30
0.0
  0
ARC
  5
14E
330
1F
100
AcDbEntity
  8
0
  6
Continuous
 62
     7
370
    25
100
AcDbCircle
 10
69.5696021257
 20
82.3319225664
 30
0.0
 40
0.5000000000000041
100
AcDbArc
 50
90.0
 51
150.0
  0
ARC
  5
14F
330
1F
100
AcDbEntity
  8
0
  6
Continuous
 62
     7
370
    25
100
AcDbCircle
 10
69.5696021257
 20
96.8319225664
 30
0.0
 40
0.5000000000000041
100
AcDbArc
 50
210.0
 51
270.0
  0
ARC
  5
150
330
1F
100
AcDbEntity
  8
0
  6
Continuous
 62
     7
370
    25
100
AcDbCircle
 10
63.9922518566
 20
96.8319225664
 30
0.0
 40
0.5
100
AcDbArc
 50
270.0
 51
330.0
  0
ARC
  5
151
330
1F
100
AcDbEntity
  8
0
  6
Continuous
 62
     7
370
    25
100
AcDbCircle
 10
63.9922518566
 20
82.3319225664
 30
0.0
 40
0.5
100
AcDbArc
 50
30.0
 51
90.0
  0
LINE
  5
152
330
1F
100
AcDbEntity
  8
0
  6
Continuous
 62
     7
370
    25
100
AcDbLine
 10
70.0809269912
 20
96.3319225664
 30
0.0
 11
69.5696021257
 21
96.3319225664
 31
0.0
  0
LINE
  5
153
330
1F
100
AcDbEntity
  8
0
  6
Continuous
 62
     7
370
    25
100
AcDbLine
 10
69.5696021257
 20
82.8319225664
 30
0.0
 11
70.0809269912
 21
82.8319225664
 31
0.0
  0
LINE
  5
154
330
1F
100
AcDbEntity
  8
0
  6
Continuous
 62
     7
370
    25
100
AcDbLine
 10
63.4809269912
 20
82.8319225664
 30
0.0
 11
63.9922518566
 21
82.8319225664
 31
0.0
  0
LINE
  5
155
330
1F
100
AcDbEntity
  8
0
  6
Continuous
 62
     7
370
    25
100
AcDbLine
 10
63.9922518566
 20
96.3319225664
 30
0.0
 11
63.4809269912
 21
96.3319225664
 31
0.0
  0
LINE
  5
156
330
1F
100
AcDbEntity
  8
0
  6
Continuous
 62
     7
370
    25
100
AcDbLine
 10
70.0809269912
 20
82.8319225664
 30
0.0
 11
70.2809269912
 21
83.0319225664
 31
0.0
  0
LINE
  5
157
330
1F
100
AcDbEntity
  8
0
  6
Continuous
 62
     7
370
    25
100
AcDbLine
 10
70.2809269912
 20
96.1319225664
 30
0.0
 11
70.0809269912
 21
96.3319225664
 31
0.0
  0
LINE
  5
158
330
1F
100
AcDbEntity
  8
0
  6
Continuous
 62
     7
370
    25
100
AcDbLine
 10
63.4809269912
 20
96.3319225664
 30
0.0
 11
63.2809269912
 21
96.1319225664
 31
0.0
  0
LINE
  5
159
330
1F
100
AcDbEntity
  8
0
  6
Continuous
 62
     7
370
    25
100
AcDbLine
 10
63.2809269912
 20
83.0319225664
 30
0.0
 11
63.4809269912
 21
82.8319225664
 31
0.0
  0
LINE
  5
15A
330
1F
100
AcDbEntity
  8
0
  6
Continuous
 62
     7
370
    25
100
AcDbLine
 10
60.2809269912
 20
96.1604225664
 30
0.0
 11
58.032593041
 21
96.1604225664
 31
0.0
  0
LINE
  5
15B
330
1F
100
AcDbEntity
  8
0
  6
Continuous
 62
     7
370
    25
100
AcDbLine
 10
58.032593041
 20
83.0034225664
 30
0.0
 11
60.2809269912
 21
83.0034225664
 31
0.0
  0
LINE
  5
15C
330
1F
100
AcDbEntity
  8
0
  6
Continuous
 62
     7
370
    25
100
AcDbLine
 10
73.2809269912
 20
83.0034225664
 30
0.0
 11
75.5292609413
 21
83.0034225664
 31
0.0
  0
LINE
  5
15D
330
1F
100
AcDbEntity
  8
0
  6
Continuous
 62
     7
370
    25
100
AcDbLine
 10
75.5292609413
 20
96.1604225664
 30
0.0
 11
73.2809269912
 21
96.1604225664
 31
0.0
  0
LINE
  5
15E
330
1F
100
AcDbEntity
  8
0
  6
Continuous
 62
     7
370
    25
100
AcDbLine
 10
73.2809269912
 20
96.1604225664
 30
0.0
 11
72.2809269912
 21
95.1604225664
 31
0.0
  0
LINE
  5
15F
330
1F
100
AcDbEntity
  8
0
  6
Continuous
 62
     7
370
    25
100
AcDbLine
 10
72.2809269912
 20
84.0034225664
 30
0.0
 11
73.2809269912
 21
83.0034225664
 31
0.0
  0
LINE
  5
160
330
1F
100
AcDbEntity
  8
0
  6
Continuous
 62
     7
370
    25
100
AcDbLine
 10
60.2809269912
 20
83.0034225664
 30
0.0
 11
61.2809269912
 21
84.0034225664
 31
0.0
  0
LINE
  5
161
330
1F
100
AcDbEntity
  8
0
  6
Continuous
 62
     7
370
    25
100
AcDbLine
 10
61.2809269912
 20
95.1604225664
 30
0.0
 11
60.2809269912
 21
96.1604225664
 31
0.0
  0
LINE
  5
162
330
1F
100
AcDbEntity
  8
0
  6
Continuous
 62
     7
370
    25
100
AcDbLine
 10
63.2809269912
 20
95.0819225664
 30
0.0
 11
61.2809269912
 21
95.0819225664
 31
0.0
  0
LINE
  5
163
330
1F
100
AcDbEntity
  8
0
  6
Continuous
 62
     7
370
    25
100
AcDbLine
 10
61.2809269912
 20
84.0819225664
 30
0.0
 11
63.2809269912
 21
84.0819225664
 31
0.0
  0
LINE
  5
164
330
1F
100
AcDbEntity
  8
0
  6
Continuous
 62
     7
370
    25
100
AcDbLine
 10
70.2809269912
 20
84.0819225664
 30
0.0
 11
72.2809269912
 21
84.0819225664
 31
0.0
  0
LINE
  5
165
330
1F
100
AcDbEntity
  8
0
  6
Continuous
 62
     7
370
    25
100
AcDbLine
 10
72.2809269912
 20
95.0819225664
 30
0.0
 11
70.2809269912
 21
95.0819225664
 31
0.0
  0
SPLINE
  5
166
330
1F
100
AcDbEntity
  8
0
  6
Continuous
 62
     7
370
    25
100
AcDbSpline
210
0.0
220
0.0
230
1.0
 70
     8
 71
     3
 72
    10
 73
     6
 74
     0
 42
0.000000001
 43
0.00000001
 40
0.0
 40
0.0
 40
0.0
 40
0.0
 40
0.3089808900029885
 40
0.6190948628358308
 40
1.0
 40
1.0
 40
1.0
 40
1.0
 10
86.81275459036479
 20
95.09899349966624
 30
0.0
 10
86.8369015969015
 20
94.83840998494989
 30
0.0
 10
86.88528416094806
 20
94.31628735367961
 30
0.0
 10
86.89273925366473
 20
93.46929504295905
 30
0.0
 10
86.84117690586515
 20
92.88624294595269
 30
0.0
 10
86.81275459036479
 20
92.56485163307708
 30
0.0
  0
SPLINE
  5
167
330
1F
100
AcDbEntity
  8
0
  6
Continuous
 62
     7
370
    25
100
AcDbSpline
210
0.0
220
0.0
230
1.0
 70
     8
 71
     3
 72
    11
 73
     7
 74
     0
 42
0.000000001
 43
0.00000001
 40
0.0
 40
0.0
 40
0.0
 40
0.0
 40
0.2485331718811622
 40
0.4983190599828378
 40
0.748658438463252
 40
0.9999999999999999
 40
0.9999999999999999
 40
0.9999999999999999
 40
0.9999999999999999
 10
86.81275459036479
 20
92.56485163307708
 30
0.0
 10
86.77967656633207
 20
92.31409725591794
 30
0.0
 10
86.71335379051379
 20
91.81132458953006
 30
0.0
 10
86.55521830394642
 20
91.06323081943974
 30
0.0
 10
86.36227743411663
 20
90.31858086491442
 30
0.0
 10
86.20468674537102
 20
89.8278021339711
 30
0.0
 10
86.12573399545865
 20
89.58192256637165
 30
0.0
  0
LINE
  5
168
330
1F
100
AcDbEntity
  8
0
  6
Continuous
 62
     7
370
    25
100
AcDbLine
 10
76.4327878872
 20
89.5819225664
 30
0.0
 11
86.1257339955
 21
89.5819225664
 31
0.0
  0
SPLINE
  5
169
330
1F
100
AcDbEntity
  8
0
  6
Continuous
 62
     7
370
    25
100
AcDbSpline
210
0.0
220
0.0
230
1.0
 70
     8
 71
     3
 72
    15
 73
    11
 74
     0
 42
0.000000001
 43
0.00000001
 40
0.0
 40
0.0
 40
0.0
 40
0.0
 40
0.1323052378296956
 40
0.2645730682660304
 40
0.3997997819746812
 40
0.5350020935366634
 40
0.6501929590834555
 40
0.7654017933211805
 40
0.8826895567076667
 40
1.0
 40
1.0
 40
1.0
 40
1.0
 10
76.43278788716314
 20
89.58192256637165
 30
0.0
 10
76.31721791532316
 20
89.94915638433467
 30
0.0
 10
76.086110647382
 20
90.68352019020753
 30
0.0
 10
75.83744801580563
 20
91.8143754448029
 30
0.0
 10
75.68793406865211
 20
92.96654751039586
 30
0.0
 10
75.65832378160374
 20
94.07698372305617
 30
0.0
 10
75.73514518425438
 20
95.12742882930787
 30
0.0
 10
75.8925546553754
 20
96.1187905559695
 30
0.0
 10
76.1234570159064
 20
97.10567004777951
 30
0.0
 10
76.32967095146375
 20
97.756484087577
 30
0.0
 10
76.43278788716314
 20
98.08192256637167
 30
0.0
  0
LINE
  5
16A
330
1F
100
AcDbEntity
  8
0
  6
Continuous
 62
     7
370
    25
100
AcDbLine
 10
76.4327878872
 20
98.0819225664
 30
0.0
 11
86.1257339955
 21
98.0819225664
 31
0.0
  0
SPLINE
  5
16B
330
1F
100
AcDbEntity
  8
0
  6
Continuous
 62
     7
370
    25
100
AcDbSpline
210
0.0
220
0.0
230
1.0
 70
     8
 71
     3
 72
    11
 73
     7
 74
     0
 42
0.000000001
 43
0.00000001
 40
0.0
 40
0.0
 40
0.0
 40
0.0
 40
0.2488261663104049
 40
0.4980307642143797
 40
0.7486902142220285
 40
1.0
 40
1.0
 40
1.0
 40
1.0
 10
86.12573399545865
 20
98.08192256637167
 30
0.0
 10
86.20392314179867
 20
97.83851092543686
 30
0.0
 10
86.36042034979896
 20
97.35131744674858
 30
0.0
 10
86.5531069794017
 20
96.60951395681957
 30
0.0
 10
86.71234653362986
 20
95.85899344859486
 30
0.0
 10
86.77925634269548
 20
95.35254552871395
 30
0.0
 10
86.81275459036479
 20
95.09899349966624
 30
0.0
  0
SPLINE
  5
16C
330
1F
100
AcDbEntity
  8
0
  6
Continuous
 62
     7
370
    25
100
AcDbSpline
210
0.0
220
0.0
230
1.0
 70
    24
 71
     3
 72
    12
 73
     8
 74
     0
 42
0.000000001
 43
0.00000001
 40
0.0
 40
0.0
 40
0.0
 40
0.0
 40
0.2421108666662448
 40
0.4302527539927475
 40
0.6190122594691736
 40
0.8093134994981498
 40
1.0
 40
1.0
 40
1.0
 40
1.0
 10
75.67692826969851
 20
81.08192256637169
 30
0.0
 10
75.68491484212468
 20
81.08192256637169
 30
0.0
 10
75.69910769859843
 20
81.08192256637167
 30
0.0
 10
75.81850565447046
 20
81.08192256637172
 30
0.0
 10
75.97552604537357
 20
81.0819225663717
 30
0.0
 10
76.1792970313948
 20
81.08192256637173
 30
0.0
 10
76.34823399138438
 20
81.08192256637172
 30
0.0
 10
76.43278788716314
 20
81.0819225663717
 30
0.0
  0
SPLINE
  5
16D
330
1F
100
AcDbEntity
  8
0
  6
Continuous
 62
     7
370
    25
100
AcDbSpline
210
0.0
220
0.0
230
1.0
 70
    24
 71
     3
 72
    12
 73
     8
 74
     0
 42
0.000000001
 43
0.00000001
 40
0.0
 40
0.0
 40
0.0
 40
0.0
 40
0.1884159108776397
 40
0.3771676958991651
 40
0.567230028053604
 40
0.7578861437406008
 40
1.0
 40
1.0
 40
1.0
 40
1.0
 10
76.43278788716314
 20
98.08192256637167
 30
0.0
 10
76.34920168882627
 20
98.08192256637167
 30
0.0
 10
76.18188028964693
 20
98.08192256637167
 30
0.0
 10
75.97833498975517
 20
98.08192256637167
 30
0.0
 10
75.81974063252186
 20
98.08192256637166
 30
0.0
 10
75.69956304438396
 20
98.08192256637169
 30
0.0
 10
75.68396997749863
 20
98.08192256637167
 30
0.0
 10
75.67524641117184
 20
98.08192256637167
 30
0.0
  0
SPLINE
  5
16E
330
1F
100
AcDbEntity
  8
0
  6
Continuous
 62
     7
370
    25
100
AcDbSpline
210
0.0
220
0.0
230
1.0
 70
     8
 71
     3
 72
    15
 73
    11
 74
     0
 42
0.000000001
 43
0.00000001
 40
0.0
 40
0.0
 40
0.0
 40
0.0
 40
0.1323052378296974
 40
0.264573068266034
 40
0.3997997819746865
 40
0.5350020935366704
 40
0.6501929590834606
 40
0.7654017933211844
 40
0.8826895567076685
 40
1.0
 40
1.0
 40
1.0
 40
1.0
 10
76.43278788716314
 20
81.0819225663717
 30
0.0
 10
76.31721791532316
 20
81.44915638433474
 30
0.0
 10
76.08611064738201
 20
82.1835201902076
 30
0.0
 10
75.83744801580565
 20
83.31437544480296
 30
0.0
 10
75.68793406865214
 20
84.46654751039594
 30
0.0
 10
75.65832378160376
 20
85.57698372305624
 30
0.0
 10
75.7351451842544
 20
86.6274288293079
 30
0.0
 10
75.89255465537543
 20
87.61879055596951
 30
0.0
 10
76.1234570159064
 20
88.6056700477795
 30
0.0
 10
76.32967095146377
 20
89.25648408757695
 30
0.0
 10
76.43278788716314
 20
89.58192256637165
 30
0.0
  0
LINE
  5
16F
330
1F
100
AcDbEntity
  8
0
  6
Continuous
 62
     7
370
    25
100
AcDbLine
 10
75.5292609413
 20
81.3319225664
 30
0.0
 11
75.5292609413
 21
97.8319225664
 31
0.0
  0
LINE
  5
170
330
1F
100
AcDbEntity
  8
0
  6
Continuous
 62
     7
370
    25
100
AcDbLine
 10
86.8127545904
 20
86.5989934997
 30
0.0
 11
86.8127545904
 21
92.5648516331
 31
0.0
  0
SPLINE
  5
171
330
1F
100
AcDbEntity
  8
0
  6
Continuous
 62
     7
370
    25
100
AcDbSpline
210
0.0
220
0.0
230
1.0
 70
     8
 71
     3
 72
    11
 73
     7
 74
     0
 42
0.000000001
 43
0.00000001
 40
0.0
 40
0.0
 40
0.0
 40
0.0
 40
0.2488261663104052
 40
0.4980307642143797
 40
0.7486902142220281
 40
1.0
 40
1.0
 40
1.0
 40
1.0
 10
86.12573399545865
 20
89.58192256637165
 30
0.0
 10
86.20392314179867
 20
89.33851092543682
 30
0.0
 10
86.36042034979896
 20
88.8513174467485
 30
0.0
 10
86.5531069794017
 20
88.10951395681946
 30
0.0
 10
86.71234653362987
 20
87.35899344859473
 30
0.0
 10
86.77925634269548
 20
86.8525455287138
 30
0.0
 10
86.81275459036479
 20
86.59899349966608
 30
0.0
  0
SPLINE
  5
172
330
1F
100
AcDbEntity
  8
0
  6
Continuous
 62
     7
370
    25
100
AcDbSpline
210
0.0
220
0.0
230
1.0
 70
     8
 71
     3
 72
    10
 73
     6
 74
     0
 42
0.000000001
 43
0.00000001
 40
0.0
 40
0.0
 40
0.0
 40
0.0
 40
0.3089808900030074
 40
0.6190948628358686
 40
1.0
 40
1.0
 40
1.0
 40
1.0
 10
86.81275459036479
 20
86.59899349966608
 30
0.0
 10
86.8369015969015
 20
86.33840998494975
 30
0.0
 10
86.88528416094806
 20
85.81628735367951
 30
0.0
 10
86.8927392536647
 20
84.96929504295906
 30
0.0
 10
86.84117690586514
 20
84.38624294595279
 30
0.0
 10
86.81275459036479
 20
84.06485163307727
 30
0.0
  0
SPLINE
  5
173
330
1F
100
AcDbEntity
  8
0
  6
Continuous
 62
     7
370
    25
100
AcDbSpline
210
0.0
220
0.0
230
1.0
 70
     8
 71
     3
 72
    11
 73
     7
 74
     0
 42
0.000000001
 43
0.00000001
 40
0.0
 40
0.0
 40
0.0
 40
0.0
 40
0.2485331718811616
 40
0.4983190599828374
 40
0.7486584384632515
 40
0.9999999999999999
 40
0.9999999999999999
 40
0.9999999999999999
 40
0.9999999999999999
 10
86.81275459036479
 20
84.06485163307727
 30
0.0
 10
86.77967656633207
 20
83.81409725591811
 30
0.0
 10
86.7133537905138
 20
83.31132458953022
 30
0.0
 10
86.55521830394642
 20
82.56323081943985
 30
0.0
 10
86.36227743411663
 20
81.81858086491452
 30
0.0
 10
86.20468674537102
 20
81.32780213397119
 30
0.0
 10
86.12573399545865
 20
81.0819225663717
 30
0.0
  0
LINE
  5
174
330
1F
100
AcDbEntity
  8
0
  6
Continuous
 62
     7
370
    25
100
AcDbLine
 10
76.4327878872
 20
81.0819225664
 30
0.0
 11
86.1257339955
 21
81.0819225664
 31
0.0
  0
ARC
  5
175
330
1F
100
AcDbEntity
  8
0
  6
Continuous
 62
     7
370
    25
100
AcDbCircle
 10
87.3999777789
 20
93.8144611553
 30
0.0
 40
1.38070816295681
100
AcDbArc
 50
244.8299789717
 51
272.5859934179
  0
LINE
  5
176
330
1F
100
AcDbEntity
  8
0
  6
Continuous
 62
     7
370
    25
100
AcDbLine
 10
87.4622736432
 20
92.435159065
 30
0.0
 11
87.4622736432
 21
86.7286860678
 31
0.0
  0
ARC
  5
177
330
1F
100
AcDbEntity
  8
0
  6
Continuous
 62
     7
370
    25
100
AcDbCircle
 10
87.3999777789
 20
85.3493839774
 30
0.0
 40
1.380708162956386
100
AcDbArc
 50
87.4140065821
 51
115.1700210283
  0
LINE
  5
178
330
1F
100
AcDbEntity
  8
0
  6
Continuous
 62
     7
370
    25
100
AcDbLine
 10
88.5292609413
 20
97.6319225664
 30
0.0
 11
88.5292609413
 21
81.5319225664
 31
0.0
  0
LINE
  5
179
330
1F
100
AcDbEntity
  8
0
  6
Continuous
 62
     7
370
    25
100
AcDbLine
 10
88.3292609413
 20
81.3319225664
 30
0.0
 11
88.3292609413
 21
97.8319225664
 31
0.0
  0
LINE
  5
17A
330
1F
100
AcDbEntity
  8
0
  6
Continuous
 62
     7
370
    25
100
AcDbLine
 10
87.4622736432
 20
84.3047242824
 30
0.0
 11
87.4622736432
 21
81.4514877838
 31
0.0
  0
SPLINE
  5
17B
330
1F
100
AcDbEntity
  8
0
  6
Continuous
 62
     7
370
    25
100
AcDbSpline
210
0.0
220
0.0
230
1.0
 70
     8
 71
     3
 72
    11
 73
     7
 74
     0
 42
0.000000001
 43
0.00000001
 40
0.0
 40
0.0
 40
0.0
 40
0.0
 40
0.2858113857233213
 40
0.5527245545214223
 40
0.8220275582231135
 40
1.0
 40
1.0
 40
1.0
 40
1.0
 10
87.46227364320312
 20
86.72868606778373
 30
0.0
 10
87.4583333417806
 20
86.47981654107303
 30
0.0
 10
87.45071327674039
 20
85.99853306128095
 30
0.0
 10
87.43925218708948
 20
85.32195843355187
 30
0.0
 10
87.45668957633112
 20
84.76192984753557
 30
0.0
 10
87.46068417759034
 20
84.43486465145648
 30
0.0
 10
87.46227364320312
 20
84.30472428235093
 30
0.0
  0
SPLINE
  5
17C
330
1F
100
AcDbEntity
  8
0
  6
Continuous
 62
     7
370
    25
100
AcDbSpline
210
0.0
220
0.0
230
1.0
 70
     8
 71
     3
 72
    11
 73
     7
 74
     0
 42
0.000000001
 43
0.00000001
 40
0.0
 40
0.0
 40
0.0
 40
0.0
 40
0.2858113857233872
 40
0.5527245545213871
 40
0.8220275582229751
 40
1.0
 40
1.0
 40
1.0
 40
1.0
 10
87.46227364320312
 20
94.85912085039256
 30
0.0
 10
87.4583333417806
 20
94.6483692548646
 30
0.0
 10
87.45071327674039
 20
94.2408012307356
 30
0.0
 10
87.43925218708945
 20
93.58058036920646
 30
0.0
 10
87.4566895763311
 20
92.98149660509992
 30
0.0
 10
87.46068417759034
 20
92.59067022786803
 30
0.0
 10
87.46227364320312
 20
92.43515906495946
 30
0.0
  0
LINE
  5
17D
330
1F
100
AcDbEntity
  8
0
  6
Continuous
 62
     7
370
    25
100
AcDbLine
 10
87.4622736432
 20
97.712357349
 30
0.0
 11
87.4622736432
 21
94.8591208504
 31
0.0
  0
ARC
  5
17E
330
1F
100
AcDbEntity
  8
0
  6
Continuous
 62
     7
370
    25
100
AcDbCircle
 10
87.4204665437
 20
95.7452261939
 30
0.0
 40
0.8870910400314932
100
AcDbArc
 50
226.7595529446
 51
272.7012537053
  0
ARC
  5
17F
330
1F
100
AcDbEntity
  8
0
  6
Continuous
 62
     7
370
    25
100
AcDbCircle
 10
87.4204665437
 20
83.4186189389
 30
0.0
 40
0.8870910400315758
100
AcDbArc
 50
87.2987462947
 51
133.2404470554
  0
LINE
  5
180
330
1F
100
AcDbEntity
  8
0
  6
Continuous
 62
     7
370
    25
100
AcDbLine
 10
86.8127545904
 20
81.0819225664
 30
0.0
 11
86.8127545904
 21
84.0648516331
 31
0.0
  0
ARC
  5
181
330
1F
100
AcDbEntity
  8
0
  6
Continuous
 62
     7
370
    25
100
AcDbCircle
 10
87.4602375084
 20
80.6995116682
 30
0.0
 40
0.7519788721911662
100
AcDbArc
 50
89.8448599075
 51
149.433409991
  0
SPLINE
  5
182
330
1F
100
AcDbEntity
  8
0
  6
Continuous
 62
     7
370
    25
100
AcDbSpline
210
0.0
220
0.0
230
1.0
 70
    24
 71
     3
 72
    11
 73
     7
 74
     0
 42
0.000000001
 43
0.00000001
 40
0.0
 40
0.0
 40
0.0
 40
0.0
 40
0.2488261663104053
 40
0.4980307642143797
 40
0.7486902142220283
 40
1.0
 40
1.0
 40
1.0
 40
1.0
 10
86.12573399545865
 20
81.0819225663717
 30
0.0
 10
86.20392314179867
 20
81.0819225663717
 30
0.0
 10
86.36042034979896
 20
81.08192256637173
 30
0.0
 10
86.5531069794017
 20
81.08192256637172
 30
0.0
 10
86.71234653362988
 20
81.08192256637172
 30
0.0
 10
86.77925634269548
 20
81.0819225663717
 30
0.0
 10
86.81275459036479
 20
81.08192256637169
 30
0.0
  0
SPLINE
  5
183
330
1F
100
AcDbEntity
  8
0
  6
Continuous
 62
     7
370
    25
100
AcDbSpline
210
0.0
220
0.0
230
1.0
 70
    24
 71
     3
 72
    11
 73
     7
 74
     0
 42
0.000000001
 43
0.00000001
 40
0.0
 40
0.0
 40
0.0
 40
0.0
 40
0.2485331657816016
 40
0.4977458539813222
 40
0.7486584446317363
 40
1.0
 40
1.0
 40
1.0
 40
1.0
 10
86.8127545903648
 20
98.08192256637169
 30
0.0
 10
86.7796772204761
 20
98.08192256637167
 30
0.0
 10
86.71343204281168
 20
98.08192256637167
 30
0.0
 10
86.55535396581264
 20
98.08192256637167
 30
0.0
 10
86.36245627692061
 20
98.08192256637167
 30
0.0
 10
86.20468633860959
 20
98.08192256637167
 30
0.0
 10
86.12573399545865
 20
98.08192256637167
 30
0.0
  0
LINE
  5
184
330
1F
100
AcDbEntity
  8
0
  6
Continuous
 62
     7
370
    25
100
AcDbLine
 10
86.8127545904
 20
95.0989934997
 30
0.0
 11
86.8127545904
 21
98.0819225664
 31
0.0
  0
ARC
  5
185
330
1F
100
AcDbEntity
  8
0
  6
Continuous
 62
     7
370
    25
100
AcDbCircle
 10
87.4602375084
 20
98.4643334645
 30
0.0
 40
0.7519788721912334
100
AcDbArc
 50
210.566590009
 51
270.1551400925
  0
SPLINE
  5
186
330
1F
100
AcDbEntity
  8
0
  6
Continuous
 62
     7
370
    25
100
AcDbSpline
210
0.0
220
0.0
230
1.0
 70
    24
 71
     3
 72
     9
 73
     5
 74
     0
 42
0.000000001
 43
0.00000001
 40
0.0
 40
0.0
 40
0.0
 40
0.0
 40
0.1479280742141758
 40
1.0
 40
1.0
 40
1.0
 40
1.0
 10
86.81275459036479
 20
81.08192256637169
 30
0.0
 10
86.81999525226638
 20
81.08192256637169
 30
0.0
 10
86.86894243109005
 20
81.08192256637169
 30
0.0
 10
86.87711565019723
 20
81.08192256637169
 30
0.0
 10
86.88407982074175
 20
81.08192256637169
 30
0.0
  0
SPLINE
  5
187
330
1F
100
AcDbEntity
  8
0
  6
Continuous
 62
     7
370
    25
100
AcDbSpline
210
0.0
220
0.0
230
1.0
 70
    24
 71
     3
 72
     9
 73
     5
 74
     0
 42
0.000000001
 43
0.00000001
 40
0.0
 40
0.0
 40
0.0
 40
0.0
 40
0.8304233688248651
 40
1.0
 40
1.0
 40
1.0
 40
1.0
 10
86.87609071880652
 20
98.08192256637167
 30
0.0
 10
86.8701566313763
 20
98.08192256637167
 30
0.0
 10
86.86301077342844
 20
98.08192256637169
 30
0.0
 10
86.82004122211896
 20
98.08192256637169
 30
0.0
 10
86.81275459036479
 20
98.08192256637169
 30
0.0
  0
SPLINE
  5
188
330
1F
100
AcDbEntity
  8
0
  6
Continuous
 62
     7
370
    25
100
AcDbSpline
210
0.0
220
0.0
230
1.0
 70
    24
 71
     3
 72
    12
 73
     8
 74
     0
 42
0.000000001
 43
0.00000001
 40
0.0
 40
0.0
 40
0.0
 40
0.0
 40
0.2421108666662589
 40
0.430252753992758
 40
0.6190122594691806
 40
0.8093134994981533
 40
1.0
 40
1.0
 40
1.0
 40
1.0
 10
57.88492571260238
 20
98.08192256637167
 30
0.0
 10
57.8769391401762
 20
98.08192256637167
 30
0.0
 10
57.86274628370246
 20
98.08192256637167
 30
0.0
 10
57.74334832783043
 20
98.08192256637163
 30
0.0
 10
57.5863279369273
 20
98.08192256637165
 30
0.0
 10
57.38255695090609
 20
98.08192256637162
 30
0.0
 10
57.21361999091651
 20
98.08192256637163
 30
0.0
 10
57.12906609513773
 20
98.08192256637165
 30
0.0
  0
SPLINE
  5
189
330
1F
100
AcDbEntity
  8
0
  6
Continuous
 62
     7
370
    25
100
AcDbSpline
210
0.0
220
0.0
230
1.0
 70
    24
 71
     3
 72
    12
 73
     8
 74
     0
 42
0.000000001
 43
0.00000001
 40
0.0
 40
0.0
 40
0.0
 40
0.0
 40
0.1884159108776432
 40
0.377167695899172
 40
0.5672300280536144
 40
0.7578861437406148
 40
0.9999999999999999
 40
0.9999999999999999
 40
0.9999999999999999
 40
0.9999999999999999
 10
57.12906609513773
 20
81.08192256637167
 30
0.0
 10
57.21265229347462
 20
81.08192256637167
 30
0.0
 10
57.37997369265395
 20
81.08192256637167
 30
0.0
 10
57.58351899254571
 20
81.08192256637167
 30
0.0
 10
57.74211334977903
 20
81.08192256637169
 30
0.0
 10
57.86229093791691
 20
81.08192256637167
 30
0.0
 10
57.87788400480225
 20
81.08192256637167
 30
0.0
 10
57.88660757112905
 20
81.08192256637169
 30
0.0
  0
SPLINE
  5
18A
330
1F
100
AcDbEntity
  8
0
  6
Continuous
 62
     7
370
    25
100
AcDbSpline
210
0.0
220
0.0
230
1.0
 70
     8
 71
     3
 72
    15
 73
    11
 74
     0
 42
0.000000001
 43
0.00000001
 40
0.0
 40
0.0
 40
0.0
 40
0.0
 40
0.1323052378296956
 40
0.2645730682660304
 40
0.3997997819746812
 40
0.5350020935366634
 40
0.6501929590834554
 40
0.7654017933211805
 40
0.8826895567076665
 40
1.0
 40
1.0
 40
1.0
 40
1.0
 10
57.12906609513773
 20
89.58192256637167
 30
0.0
 10
57.24463606697773
 20
89.21468874840865
 30
0.0
 10
57.4757433349189
 20
88.48032494253579
 30
0.0
 10
57.72440596649525
 20
87.34946968794043
 30
0.0
 10
57.87391991364876
 20
86.19729762234748
 30
0.0
 10
57.90353020069715
 20
85.08686140968716
 30
0.0
 10
57.8267087980465
 20
84.03641630343547
 30
0.0
 10
57.66929932692548
 20
83.04505457677384
 30
0.0
 10
57.43839696639449
 20
82.05817508496382
 30
0.0
 10
57.23218303083711
 20
81.40736104516635
 30
0.0
 10
57.12906609513773
 20
81.08192256637167
 30
0.0
  0
SPLINE
  5
18B
330
1F
100
AcDbEntity
  8
0
  6
Continuous
 62
     7
370
    25
100
AcDbSpline
210
0.0
220
0.0
230
1.0
 70
     8
 71
     3
 72
    15
 73
    11
 74
     0
 42
0.000000001
 43
0.00000001
 40
0.0
 40
0.0
 40
0.0
 40
0.0
 40
0.1323052378296973
 40
0.2645730682660339
 40
0.3997997819746865
 40
0.5350020935366704
 40
0.6501929590834608
 40
0.7654017933211844
 40
0.8826895567076685
 40
1.0
 40
1.0
 40
1.0
 40
1.0
 10
57.12906609513773
 20
98.08192256637165
 30
0.0
 10
57.24463606697773
 20
97.7146887484086
 30
0.0
 10
57.47574333491889
 20
96.98032494253573
 30
0.0
 10
57.72440596649523
 20
95.84946968794037
 30
0.0
 10
57.87391991364875
 20
94.6972976223474
 30
0.0
 10
57.90353020069712
 20
93.58686140968709
 30
0.0
 10
57.82670879804648
 20
92.53641630343543
 30
0.0
 10
57.66929932692545
 20
91.54505457677381
 30
0.0
 10
57.43839696639448
 20
90.55817508496382
 30
0.0
 10
57.23218303083711
 20
89.90736104516637
 30
0.0
 10
57.12906609513773
 20
89.58192256637167
 30
0.0
  0
LINE
  5
18C
330
1F
100
AcDbEntity
  8
0
  6
Continuous
 62
     7
370
    25
100
AcDbLine
 10
58.032593041
 20
97.8319225664
 30
0.0
 11
58.032593041
 21
81.3319225664
 31
0.0
  0
SPLINE
  5
18D
330
1F
100
AcDbEntity
  8
0
  6
Continuous
 62
     7
370
    25
100
AcDbSpline
210
0.0
220
0.0
230
1.0
 70
     8
 71
     3
 72
    10
 73
     6
 74
     0
 42
0.000000001
 43
0.00000001
 40
0.0
 40
0.0
 40
0.0
 40
0.0
 40
0.3089808900030074
 40
0.6190948628358686
 40
1.0
 40
1.0
 40
1.0
 40
1.0
 10
46.7490993919361
 20
92.56485163307725
 30
0.0
 10
46.72495238539939
 20
92.82543514779358
 30
0.0
 10
46.67656982135284
 20
93.34755777906382
 30
0.0
 10
46.66911472863617
 20
94.19455008978427
 30
0.0
 10
46.72067707643575
 20
94.77760218679055
 30
0.0
 10
46.7490993919361
 20
95.09899349966607
 30
0.0
  0
SPLINE
  5
18E
330
1F
100
AcDbEntity
  8
0
  6
Continuous
 62
     7
370
    25
100
AcDbSpline
210
0.0
220
0.0
230
1.0
 70
     8
 71
     3
 72
    11
 73
     7
 74
     0
 42
0.000000001
 43
0.00000001
 40
0.0
 40
0.0
 40
0.0
 40
0.0
 40
0.2485331718811617
 40
0.4983190599828377
 40
0.7486584384632519
 40
1.0
 40
1.0
 40
1.0
 40
1.0
 10
46.7490993919361
 20
95.09899349966607
 30
0.0
 10
46.78217741596882
 20
95.34974787682522
 30
0.0
 10
46.8485001917871
 20
95.85252054321312
 30
0.0
 10
47.00663567835446
 20
96.60061431330348
 30
0.0
 10
47.19957654818425
 20
97.34526426782882
 30
0.0
 10
47.35716723692988
 20
97.83604299877216
 30
0.0
 10
47.43611998684224
 20
98.08192256637165
 30
0.0
  0
LINE
  5
18F
330
1F
100
AcDbEntity
  8
0
  6
Continuous
 62
     7
370
    25
100
AcDbLine
 10
57.1290660951
 20
98.0819225664
 30
0.0
 11
47.4361199868
 21
98.0819225664
 31
0.0
  0
LINE
  5
190
330
1F
100
AcDbEntity
  8
0
  6
Continuous
 62
     7
370
    25
100
AcDbLine
 10
57.1290660951
 20
89.5819225664
 30
0.0
 11
47.4361199868
 21
89.5819225664
 31
0.0
  0
SPLINE
  5
191
330
1F
100
AcDbEntity
  8
0
  6
Continuous
 62
     7
370
    25
100
AcDbSpline
210
0.0
220
0.0
230
1.0
 70
     8
 71
     3
 72
    11
 73
     7
 74
     0
 42
0.000000001
 43
0.00000001
 40
0.0
 40
0.0
 40
0.0
 40
0.0
 40
0.2488261663104051
 40
0.4980307642143798
 40
0.7486902142220281
 40
0.9999999999999999
 40
0.9999999999999999
 40
0.9999999999999999
 40
0.9999999999999999
 10
47.43611998684224
 20
89.58192256637167
 30
0.0
 10
47.35793084050221
 20
89.8253342073065
 30
0.0
 10
47.20143363250192
 20
90.31252768599482
 30
0.0
 10
47.00874700289918
 20
91.05433117592386
 30
0.0
 10
46.84950744867101
 20
91.80485168414859
 30
0.0
 10
46.78259763960541
 20
92.31129960402953
 30
0.0
 10
46.7490993919361
 20
92.56485163307725
 30
0.0
  0
SPLINE
  5
192
330
1F
100
AcDbEntity
  8
0
  6
Continuous
 62
     7
370
    25
100
AcDbSpline
210
0.0
220
0.0
230
1.0
 70
     8
 71
     3
 72
    11
 73
     7
 74
     0
 42
0.000000001
 43
0.00000001
 40
0.0
 40
0.0
 40
0.0
 40
0.0
 40
0.2485331718811623
 40
0.498319059982838
 40
0.748658438463252
 40
0.9999999999999999
 40
0.9999999999999999
 40
0.9999999999999999
 40
0.9999999999999999
 10
46.7490993919361
 20
86.59899349966624
 30
0.0
 10
46.78217741596882
 20
86.84974787682539
 30
0.0
 10
46.84850019178709
 20
87.35252054321326
 30
0.0
 10
47.00663567835447
 20
88.10061431330358
 30
0.0
 10
47.19957654818424
 20
88.84526426782891
 30
0.0
 10
47.35716723692987
 20
89.33604299877221
 30
0.0
 10
47.43611998684224
 20
89.58192256637167
 30
0.0
  0
LINE
  5
193
330
1F
100
AcDbEntity
  8
0
  6
Continuous
 62
     7
370
    25
100
AcDbLine
 10
46.7490993919
 20
92.5648516331
 30
0.0
 11
46.7490993919
 21
86.5989934997
 31
0.0
  0
SPLINE
  5
194
330
1F
100
AcDbEntity
  8
0
  6
Continuous
 62
     7
370
    25
100
AcDbSpline
210
0.0
220
0.0
230
1.0
 70
     8
 71
     3
 72
    10
 73
     6
 74
     0
 42
0.000000001
 43
0.00000001
 40
0.0
 40
0.0
 40
0.0
 40
0.0
 40
0.3089808900029886
 40
0.6190948628358313
 40
1.0
 40
1.0
 40
1.0
 40
1.0
 10
46.7490993919361
 20
84.0648516330771
 30
0.0
 10
46.72495238539939
 20
84.32543514779344
 30
0.0
 10
46.67656982135281
 20
84.84755777906372
 30
0.0
 10
46.66911472863615
 20
85.69455008978429
 30
0.0
 10
46.72067707643574
 20
86.27760218679065
 30
0.0
 10
46.7490993919361
 20
86.59899349966624
 30
0.0
  0
LINE
  5
195
330
1F
100
AcDbEntity
  8
0
  6
Continuous
 62
     7
370
    25
100
AcDbLine
 10
57.1290660951
 20
81.0819225664
 30
0.0
 11
47.4361199868
 21
81.0819225664
 31
0.0
  0
SPLINE
  5
196
330
1F
100
AcDbEntity
  8
0
  6
Continuous
 62
     7
370
    25
100
AcDbSpline
210
0.0
220
0.0
230
1.0
 70
     8
 71
     3
 72
    11
 73
     7
 74
     0
 42
0.000000001
 43
0.00000001
 40
0.0
 40
0.0
 40
0.0
 40
0.0
 40
0.2488261663104051
 40
0.4980307642143799
 40
0.7486902142220285
 40
1.0
 40
1.0
 40
1.0
 40
1.0
 10
47.43611998684224
 20
81.08192256637167
 30
0.0
 10
47.35793084050221
 20
81.32533420730648
 30
0.0
 10
47.20143363250193
 20
81.81252768599477
 30
0.0
 10
47.00874700289918
 20
82.55433117592378
 30
0.0
 10
46.84950744867101
 20
83.30485168414847
 30
0.0
 10
46.78259763960541
 20
83.81129960402939
 30
0.0
 10
46.7490993919361
 20
84.0648516330771
 30
0.0
  0
ARC
  5
197
330
1F
100
AcDbEntity
  8
0
  6
Continuous
 62
     7
370
    25
100
AcDbCircle
 10
46.1618762034
 20
85.3493839774
 30
0.0
 40
1.380708162956739
100
AcDbArc
 50
64.8299789717
 51
92.5859934179
  0
LINE
  5
198
330
1F
100
AcDbEntity
  8
0
  6
Continuous
 62
     7
370
    25
100
AcDbLine
 10
46.0995803391
 20
86.7286860678
 30
0.0
 11
46.0995803391
 21
92.435159065
 31
0.0
  0
ARC
  5
199
330
1F
100
AcDbEntity
  8
0
  6
Continuous
 62
     7
370
    25
100
AcDbCircle
 10
46.1618762034
 20
93.8144611553
 30
0.0
 40
1.380708162956456
100
AcDbArc
 50
267.4140065821
 51
295.1700210283
  0
LINE
  5
19A
330
1F
100
AcDbEntity
  8
0
  6
Continuous
 62
     7
370
    25
100
AcDbLine
 10
46.0995803391
 20
94.8591208504
 30
0.0
 11
46.0995803391
 21
97.712357349
 31
0.0
  0
SPLINE
  5
19B
330
1F
100
AcDbEntity
  8
0
  6
Continuous
 62
     7
370
    25
100
AcDbSpline
210
0.0
220
0.0
230
1.0
 70
     8
 71
     3
 72
    11
 73
     7
 74
     0
 42
0.000000001
 43
0.00000001
 40
0.0
 40
0.0
 40
0.0
 40
0.0
 40
0.2858113857233212
 40
0.5527245545214223
 40
0.8220275582231134
 40
1.0
 40
1.0
 40
1.0
 40
1.0
 10
46.09958033909776
 20
92.4351590649596
 30
0.0
 10
46.10352064052029
 20
92.6840285916703
 30
0.0
 10
46.11114070556048
 20
93.16531207146238
 30
0.0
 10
46.12260179521141
 20
93.84188669919146
 30
0.0
 10
46.10516440596977
 20
94.40191528520776
 30
0.0
 10
46.10116980471054
 20
94.72898048128685
 30
0.0
 10
46.09958033909776
 20
94.8591208503924
 30
0.0
  0
SPLINE
  5
19C
330
1F
100
AcDbEntity
  8
0
  6
Continuous
 62
     7
370
    25
100
AcDbSpline
210
0.0
220
0.0
230
1.0
 70
     8
 71
     3
 72
    11
 73
     7
 74
     0
 42
0.000000001
 43
0.00000001
 40
0.0
 40
0.0
 40
0.0
 40
0.0
 40
0.2858113857233873
 40
0.5527245545213872
 40
0.822027558222975
 40
1.0
 40
1.0
 40
1.0
 40
1.0
 10
46.09958033909776
 20
84.30472428235078
 30
0.0
 10
46.10352064052029
 20
84.51547587787871
 30
0.0
 10
46.11114070556049
 20
84.92304390200773
 30
0.0
 10
46.12260179521142
 20
85.58326476353687
 30
0.0
 10
46.1051644059698
 20
86.18234852764341
 30
0.0
 10
46.10116980471054
 20
86.5731749048753
 30
0.0
 10
46.09958033909776
 20
86.72868606778387
 30
0.0
  0
LINE
  5
19D
330
1F
100
AcDbEntity
  8
0
  6
Continuous
 62
     7
370
    25
100
AcDbLine
 10
46.0995803391
 20
81.4514877838
 30
0.0
 11
46.0995803391
 21
84.3047242824
 31
0.0
  0
LINE
  5
19E
330
1F
100
AcDbEntity
  8
0
  6
Continuous
 62
     7
370
    25
100
AcDbLine
 10
45.232593041
 20
97.8319225664
 30
0.0
 11
45.232593041
 21
81.3319225664
 31
0.0
  0
LINE
  5
19F
330
1F
100
AcDbEntity
  8
0
  6
Continuous
 62
     7
370
    25
100
AcDbLine
 10
45.032593041
 20
81.5319225664
 30
0.0
 11
45.032593041
 21
97.6319225664
 31
0.0
  0
ARC
  5
1A0
330
1F
100
AcDbEntity
  8
0
  6
Continuous
 62
     7
370
    25
100
AcDbCircle
 10
46.1413874386
 20
83.4186189389
 30
0.0
 40
0.8870910400315236
100
AcDbArc
 50
46.7595529446
 51
92.7012537053
  0
ARC
  5
1A1
330
1F
100
AcDbEntity
  8
0
  6
Continuous
 62
     7
370
    25
100
AcDbCircle
 10
46.1413874386
 20
95.7452261939
 30
0.0
 40
0.8870910400316319
100
AcDbArc
 50
267.2987462948
 51
313.2404470554
  0
LINE
  5
1A2
330
1F
100
AcDbEntity
  8
0
  6
Continuous
 62
     7
370
    25
100
AcDbLine
 10
46.7490993919
 20
98.0819225664
 30
0.0
 11
46.7490993919
 21
95.0989934997
 31
0.0
  0
SPLINE
  5
1A3
330
1F
100
AcDbEntity
  8
0
  6
Continuous
 62
     7
370
    25
100
AcDbSpline
210
0.0
220
0.0
230
1.0
 70
    24
 71
     3
 72
    11
 73
     7
 74
     0
 42
0.000000001
 43
0.00000001
 40
0.0
 40
0.0
 40
0.0
 40
0.0
 40
0.2488261663104052
 40
0.4980307642143797
 40
0.7486902142220281
 40
1.0
 40
1.0
 40
1.0
 40
1.0
 10
47.43611998684224
 20
98.08192256637165
 30
0.0
 10
47.35793084050221
 20
98.08192256637163
 30
0.0
 10
47.20143363250192
 20
98.08192256637162
 30
0.0
 10
47.00874700289917
 20
98.08192256637163
 30
0.0
 10
46.84950744867101
 20
98.08192256637165
 30
0.0
 10
46.78259763960541
 20
98.08192256637166
 30
0.0
 10
46.7490993919361
 20
98.08192256637166
 30
0.0
  0
ARC
  5
1A4
330
1F
100
AcDbEntity
  8
0
  6
Continuous
 62
     7
370
    25
100
AcDbCircle
 10
46.1016164739
 20
98.4643334645
 30
0.0
 40
0.7519788721912477
100
AcDbArc
 50
269.8448599075
 51
329.433409991
  0
LINE
  5
1A5
330
1F
100
AcDbEntity
  8
0
  6
Continuous
 62
     7
370
    25
100
AcDbLine
 10
46.7490993919
 20
84.0648516331
 30
0.0
 11
46.7490993919
 21
81.0819225664
 31
0.0
  0
ARC
  5
1A6
330
1F
100
AcDbEntity
  8
0
  6
Continuous
 62
     7
370
    25
100
AcDbCircle
 10
46.1016164739
 20
80.6995116682
 30
0.0
 40
0.7519788721912193
100
AcDbArc
 50
30.566590009
 51
90.1551400925
  0
SPLINE
  5
1A7
330
1F
100
AcDbEntity
  8
0
  6
Continuous
 62
     7
370
    25
100
AcDbSpline
210
0.0
220
0.0
230
1.0
 70
    24
 71
     3
 72
    11
 73
     7
 74
     0
 42
0.000000001
 43
0.00000001
 40
0.0
 40
0.0
 40
0.0
 40
0.0
 40
0.2485331657816017
 40
0.4977458539813223
 40
0.7486584446317363
 40
1.0
 40
1.0
 40
1.0
 40
1.0
 10
46.74909939193608
 20
81.08192256637167
 30
0.0
 10
46.78217676182478
 20
81.08192256637167
 30
0.0
 10
46.8484219394892
 20
81.08192256637169
 30
0.0
 10
47.00650001648825
 20
81.08192256637167
 30
0.0
 10
47.19939770538026
 20
81.08192256637167
 30
0.0
 10
47.35716764369129
 20
81.08192256637167
 30
0.0
 10
47.43611998684224
 20
81.08192256637167
 30
0.0
  0
SPLINE
  5
1A8
330
1F
100
AcDbEntity
  8
0
  6
Continuous
 62
     7
370
    25
100
AcDbSpline
210
0.0
220
0.0
230
1.0
 70
    24
 71
     3
 72
     9
 73
     5
 74
     0
 42
0.000000001
 43
0.00000001
 40
0.0
 40
0.0
 40
0.0
 40
0.0
 40
0.1479280742141605
 40
1.0
 40
1.0
 40
1.0
 40
1.0
 10
46.7490993919361
 20
98.08192256637166
 30
0.0
 10
46.74185873003449
 20
98.08192256637167
 30
0.0
 10
46.69291155121084
 20
98.08192256637167
 30
0.0
 10
46.68473833210367
 20
98.08192256637167
 30
0.0
 10
46.67777416155914
 20
98.08192256637167
 30
0.0
  0
SPLINE
  5
1A9
330
1F
100
AcDbEntity
  8
0
  6
Continuous
 62
     7
370
    25
100
AcDbSpline
210
0.0
220
0.0
230
1.0
 70
    24
 71
     3
 72
     9
 73
     5
 74
     0
 42
0.000000001
 43
0.00000001
 40
0.0
 40
0.0
 40
0.0
 40
0.0
 40
0.8304233688248541
 40
1.0
 40
1.0
 40
1.0
 40
1.0
 10
46.68576326349437
 20
81.08192256637169
 30
0.0
 10
46.69169735092458
 20
81.08192256637169
 30
0.0
 10
46.69884320887247
 20
81.08192256637167
 30
0.0
 10
46.74181276018192
 20
81.08192256637167
 30
0.0
 10
46.74909939193608
 20
81.08192256637167
 30
0.0
  0
SPLINE
  5
1AA
330
1F
100
AcDbEntity
  8
0
  6
Continuous
 62
     7
370
    25
100
AcDbSpline
210
0.0
220
0.0
230
1.0
 70
     8
 71
     3
 72
    10
 73
     6
 74
     0
 42
0.000000001
 43
0.00000001
 40
0.0
 40
0.0
 40
0.0
 40
0.0
 40
0.5
 40
0.5
 40
1.0
 40
1.0
 40
1.0
 40
1.0
 10
65.05047934078664
 20
89.58192256637163
 30
0.0
 10
64.85962812713034
 20
90.15447620734051
 30
0.0
 10
64.70239500597371
 20
90.73121216709998
 30
0.0
 10
64.48485096884545
 20
91.89674186651747
 30
0.0
 10
64.42526455844785
 20
92.48562573958435
 30
0.0
 10
64.42526455844785
 20
93.08192256637169
 30
0.0
  0
SPLINE
  5
1AB
330
1F
100
AcDbEntity
  8
0
  6
Continuous
 62
     7
370
    25
100
AcDbSpline
210
0.0
220
0.0
230
1.0
 70
     8
 71
     3
 72
    12
 73
     8
 74
     0
 42
0.000000001
 43
0.00000001
 40
0.0
 40
0.0
 40
0.0
 40
0.0
 40
0.25
 40
0.25
 40
0.5
 40
0.5
 40
1.0
 40
1.0
 40
1.0
 40
1.0
 10
64.42526455844785
 20
93.08192256637169
 30
0.0
 10
64.42526455844785
 20
93.37895637054213
 30
0.0
 10
64.44004231690833
 20
93.67732222074619
 30
0.0
 10
64.49723051790359
 20
94.267552143476
 30
0.0
 10
64.53958598762642
 20
94.56069302310455
 30
0.0
 10
64.70294656249905
 20
95.43490922878719
 30
0.0
 10
64.86010461198951
 20
96.0107983799796
 30
0.0
 10
65.05047934078688
 20
96.58192256637172
 30
0.0
  0
LINE
  5
1AC
330
1F
100
AcDbEntity
  8
0
  6
Continuous
 62
     7
370
    25
100
AcDbLine
 10
68.5113746415
 20
96.5819225664
 30
0.0
 11
65.0504793408
 21
96.5819225664
 31
0.0
  0
SPLINE
  5
1AD
330
1F
100
AcDbEntity
  8
0
  6
Continuous
 62
     7
370
    25
100
AcDbSpline
210
0.0
220
0.0
230
1.0
 70
     8
 71
     3
 72
    12
 73
     8
 74
     0
 42
0.000000001
 43
0.00000001
 40
0.0
 40
0.0
 40
0.0
 40
0.0
 40
0.25
 40
0.25
 40
0.5
 40
0.5
 40
1.0
 40
1.0
 40
1.0
 40
1.0
 10
69.13658942385304
 20
93.08192256637169
 30
0.0
 10
69.13658942385304
 20
93.37895637054213
 30
0.0
 10
69.12181166539256
 20
93.67732222074619
 30
0.0
 10
69.0646234643973
 20
94.267552143476
 30
0.0
 10
69.02226799467446
 20
94.56069302310455
 30
0.0
 10
68.85890741980184
 20
95.43490922878719
 30
0.0
 10
68.70174937031138
 20
96.0107983799796
 30
0.0
 10
68.51137464151401
 20
96.58192256637172
 30
0.0
  0
SPLINE
  5
1AE
330
1F
100
AcDbEntity
  8
0
  6
Continuous
 62
     7
370
    25
100
AcDbSpline
210
0.0
220
0.0
230
1.0
 70
     8
 71
     3
 72
    10
 73
     6
 74
     0
 42
0.000000001
 43
0.00000001
 40
0.0
 40
0.0
 40
0.0
 40
0.0
 40
0.5
 40
0.5
 40
1.0
 40
1.0
 40
1.0
 40
1.0
 10
68.51137464151424
 20
89.58192256637163
 30
0.0
 10
68.70222585517055
 20
90.15447620734051
 30
0.0
 10
68.85945897632718
 20
90.73121216709998
 30
0.0
 10
69.07700301345544
 20
91.89674186651747
 30
0.0
 10
69.13658942385304
 20
92.48562573958435
 30
0.0
 10
69.13658942385304
 20
93.08192256637169
 30
0.0
  0
LINE
  5
1AF
330
1F
100
AcDbEntity
  8
0
  6
Continuous
 62
     7
370
    25
100
AcDbLine
 10
68.5113746415
 20
89.5819225664
 30
0.0
 11
65.0504793408
 21
89.5819225664
 31
0.0
  0
LINE
  5
1B0
330
1F
100
AcDbEntity
  8
0
  6
Continuous
 62
     7
370
    25
100
AcDbLine
 10
64.4252645584
 20
86.0819225664
 30
0.0
 11
64.4252645584
 21
93.0819225664
 31
0.0
  0
SPLINE
  5
1B1
330
1F
100
AcDbEntity
  8
0
  6
Continuous
 62
     7
370
    25
100
AcDbSpline
210
0.0
220
0.0
230
1.0
 70
     8
 71
     3
 72
    12
 73
     8
 74
     0
 42
0.000000001
 43
0.00000001
 40
0.0
 40
0.0
 40
0.0
 40
0.0
 40
0.2499999999999999
 40
0.2499999999999999
 40
0.4999999999999998
 40
0.4999999999999998
 40
1.0
 40
1.0
 40
1.0
 40
1.0
 10
64.42526455844785
 20
86.08192256637167
 30
0.0
 10
64.42526455844785
 20
86.37895637054213
 30
0.0
 10
64.44004231690833
 20
86.6773222207462
 30
0.0
 10
64.49723051790359
 20
87.26755214347601
 30
0.0
 10
64.53958598762642
 20
87.56069302310455
 30
0.0
 10
64.70294656249905
 20
88.4349092287872
 30
0.0
 10
64.86010461198951
 20
89.01079837997962
 30
0.0
 10
65.05047934078688
 20
89.58192256637172
 30
0.0
  0
LINE
  5
1B2
330
1F
100
AcDbEntity
  8
0
  6
Continuous
 62
     7
370
    25
100
AcDbLine
 10
69.1365894239
 20
86.0819225664
 30
0.0
 11
69.1365894239
 21
93.0819225664
 31
0.0
  0
SPLINE
  5
1B3
330
1F
100
AcDbEntity
  8
0
  6
Continuous
 62
     7
370
    25
100
AcDbSpline
210
0.0
220
0.0
230
1.0
 70
     8
 71
     3
 72
    12
 73
     8
 74
     0
 42
0.000000001
 43
0.00000001
 40
0.0
 40
0.0
 40
0.0
 40
0.0
 40
0.2499999999999999
 40
0.2499999999999999
 40
0.4999999999999998
 40
0.4999999999999998
 40
1.0
 40
1.0
 40
1.0
 40
1.0
 10
69.13658942385304
 20
86.08192256637167
 30
0.0
 10
69.13658942385304
 20
86.37895637054213
 30
0.0
 10
69.12181166539256
 20
86.6773222207462
 30
0.0
 10
69.0646234643973
 20
87.26755214347601
 30
0.0
 10
69.02226799467446
 20
87.56069302310455
 30
0.0
 10
68.85890741980184
 20
88.4349092287872
 30
0.0
 10
68.70174937031138
 20
89.01079837997962
 30
0.0
 10
68.51137464151401
 20
89.58192256637172
 30
0.0
  0
SPLINE
  5
1B4
330
1F
100
AcDbEntity
  8
0
  6
Continuous
 62
     7
370
    25
100
AcDbSpline
210
0.0
220
0.0
230
1.0
 70
     8
 71
     3
 72
    10
 73
     6
 74
     0
 42
0.000000001
 43
0.00000001
 40
0.0
 40
0.0
 40
0.0
 40
0.0
 40
0.5
 40
0.5
 40
1.0
 40
1.0
 40
1.0
 40
1.0
 10
65.05047934078664
 20
82.58192256637162
 30
0.0
 10
64.85962812713034
 20
83.1544762073405
 30
0.0
 10
64.70239500597371
 20
83.73121216709997
 30
0.0
 10
64.48485096884545
 20
84.89674186651747
 30
0.0
 10
64.42526455844785
 20
85.48562573958436
 30
0.0
 10
64.42526455844785
 20
86.08192256637167
 30
0.0
  0
SPLINE
  5
1B5
330
1F
100
AcDbEntity
  8
0
  6
Continuous
 62
     7
370
    25
100
AcDbSpline
210
0.0
220
0.0
230
1.0
 70
     8
 71
     3
 72
    10
 73
     6
 74
     0
 42
0.000000001
 43
0.00000001
 40
0.0
 40
0.0
 40
0.0
 40
0.0
 40
0.5
 40
0.5
 40
1.0
 40
1.0
 40
1.0
 40
1.0
 10
68.51137464151424
 20
82.58192256637162
 30
0.0
 10
68.70222585517055
 20
83.1544762073405
 30
0.0
 10
68.85945897632718
 20
83.73121216709997
 30
0.0
 10
69.07700301345544
 20
84.89674186651747
 30
0.0
 10
69.13658942385304
 20
85.48562573958436
 30
0.0
 10
69.13658942385304
 20
86.08192256637167
 30
0.0
  0
LINE
  5
1B6
330
1F
100
AcDbEntity
  8
0
  6
Continuous
 62
     7
370
    25
100
AcDbLine
 10
68.5113746415
 20
82.5819225664
 30
0.0
 11
65.0504793408
 21
82.5819225664
 31
0.0
  0
LINE
  5
1B7
330
1F
100
AcDbEntity
  8
0
  6
Continuous
 62
     7
370
    25
100
AcDbLine
 10
69.1365894239
 20
82.5819225664
 30
0.0
 11
69.1365894239
 21
86.0819225664
 31
0.0
  0
LINE
  5
1B8
330
1F
100
AcDbEntity
  8
0
  6
Continuous
 62
     7
370
    25
100
AcDbLine
 10
69.1365894239
 20
93.0819225664
 30
0.0
 11
69.1365894239
 21
96.5819225664
 31
0.0
  0
LINE
  5
1B9
330
1F
100
AcDbEntity
  8
0
  6
Continuous
 62
     7
370
    25
100
AcDbLine
 10
64.4252645584
 20
93.0819225664
 30
0.0
 11
64.4252645584
 21
96.5819225664
 31
0.0
  0
LINE
  5
1BA
330
1F
100
AcDbEntity
  8
0
  6
Continuous
 62
     7
370
    25
100
AcDbLine
 10
64.4252645584
 20
82.5819225664
 30
0.0
 11
64.4252645584
 21
86.0819225664
 31
0.0
  0
LINE
  5
1BB
330
1F
100
AcDbEntity
  8
0
  6
Continuous
 62
     7
370
    25
100
AcDbLine
 10
70.0809269912
 20
82.8319225664
 30
0.0
 11
70.0809269912
 21
96.3319225664
 31
0.0
  0
LINE
  5
1BC
330
1F
100
AcDbEntity
  8
0
  6
Continuous
 62
     7
370
    25
100
AcDbLine
 10
63.4809269912
 20
82.8319225664
 30
0.0
 11
63.4809269912
 21
96.3319225664
 31
0.0
  0
LINE
  5
1BD
330
1F
100
AcDbEntity
  8
0
  6
Continuous
 62
     7
370
    25
100
AcDbLine
 10
70.2809269912
 20
96.1319225664
 30
0.0
 11
70.2809269912
 21
83.0319225664
 31
0.0
  0
LINE
  5
1BE
330
1F
100
AcDbEntity
  8
0
  6
Continuous
 62
     7
370
    25
100
AcDbLine
 10
63.2809269912
 20
96.1319225664
 30
0.0
 11
63.2809269912
 21
83.0319225664
 31
0.0
  0
LINE
  5
1BF
330
1F
100
AcDbEntity
  8
0
  6
Continuous
 62
     7
370
    25
100
AcDbLine
 10
60.2809269912
 20
96.1604225664
 30
0.0
 11
60.2809269912
 21
83.0034225664
 31
0.0
  0
LINE
  5
1C0
330
1F
100
AcDbEntity
  8
0
  6
Continuous
 62
     7
370
    25
100
AcDbLine
 10
73.2809269912
 20
96.1604225664
 30
0.0
 11
73.2809269912
 21
83.0034225664
 31
0.0
  0
LINE
  5
1C1
330
1F
100
AcDbEntity
  8
0
  6
Continuous
 62
     7
370
    25
100
AcDbLine
 10
72.2809269912
 20
84.0034225664
 30
0.0
 11
72.2809269912
 21
95.1604225664
 31
0.0
  0
LINE
  5
1C2
330
1F
100
AcDbEntity
  8
0
  6
Continuous
 62
     7
370
    25
100
AcDbLine
 10
61.2809269912
 20
84.0034225664
 30
0.0
 11
61.2809269912
 21
95.1604225664
 31
0.0
  0
SPLINE
  5
1C3
330
1F
100
AcDbEntity
  8
0
  6
Continuous
 62
     7
370
    25
100
AcDbSpline
210
0.0
220
0.0
230
1.0
 70
    24
 71
     3
 72
    10
 73
     6
 74
     0
 42
0.000000001
 43
0.00000001
 40
0.0
 40
0.0
 40
0.0
 40
0.0
 40
0.5
 40
0.5
 40
1.0
 40
1.0
 40
1.0
 40
1.0
 10
69.13658942385304
 20
96.58192256637169
 30
0.0
 10
69.13658942385304
 20
96.58192256637167
 30
0.0
 10
69.07614476486069
 20
96.58192256637169
 30
0.0
 10
68.85710584892156
 20
96.58192256637169
 30
0.0
 10
68.70005370068348
 20
96.58192256637169
 30
0.0
 10
68.51137464151375
 20
96.58192256637167
 30
0.0
  0
SPLINE
  5
1C4
330
1F
100
AcDbEntity
  8
0
  6
Continuous
 62
     7
370
    25
100
AcDbSpline
210
0.0
220
0.0
230
1.0
 70
    24
 71
     3
 72
    10
 73
     6
 74
     0
 42
0.000000001
 43
0.00000001
 40
0.0
 40
0.0
 40
0.0
 40
0.0
 40
0.5
 40
0.5
 40
1.0
 40
1.0
 40
1.0
 40
1.0
 10
64.42526455844785
 20
96.58192256637169
 30
0.0
 10
64.42526455844785
 20
96.58192256637167
 30
0.0
 10
64.4857092174402
 20
96.58192256637169
 30
0.0
 10
64.70474813337933
 20
96.58192256637169
 30
0.0
 10
64.8618002816174
 20
96.58192256637169
 30
0.0
 10
65.05047934078713
 20
96.58192256637167
 30
0.0
  0
SPLINE
  5
1C5
330
1F
100
AcDbEntity
  8
0
  6
Continuous
 62
     7
370
    25
100
AcDbSpline
210
0.0
220
0.0
230
1.0
 70
    24
 71
     3
 72
    10
 73
     6
 74
     0
 42
0.000000001
 43
0.00000001
 40
0.0
 40
0.0
 40
0.0
 40
0.0
 40
0.5
 40
0.5
 40
1.0
 40
1.0
 40
1.0
 40
1.0
 10
64.42526455844785
 20
82.58192256637167
 30
0.0
 10
64.42526455844785
 20
82.58192256637167
 30
0.0
 10
64.48570921744056
 20
82.58192256637167
 30
0.0
 10
64.7047481333794
 20
82.58192256637167
 30
0.0
 10
64.86180028161733
 20
82.58192256637167
 30
0.0
 10
65.05047934078713
 20
82.58192256637167
 30
0.0
  0
SPLINE
  5
1C6
330
1F
100
AcDbEntity
  8
0
  6
Continuous
 62
     7
370
    25
100
AcDbSpline
210
0.0
220
0.0
230
1.0
 70
    24
 71
     3
 72
    10
 73
     6
 74
     0
 42
0.000000001
 43
0.00000001
 40
0.0
 40
0.0
 40
0.0
 40
0.0
 40
0.5
 40
0.5
 40
1.0
 40
1.0
 40
1.0
 40
1.0
 10
69.13658942385304
 20
82.58192256637167
 30
0.0
 10
69.13658942385304
 20
82.58192256637167
 30
0.0
 10
69.07614476486033
 20
82.58192256637167
 30
0.0
 10
68.85710584892149
 20
82.58192256637167
 30
0.0
 10
68.70005370068355
 20
82.58192256637167
 30
0.0
 10
68.51137464151375
 20
82.58192256637167
 30
0.0
  0
SPLINE
  5
1C7
330
1F
100
AcDbEntity
  8
0
  6
Continuous
 62
     1
370
    25
100
AcDbSpline
210
0.0
220
0.0
230
1.0
 70
     8
 71
     3
 72
     9
 73
     5
 74
     0
 42
0.000000001
 43
0.00000001
 40
0.0
 40
0.0
 40
0.0
 40
0.0
 40
0.5716350575939145
 40
1.0
 40
1.0
 40
1.0
 40
1.0
 10
87.46227364320312
 20
81.45148778376299
 30
0.0
 10
87.45781423511774
 20
81.41176937802055
 30
0.0
 10
87.4500130899183
 20
81.34228727538392
 30
0.0
 10
87.4469071930849
 20
81.33882109820746
 30
0.0
 10
87.44557673576674
 20
81.33733630942089
 30
0.0
  0
SPLINE
  5
1C8
330
1F
100
AcDbEntity
  8
0
  6
Continuous
 62
     1
370
    25
100
AcDbSpline
210
0.0
220
0.0
230
1.0
 70
     8
 71
     3
 72
    10
 73
     6
 74
     0
 42
0.000000001
 43
0.00000001
 40
0.0
 40
0.0
 40
0.0
 40
0.0
 40
0.1054683351678022
 40
0.6440627664276173
 40
1.0
 40
1.0
 40
1.0
 40
1.0
 10
87.44557673576588
 20
97.82650882332557
 30
0.0
 10
87.44506179348966
 20
97.82818588236279
 30
0.0
 10
87.4419171989869
 20
97.83842716740118
 30
0.0
 10
87.4572958396353
 20
97.79922083621753
 30
0.0
 10
87.46085674620275
 20
97.7370824336147
 30
0.0
 10
87.46227364320312
 20
97.71235734898038
 30
0.0
  0
SPLINE
  5
1C9
330
1F
100
AcDbEntity
  8
0
  6
Continuous
 62
     1
370
    25
100
AcDbSpline
210
0.0
220
0.0
230
1.0
 70
     8
 71
     3
 72
     9
 73
     5
 74
     0
 42
0.000000001
 43
0.00000001
 40
0.0
 40
0.0
 40
0.0
 40
0.0
 40
0.5716350575938782
 40
1.0
 40
1.0
 40
1.0
 40
1.0
 10
46.09958033909776
 20
97.71235734898036
 30
0.0
 10
46.10403974718315
 20
97.75207575472281
 30
0.0
 10
46.1118408923826
 20
97.82155785735944
 30
0.0
 10
46.11494678921598
 20
97.82502403453591
 30
0.0
 10
46.11627724653415
 20
97.82650882332247
 30
0.0
  0
SPLINE
  5
1CA
330
1F
100
AcDbEntity
  8
0
  6
Continuous
 62
     1
370
    25
100
AcDbSpline
210
0.0
220
0.0
230
1.0
 70
     8
 71
     3
 72
    10
 73
     6
 74
     0
 42
0.000000001
 43
0.00000001
 40
0.0
 40
0.0
 40
0.0
 40
0.0
 40
0.1054683351677455
 40
0.6440627664275946
 40
1.0
 40
1.0
 40
1.0
 40
1.0
 10
46.11627724653501
 20
81.3373363094178
 30
0.0
 10
46.11679218881124
 20
81.33565925038057
 30
0.0
 10
46.11993678331397
 20
81.32541796534218
 30
0.0
 10
46.1045581426656
 20
81.36462429652583
 30
0.0
 10
46.10099723609813
 20
81.42676269912866
 30
0.0
 10
46.09958033909776
 20
81.45148778376297
 30
0.0
  0
LINE
  5
1CB
330
1F
100
AcDbEntity
  8
0
  6
Continuous
 62
     1
370
    25
100
AcDbLine
 10
69.5696021257
 20
96.3319225664
 30
0.0
 11
69.5696021257
 21
82.8319225664
 31
0.0
  0
LINE
  5
1CC
330
1F
100
AcDbEntity
  8
0
  6
Continuous
 62
     1
370
    25
100
AcDbLine
 10
63.9922518566
 20
96.3319225664
 30
0.0
 11
63.9922518566
 21
82.8319225664
 31
0.0
  0
ENDSEC
  0
SECTION
  2
OBJECTS
  0
DICTIONARY
  5
C
330
0
100
AcDbDictionary
281
     1
  3
ACAD_GROUP
350
D
  3
ACAD_LAYOUT
350
1A
  3
ACAD_MLINESTYLE
350
17
  3
ACAD_PLOTSETTINGS
350
19
  3
ACAD_PLOTSTYLENAME
350
E
  3
ACAD_SCALELIST
350
47
  0
DICTIONARY
  5
D
102
{ACAD_REACTORS
330
C
102
}
330
C
100
AcDbDictionary
281
     1
  0
DICTIONARY
  5
1A
102
{ACAD_REACTORS
330
C
102
}
330
C
100
AcDbDictionary
281
     1
  3
Layout1
350
1E
  3
Layout2
350
26
  3
Model
350
22
  0
DICTIONARY
  5
17
102
{ACAD_REACTORS
330
C
102
}
330
C
100
AcDbDictionary
281
     1
  3
Standard
350
18
  0
DICTIONARY
  5
19
102
{ACAD_REACTORS
330
C
102
}
330
C
100
AcDbDictionary
281
     1
  0
ACDBDICTIONARYWDFLT
  5
E
102
{ACAD_REACTORS
330
C
102
}
330
C
100
AcDbDictionary
281
     1
  3
Normal
350
F
100
AcDbDictionaryWithDefault
340
F
  0
DICTIONARY
  5
47
102
{ACAD_REACTORS
330
C
102
}
330
C
100
AcDbDictionary
281
     1
  3
A0
350
48
  3
A1
350
49
  3
A2
350
4A
  3
A3
350
4B
  3
A4
350
4C
  3
A5
350
4D
  3
A6
350
4E
  3
A7
350
4F
  3
A8
350
50
  3
A9
350
51
  3
B0
350
52
  3
B1
350
53
  3
B2
350
54
  3
B3
350
55
  3
B4
350
56
  3
B5
350
57
  3
B6
350
58
  3
B7
350
59
  3
B8
350
5A
  3
B9
350
5B
  3
C0
350
5C
  3
C1
350
5D
  3
C2
350
5E
  3
C3
350
5F
  3
C4
350
60
  3
C5
350
61
  3
C6
350
62
  3
C7
350
63
  3
C8
350
64
  3
C9
350
65
  3
D0
350
66
  3
D1
350
67
  3
D2
350
68
  0
LAYOUT
  5
1E
102
{ACAD_REACTORS
330
1A
102
}
330
1A
100
AcDbPlotSettings
  1

  2
none_device
  4

  6

 40
0.0
 41
0.0
 42
0.0
 43
0.0
 44
0.0
 45
0.0
 46
0.0
 47
0.0
 48
0.0
 49
0.0
140
0.0
141
0.0
142
1.0
143
1.0
 70
   688
 72
     1
 73
     0
 74
     5
  7

 75
    16
147
1.0
148
0.0
149
0.0
100
AcDbLayout
  1
Layout1
 70
     1
 71
     1
 10
0.0
 20
0.0
 11
420.0
 21
297.0
 12
0.0
 22
0.0
 32
0.0
 14
1.0000000000E+20
 24
1.0000000000E+20
 34
1.0000000000E+20
 15
-1.0000000000E+20
 25
-1.0000000000E+20
 35
-1.0000000000E+20
146
0.0
 13
0.0
 23
0.0
 33
0.0
 16
1.0
 26
0.0
 36
0.0
 17
0.0
 27
1.0
 37
0.0
 76
     0
330
1B
  0
LAYOUT
  5
26
102
{ACAD_REACTORS
330
1A
102
}
330
1A
100
AcDbPlotSettings
  1

  2
none_device
  4

  6

 40
0.0
 41
0.0
 42
0.0
 43
0.0
 44
0.0
 45
0.0
 46
0.0
 47
0.0
 48
0.0
 49
0.0
140
0.0
141
0.0
142
1.0
143
1.0
 70
   688
 72
     1
 73
     0
 74
     5
  7

 75
    16
147
1.0
148
0.0
149
0.0
100
AcDbLayout
  1
Layout2
 70
     1
 71
     2
 10
0.0
 20
0.0
 11
0.0
 21
0.0
 12
0.0
 22
0.0
 32
0.0
 14
0.0
 24
0.0
 34
0.0
 15
0.0
 25
0.0
 35
0.0
146
0.0
 13
0.0
 23
0.0
 33
0.0
 16
1.0
 26
0.0
 36
0.0
 17
0.0
 27
1.0
 37
0.0
 76
     0
330
23
  0
LAYOUT
  5
22
102
{ACAD_REACTORS
330
1A
102
}
330
1A
100
AcDbPlotSettings
  1

  2
none_device
  4
Letter_(8.50_x_11.00_Inches)
  6

 40
6.35
 41
6.35
 42
6.35000508
 43
6.35000508
 44
215.9
 45
279.4
 46
0.0
 47
0.0
 48
0.0
 49
0.0
140
0.0
141
0.0
142
1.0
143
1.0
 70
  1712
 72
     1
 73
     0
 74
     0
  7

 75
     0
147
1.0
148
0.0
149
0.0
100
AcDbLayout
  1
Model
 70
     1
 71
     0
 10
0.0
 20
0.0
 11
215.9
 21
139.7
 12
0.0
 22
0.0
 32
0.0
 14
0.0
 24
0.0
 34
0.0
 15
215.9
 25
139.7
 35
0.0
146
0.0
 13
0.0
 23
0.0
 33
0.0
 16
1.0
 26
0.0
 36
0.0
 17
0.0
 27
1.0
 37
0.0
 76
     0
330
1F
331
29
  0
MLINESTYLE
  5
18
102
{ACAD_REACTORS
330
17
102
}
330
17
100
AcDbMlineStyle
  2
Standard
 70
     0
  3

 62
   256
 51
90.0
 52
90.0
 71
     2
 49
0.5
 62
   256
  6
BYLAYER
 49
-0.5
 62
   256
  6
BYLAYER
  0
ACDBPLACEHOLDER
  5
F
102
{ACAD_REACTORS
330
E
102
}
330
E
  0
SCALE
  5
48
102
{ACAD_REACTORS
330
47
102
}
330
47
100
AcDbScale
 70
     0
300
1:1
140
1.0
141
1.0
290
     1
  0
SCALE
  5
49
102
{ACAD_REACTORS
330
47
102
}
330
47
100
AcDbScale
 70
     0
300
1:2
140
1.0
141
2.0
290
     0
  0
SCALE
  5
4A
102
{ACAD_REACTORS
330
47
102
}
330
47
100
AcDbScale
 70
     0
300
1:4
140
1.0
141
4.0
290
     0
  0
SCALE
  5
4B
102
{ACAD_REACTORS
330
47
102
}
330
47
100
AcDbScale
 70
     0
300
1:5
140
1.0
141
5.0
290
     0
  0
SCALE
  5
4C
102
{ACAD_REACTORS
330
47
102
}
330
47
100
AcDbScale
 70
     0
300
1:8
140
1.0
141
8.0
290
     0
  0
SCALE
  5
4D
102
{ACAD_REACTORS
330
47
102
}
330
47
100
AcDbScale
 70
     0
300
1:10
140
1.0
141
10.0
290
     0
  0
SCALE
  5
4E
102
{ACAD_REACTORS
330
47
102
}
330
47
100
AcDbScale
 70
     0
300
1:16
140
1.0
141
16.0
290
     0
  0
SCALE
  5
4F
102
{ACAD_REACTORS
330
47
102
}
330
47
100
AcDbScale
 70
     0
300
1:20
140
1.0
141
20.0
290
     0
  0
SCALE
  5
50
102
{ACAD_REACTORS
330
47
102
}
330
47
100
AcDbScale
 70
     0
300
1:30
140
1.0
141
30.0
290
     0
  0
SCALE
  5
51
102
{ACAD_REACTORS
330
47
102
}
330
47
100
AcDbScale
 70
     0
300
1:40
140
1.0
141
40.0
290
     0
  0
SCALE
  5
52
102
{ACAD_REACTORS
330
47
102
}
330
47
100
AcDbScale
 70
     0
300
1:50
140
1.0
141
50.0
290
     0
  0
SCALE
  5
53
102
{ACAD_REACTORS
330
47
102
}
330
47
100
AcDbScale
 70
     0
300
1:100
140
1.0
141
100.0
290
     0
  0
SCALE
  5
54
102
{ACAD_REACTORS
330
47
102
}
330
47
100
AcDbScale
 70
     0
300
2:1
140
2.0
141
1.0
290
     0
  0
SCALE
  5
55
102
{ACAD_REACTORS
330
47
102
}
330
47
100
AcDbScale
 70
     0
300
4:1
140
4.0
141
1.0
290
     0
  0
SCALE
  5
56
102
{ACAD_REACTORS
330
47
102
}
330
47
100
AcDbScale
 70
     0
300
8:1
140
8.0
141
1.0
290
     0
  0
SCALE
  5
57
102
{ACAD_REACTORS
330
47
102
}
330
47
100
AcDbScale
 70
     0
300
10:1
140
10.0
141
1.0
290
     0
  0
SCALE
  5
58
102
{ACAD_REACTORS
330
47
102
}
330
47
100
AcDbScale
 70
     0
300
100:1
140
100.0
141
1.0
290
     0
  0
SCALE
  5
59
102
{ACAD_REACTORS
330
47
102
}
330
47
100
AcDbScale
 70
     0
300
1/128" = 1'-0"
140
0.0078125
141
12.0
290
     0
  0
SCALE
  5
5A
102
{ACAD_REACTORS
330
47
102
}
330
47
100
AcDbScale
 70
     0
300
1/64" = 1'-0"
140
0.015625
141
12.0
290
     0
  0
SCALE
  5
5B
102
{ACAD_REACTORS
330
47
102
}
330
47
100
AcDbScale
 70
     0
300
1/32" = 1'-0"
140
0.03125
141
12.0
290
     0
  0
SCALE
  5
5C
102
{ACAD_REACTORS
330
47
102
}
330
47
100
AcDbScale
 70
     0
300
1/16" = 1'-0"
140
0.0625
141
12.0
290
     0
  0
SCALE
  5
5D
102
{ACAD_REACTORS
330
47
102
}
330
47
100
AcDbScale
 70
     0
300
3/32" = 1'-0"
140
0.09375
141
12.0
290
     0
  0
SCALE
  5
5E
102
{ACAD_REACTORS
330
47
102
}
330
47
100
AcDbScale
 70
     0
300
1/8" = 1'-0"
140
0.125
141
12.0
290
     0
  0
SCALE
  5
5F
102
{ACAD_REACTORS
330
47
102
}
330
47
100
AcDbScale
 70
     0
300
3/16" = 1'-0"
140
0.1875
141
12.0
290
     0
  0
SCALE
  5
60
102
{ACAD_REACTORS
330
47
102
}
330
47
100
AcDbScale
 70
     0
300
1/4" = 1'-0"
140
0.25
141
12.0
290
     0
  0
SCALE
  5
61
102
{ACAD_REACTORS
330
47
102
}
330
47
100
AcDbScale
 70
     0
300
3/8" = 1'-0"
140
0.375
141
12.0
290
     0
  0
SCALE
  5
62
102
{ACAD_REACTORS
330
47
102
}
330
47
100
AcDbScale
 70
     0
300
1/2" = 1'-0"
140
0.5
141
12.0
290
     0
  0
SCALE
  5
63
102
{ACAD_REACTORS
330
47
102
}
330
47
100
AcDbScale
 70
     0
300
3/4" = 1'-0"
140
0.75
141
12.0
290
     0
  0
SCALE
  5
64
102
{ACAD_REACTORS
330
47
102
}
330
47
100
AcDbScale
 70
     0
300
1" = 1'-0"
140
1.0
141
12.0
290
     0
  0
SCALE
  5
65
102
{ACAD_REACTORS
330
47
102
}
330
47
100
AcDbScale
 70
     0
300
1-1/2" = 1'-0"
140
1.5
141
12.0
290
     0
  0
SCALE
  5
66
102
{ACAD_REACTORS
330
47
102
}
330
47
100
AcDbScale
 70
     0
300
3" = 1'-0"
140
3.0
141
12.0
290
     0
  0
SCALE
  5
67
102
{ACAD_REACTORS
330
47
102
}
330
47
100
AcDbScale
 70
     0
300
6" = 1'-0"
140
6.0
141
12.0
290
     0
  0
SCALE
  5
68
102
{ACAD_REACTORS
330
47
102
}
330
47
100
AcDbScale
 70
     0
300
1'-0" = 1'-0"
140
12.0
141
12.0
290
     0
  0
ENDSEC
  0
EOF
