  0
SECTION
  2
HEADER
  9
$ACADVER
  1
AC1015
  9
$ACADMAINTVER
 70
     6
  9
$DWGCODEPAGE
  3
DOS932
  9
$INSBASE
 10
0.0
 20
0.0
 30
0.0
  9
$EXTMIN
 10
0.0
 20
0.0
 30
0.0
  9
$EXTMAX
 10
215.9
 20
139.7
 30
0.0
  9
$LIMMIN
 10
0.0
 20
0.0
  9
$LIMMAX
 10
215.9
 20
139.7
  9
$ORTHOMODE
 70
     0
  9
$REGENMODE
 70
     1
  9
$FILLMODE
 70
     1
  9
$QTEXTMODE
 70
     0
  9
$MIRRTEXT
 70
     1
  9
$LTSCALE
 40
0.5
  9
$ATTMODE
 70
     1
  9
$TEXTSIZE
 40
1.75
  9
$TRACEWID
 40
1.0
  9
$TEXTSTYLE
  7
Standard
  9
$CLAYER
  8
0
  9
$CELTYPE
  6
ByLayer
  9
$CECOLOR
 62
   256
  9
$CELTSCALE
 40
1.0
  9
$DISPSILH
 70
     0
  9
$DIMSCALE
 40
1.0
  9
$DIMASZ
 40
1.778
  9
$DIMEXO
 40
0.5
  9
$DIMDLI
 40
3.75
  9
$DIMRND
 40
0.0
  9
$DIMDLE
 40
0.0
  9
$DIMEXE
 40
0.5
  9
$DIMTP
 40
0.0
  9
$DIMTM
 40
0.0
  9
$DIMTXT
 40
1.75
  9
$DIMCEN
 40
2.5
  9
$DIMTSZ
 40
0.0
  9
$DIMTOL
 70
     0
  9
$DIMLIM
 70
     0
  9
$DIMTIH
 70
     1
  9
$DIMTOH
 70
     1
  9
$DIMSE1
 70
     0
  9
$DIMSE2
 70
     0
  9
$DIMTAD
 70
     1
  9
$DIMZIN
 70
     1
  9
$DIMBLK
  1

  9
$DIMASO
 70
     1
  9
$DIMSHO
 70
     1
  9
$DIMPOST
  1

  9
$DIMAPOST
  1

  9
$DIMALT
 70
     0
  9
$DIMALTD
 70
     3
  9
$DIMALTF
 40
0.0393700787
  9
$DIMLFAC
 40
1.0
  9
$DIMTOFL
 70
     1
  9
$DIMTVP
 40
0.0
  9
$DIMTIX
 70
     0
  9
$DIMSOXD
 70
     0
  9
$DIMSAH
 70
     0
  9
$DIMBLK1
  1

  9
$DIMBLK2
  1

  9
$DIMSTYLE
  2
ISO-25
  9
$DIMCLRD
 70
     0
  9
$DIMCLRE
 70
     0
  9
$DIMCLRT
 70
     0
  9
$DIMTFAC
 40
1.0
  9
$DIMGAP
 40
0.762
  9
$DIMJUST
 70
     0
  9
$DIMSD1
 70
     0
  9
$DIMSD2
 70
     0
  9
$DIMTOLJ
 70
     0
  9
$DIMTZIN
 70
     1
  9
$DIMALTZ
 70
     0
  9
$DIMALTTZ
 70
     0
  9
$DIMUPT
 70
     0
  9
$DIMDEC
 70
     2
  9
$DIMTDEC
 70
     2
  9
$DIMALTU
 70
     2
  9
$DIMALTTD
 70
     3
  9
$DIMTXSTY
  7
Standard
  9
$DIMAUNIT
 70
     0
  9
$DIMADEC
 70
     2
  9
$DIMALTRND
 40
0.0
  9
$DIMAZIN
 70
     0
  9
$DIMDSEP
 70
    44
  9
$DIMATFIT
 70
     3
  9
$DIMFRAC
 70
     0
  9
$DIMLDRBLK
  1

  9
$DIMLUNIT
 70
     2
  9
$DIMLWD
 70
    -2
  9
$DIMLWE
 70
    -2
  9
$DIMTMOVE
 70
     0
  9
$LUNITS
 70
     2
  9
$LUPREC
 70
     2
  9
$SKETCHINC
 40
1.0
  9
$FILLETRAD
 40
10.0
  9
$AUNITS
 70
     0
  9
$AUPREC
 70
     2
  9
$MENU
  1
.
  9
$ELEVATION
 40
0.0
  9
$PELEVATION
 40
0.0
  9
$THICKNESS
 40
0.0
  9
$LIMCHECK
 70
     0
  9
$CHAMFERA
 40
0.0
  9
$CHAMFERB
 40
0.0
  9
$CHAMFERC
 40
0.0
  9
$CHAMFERD
 40
0.0
  9
$SKPOLY
 70
     0
  9
$TDCREATE
 40
2459439.588558507
  9
$TDUCREATE
 40
2459439.213558507
  9
$TDUPDATE
 40
2459439.588559306
  9
$TDUUPDATE
 40
2459439.213559306
  9
$TDINDWG
 40
0.0000000116
  9
$TDUSRTIMER
 40
0.0000000116
  9
$USRTIMER
 70
     1
  9
$ANGBASE
 50
0.0
  9
$ANGDIR
 70
     0
  9
$PDMODE
 70
     0
  9
$PDSIZE
 40
-1.0
  9
$PLINEWID
 40
0.0
  9
$SPLFRAME
 70
     0
  9
$SPLINETYPE
 70
     6
  9
$SPLINESEGS
 70
     8
  9
$HANDSEED
  5
17E
  9
$SURFTAB1
 70
     6
  9
$SURFTAB2
 70
     6
  9
$SURFTYPE
 70
     6
  9
$SURFU
 70
     6
  9
$SURFV
 70
     6
  9
$UCSBASE
  2

  9
$UCSNAME
  2

  9
$UCSORG
 10
0.0
 20
0.0
 30
0.0
  9
$UCSXDIR
 10
1.0
 20
0.0
 30
0.0
  9
$UCSYDIR
 10
0.0
 20
1.0
 30
0.0
  9
$UCSORTHOREF
  2

  9
$UCSORTHOVIEW
 70
     0
  9
$UCSORGTOP
 10
0.0
 20
0.0
 30
0.0
  9
$UCSORGBOTTOM
 10
0.0
 20
0.0
 30
0.0
  9
$UCSORGLEFT
 10
0.0
 20
0.0
 30
0.0
  9
$UCSORGRIGHT
 10
0.0
 20
0.0
 30
0.0
  9
$UCSORGFRONT
 10
0.0
 20
0.0
 30
0.0
  9
$UCSORGBACK
 10
0.0
 20
0.0
 30
0.0
  9
$PUCSBASE
  2

  9
$PUCSNAME
  2

  9
$PUCSORG
 10
0.0
 20
0.0
 30
0.0
  9
$PUCSXDIR
 10
1.0
 20
0.0
 30
0.0
  9
$PUCSYDIR
 10
0.0
 20
1.0
 30
0.0
  9
$PUCSORTHOREF
  2

  9
$PUCSORTHOVIEW
 70
     0
  9
$PUCSORGTOP
 10
0.0
 20
0.0
 30
0.0
  9
$PUCSORGBOTTOM
 10
0.0
 20
0.0
 30
0.0
  9
$PUCSORGLEFT
 10
0.0
 20
0.0
 30
0.0
  9
$PUCSORGRIGHT
 10
0.0
 20
0.0
 30
0.0
  9
$PUCSORGFRONT
 10
0.0
 20
0.0
 30
0.0
  9
$PUCSORGBACK
 10
0.0
 20
0.0
 30
0.0
  9
$USERI1
 70
     0
  9
$USERI2
 70
     0
  9
$USERI3
 70
     0
  9
$USERI4
 70
     0
  9
$USERI5
 70
     0
  9
$USERR1
 40
0.0
  9
$USERR2
 40
0.0
  9
$USERR3
 40
0.0
  9
$USERR4
 40
0.0
  9
$USERR5
 40
0.0
  9
$WORLDVIEW
 70
     1
  9
$SHADEDGE
 70
     3
  9
$SHADEDIF
 70
    70
  9
$TILEMODE
 70
     1
  9
$MAXACTVP
 70
    64
  9
$PINSBASE
 10
0.0
 20
0.0
 30
0.0
  9
$PLIMCHECK
 70
     0
  9
$PEXTMIN
 10
1.0000000000E+20
 20
1.0000000000E+20
 30
1.0000000000E+20
  9
$PEXTMAX
 10
-1.0000000000E+20
 20
-1.0000000000E+20
 30
-1.0000000000E+20
  9
$PLIMMIN
 10
0.0
 20
0.0
  9
$PLIMMAX
 10
420.0
 20
297.0
  9
$UNITMODE
 70
     0
  9
$VISRETAIN
 70
     1
  9
$PLINEGEN
 70
     0
  9
$PSLTSCALE
 70
     1
  9
$TREEDEPTH
 70
  3020
  9
$CMLSTYLE
  2
Standard
  9
$CMLJUST
 70
     0
  9
$CMLSCALE
 40
20.0
  9
$PROXYGRAPHICS
 70
     1
  9
$MEASUREMENT
 70
     1
  9
$CELWEIGHT
370
    -1
  9
$ENDCAPS
280
     0
  9
$JOINSTYLE
280
     0
  9
$LWDISPLAY
290
     1
  9
$INSUNITS
 70
     4
  9
$HYPERLINKBASE
  1

  9
$STYLESHEET
  1

  9
$XEDIT
290
     1
  9
$CEPSNTYPE
380
     0
  9
$PSTYLEMODE
290
     1
  9
$FINGERPRINTGUID
  2
{C0094B8D-1429-4FD2-ADC9-CCB7B14F2F69}
  9
$VERSIONGUID
  2
{FAEB1C32-E019-11D5-929B-00C0DF256EC4}
  9
$EXTNAMES
290
     1
  9
$PSVPSCALE
 40
0.0
  9
$OLESTARTUP
290
     0
  0
ENDSEC
  0
SECTION
  2
CLASSES
  0
CLASS
  1
ACDBDICTIONARYWDFLT
  2
AcDbDictionaryWithDefault
  3
ObjectDBX Classes
 90
        0
280
     0
281
     0
  0
CLASS
  1
VISUALSTYLE
  2
AcDbVisualStyle
  3
ObjectDBX Classes
 90
     4095
280
     0
281
     0
  0
CLASS
  1
MATERIAL
  2
AcDbMaterial
  3
ObjectDBX Classes
 90
     1153
280
     0
281
     0
  0
CLASS
  1
SCALE
  2
AcDbScale
  3
ObjectDBX Classes
 90
     1153
280
     0
281
     0
  0
CLASS
  1
TABLESTYLE
  2
AcDbTableStyle
  3
ObjectDBX Classes
 90
     4095
280
     0
281
     0
  0
CLASS
  1
MLEADERSTYLE
  2
AcDbMLeaderStyle
  3
ACDB_MLEADERSTYLE_CLASS
 90
     4095
280
     0
281
     0
  0
CLASS
  1
SUN
  2
AcDbSun
  3
SCENEOE
 90
     1153
280
     0
281
     0
  0
CLASS
  1
ACDBPLACEHOLDER
  2
AcDbPlaceHolder
  3
ObjectDBX Classes
 90
        0
280
     0
281
     0
  0
CLASS
  1
LAYOUT
  2
AcDbLayout
  3
ObjectDBX Classes
 90
        0
280
     0
281
     0
  0
ENDSEC
  0
SECTION
  2
TABLES
  0
TABLE
  2
VPORT
  5
8
330
0
100
AcDbSymbolTable
 70
     1
  0
VPORT
  5
29
330
8
100
AcDbSymbolTableRecord
100
AcDbViewportTableRecord
  2
*Active
 70
     0
 10
0.0
 20
0.0
 11
1.0
 21
1.0
 12
107.95
 22
69.85
 13
0.0
 23
0.0
 14
10.0
 24
10.0
 15
10.0
 25
10.0
 16
0.0
 26
0.0
 36
1.0
 17
0.0
 27
0.0
 37
0.0
 40
139.7
 41
1.5454545455
 42
50.0
 43
0.0
 44
0.0
 50
0.0
 51
0.0
 71
     0
 72
  2000
 73
     1
 74
     3
 75
     0
 76
     0
 77
     0
 78
     0
281
     0
 65
     1
110
0.0
120
0.0
130
0.0
111
1.0
121
0.0
131
0.0
112
0.0
122
1.0
132
0.0
 79
     0
146
0.0
  0
ENDTAB
  0
TABLE
  2
LTYPE
  5
5
330
0
100
AcDbSymbolTable
 70
     6
  0
LTYPE
  5
14
330
5
100
AcDbSymbolTableRecord
100
AcDbLinetypeTableRecord
  2
ByBlock
 70
     0
  3

 72
    65
 73
     0
 40
0.0
  0
LTYPE
  5
15
330
5
100
AcDbSymbolTableRecord
100
AcDbLinetypeTableRecord
  2
ByLayer
 70
     0
  3

 72
    65
 73
     0
 40
0.0
  0
LTYPE
  5
16
330
5
100
AcDbSymbolTableRecord
100
AcDbLinetypeTableRecord
  2
Continuous
 70
     0
  3
Solid line
 72
    65
 73
     0
 40
0.0
  0
LTYPE
  5
6E
330
5
100
AcDbSymbolTableRecord
100
AcDbLinetypeTableRecord
  2
HIDDEN
 70
     0
  3
Hidden __ __ __ __ __ __ __ __ __ __ __ __ __ __
 72
    65
 73
     2
 40
1.905
 49
1.27
 74
     0
 49
-0.635
 74
     0
  0
LTYPE
  5
6F
330
5
100
AcDbSymbolTableRecord
100
AcDbLinetypeTableRecord
  2
PHANTOM
 70
     0
  3
Phantom ______  __  __  ______  __  __  ______
 72
    65
 73
     6
 40
12.7
 49
6.35
 74
     0
 49
-1.27
 74
     0
 49
1.27
 74
     0
 49
-1.27
 74
     0
 49
1.27
 74
     0
 49
-1.27
 74
     0
  0
LTYPE
  5
70
330
5
100
AcDbSymbolTableRecord
100
AcDbLinetypeTableRecord
  2
CENTER
 70
     0
  3
Center ____ _ ____ _ ____ _ ____ _ ____ _ ____
 72
    65
 73
     4
 40
10.16
 49
6.35
 74
     0
 49
-1.27
 74
     0
 49
1.27
 74
     0
 49
-1.27
 74
     0
  0
LTYPE
  5
71
330
5
100
AcDbSymbolTableRecord
100
AcDbLinetypeTableRecord
  2
CENTERX2
 70
     0
  3
Center (2x) ________  __  ________  __  _____
 72
    65
 73
     4
 40
20.32
 49
12.7
 74
     0
 49
-2.54
 74
     0
 49
2.54
 74
     0
 49
-2.54
 74
     0
  0
LTYPE
  5
72
330
5
100
AcDbSymbolTableRecord
100
AcDbLinetypeTableRecord
  2
DOT2
 70
     0
  3
Dot (.5x) ........................................
 72
    65
 73
     2
 40
0.635
 49
0.0
 74
     0
 49
-0.635
 74
     0
  0
ENDTAB
  0
TABLE
  2
LAYER
  5
2
330
0
100
AcDbSymbolTable
 70
     1
  0
LAYER
  5
10
330
2
100
AcDbSymbolTableRecord
100
AcDbLayerTableRecord
  2
0
 70
     0
 62
     7
  6
Continuous
370
    -3
390
F
  0
ENDTAB
  0
TABLE
  2
STYLE
  5
3
330
0
100
AcDbSymbolTable
 70
     2
  0
STYLE
  5
11
330
3
100
AcDbSymbolTableRecord
100
AcDbTextStyleTableRecord
  2
Standard
 70
     0
 40
0.0
 41
1.0
 50
0.0
 71
     0
 42
1.75
  3
txt
  4
bigfont
  0
STYLE
  5
73
330
3
100
AcDbSymbolTableRecord
100
AcDbTextStyleTableRecord
  2
SLDTEXTSTYLE0
 70
     0
 40
0.0
 41
0.7
 50
0.0
 71
     0
 42
1.75
  3
TXT
  4
bigfont
  0
ENDTAB
  0
TABLE
  2
VIEW
  5
6
330
0
100
AcDbSymbolTable
 70
     0
  0
ENDTAB
  0
TABLE
  2
UCS
  5
7
330
0
100
AcDbSymbolTable
 70
     0
  0
ENDTAB
  0
TABLE
  2
APPID
  5
9
330
0
100
AcDbSymbolTable
 70
     1
  0
APPID
  5
12
330
9
100
AcDbSymbolTableRecord
100
AcDbRegAppTableRecord
  2
ACAD
 70
     0
  0
ENDTAB
  0
TABLE
  2
DIMSTYLE
  5
A
330
0
100
AcDbSymbolTable
 70
     1
100
AcDbDimStyleTable
  0
DIMSTYLE
105
27
330
A
100
AcDbSymbolTableRecord
100
AcDbDimStyleTableRecord
  2
ISO-25
 70
     0
 41
2.5
 42
0.625
 43
3.75
 44
1.25
 73
     0
 74
     0
 77
     1
 78
     8
140
2.5
141
2.5
143
0.0393700787
147
0.625
171
     3
172
     1
178
     0
271
     2
272
     2
274
     3
278
    44
283
     0
284
     8
340
11
  0
ENDTAB
  0
TABLE
  2
BLOCK_RECORD
  5
1
330
0
100
AcDbSymbolTable
 70
     1
  0
BLOCK_RECORD
  5
1F
330
1
100
AcDbSymbolTableRecord
100
AcDbBlockTableRecord
  2
*Model_Space
340
22
  0
BLOCK_RECORD
  5
1B
330
1
100
AcDbSymbolTableRecord
100
AcDbBlockTableRecord
  2
*Paper_Space
340
1E
  0
BLOCK_RECORD
  5
23
330
1
100
AcDbSymbolTableRecord
100
AcDbBlockTableRecord
  2
*Paper_Space0
340
26
  0
ENDTAB
  0
ENDSEC
  0
SECTION
  2
BLOCKS
  0
BLOCK
  5
20
330
1F
100
AcDbEntity
  8
0
100
AcDbBlockBegin
  2
*Model_Space
 70
     0
 10
0.0
 20
0.0
 30
0.0
  3
*Model_Space
  1

  0
ENDBLK
  5
21
330
1F
100
AcDbEntity
  8
0
100
AcDbBlockEnd
  0
BLOCK
  5
1C
330
1B
100
AcDbEntity
 67
     1
  8
0
100
AcDbBlockBegin
  2
*Paper_Space
 70
     0
 10
0.0
 20
0.0
 30
0.0
  3
*Paper_Space
  1

  0
ENDBLK
  5
1D
330
1B
100
AcDbEntity
 67
     1
  8
0
100
AcDbBlockEnd
  0
BLOCK
  5
24
330
23
100
AcDbEntity
  8
0
100
AcDbBlockBegin
  2
*Paper_Space0
 70
     0
 10
0.0
 20
0.0
 30
0.0
  3
*Paper_Space0
  1

  0
ENDBLK
  5
25
330
23
100
AcDbEntity
  8
0
100
AcDbBlockEnd
  0
ENDSEC
  0
SECTION
  2
ENTITIES
  0
MTEXT
  5
74
330
1F
100
AcDbEntity
  8
0
  6
Continuous
 62
     7
370
     0
100
AcDbMText
 10
88.3804800885
 20
70.9509004548
 30
0.0
 40
2.6458333333
 41
0.0
 71
     1
 72
     1
  1
5R-RS2106
  7
SLDTEXTSTYLE0
 73
     1
 44
1.0
  0
LINE
  5
75
330
1F
100
AcDbEntity
  8
0
  6
Continuous
 62
     7
370
    25
100
AcDbLine
 10
66.1860606287
 20
44.1642901326
 30
0.0
 11
66.8662965808
 21
45.3424933628
 31
0.0
  0
LINE
  5
76
330
1F
100
AcDbEntity
  8
0
  6
Continuous
 62
     7
370
    25
100
AcDbLine
 10
66.8662965808
 20
56.8424933628
 30
0.0
 11
66.1860606287
 21
58.0206965931
 31
0.0
  0
ARC
  5
77
330
1F
100
AcDbEntity
  8
0
  6
Continuous
 62
     7
370
    25
100
AcDbCircle
 10
56.5776214462
 20
44.8424933628
 30
0.0
 40
0.5000000000000024
100
AcDbArc
 50
30.0
 51
90.0
  0
ARC
  5
78
330
1F
100
AcDbEntity
  8
0
  6
Continuous
 62
     7
370
    25
100
AcDbCircle
 10
56.5776214462
 20
57.3424933628
 30
0.0
 40
0.5
100
AcDbArc
 50
270.0
 51
330.0
  0
LINE
  5
79
330
1F
100
AcDbEntity
  8
0
  6
Continuous
 62
     7
370
    25
100
AcDbLine
 10
56.0662965808
 20
56.8424933628
 30
0.0
 11
55.8662965808
 21
56.6424933628
 31
0.0
  0
LINE
  5
7A
330
1F
100
AcDbEntity
  8
0
  6
Continuous
 62
     7
370
    25
100
AcDbLine
 10
55.8662965808
 20
45.5424933628
 30
0.0
 11
56.0662965808
 21
45.3424933628
 31
0.0
  0
LINE
  5
7B
330
1F
100
AcDbEntity
  8
0
  6
Continuous
 62
     7
370
    25
100
AcDbLine
 10
56.0662965808
 20
45.3424933628
 30
0.0
 11
56.5776214462
 21
45.3424933628
 31
0.0
  0
LINE
  5
7C
330
1F
100
AcDbEntity
  8
0
  6
Continuous
 62
     7
370
    25
100
AcDbLine
 10
56.5776214462
 20
56.8424933628
 30
0.0
 11
56.0662965808
 21
56.8424933628
 31
0.0
  0
LINE
  5
7D
330
1F
100
AcDbEntity
  8
0
  6
Continuous
 62
     7
370
    25
100
AcDbLine
 10
57.546532533
 20
58.0206965931
 30
0.0
 11
57.0106341481
 21
57.0924933628
 31
0.0
  0
LINE
  5
7E
330
1F
100
AcDbEntity
  8
0
  6
Continuous
 62
     7
370
    25
100
AcDbLine
 10
57.0106341481
 20
45.0924933628
 30
0.0
 11
57.546532533
 21
44.1642901326
 31
0.0
  0
LINE
  5
7F
330
1F
100
AcDbEntity
  8
0
  6
Continuous
 62
     7
370
    25
100
AcDbLine
 10
80.0432004333
 20
58.0206965931
 30
0.0
 11
79.3629644811
 21
56.8424933628
 31
0.0
  0
LINE
  5
80
330
1F
100
AcDbEntity
  8
0
  6
Continuous
 62
     7
370
    25
100
AcDbLine
 10
79.3629644811
 20
45.3424933628
 30
0.0
 11
80.0432004333
 21
44.1642901326
 31
0.0
  0
ARC
  5
81
330
1F
100
AcDbEntity
  8
0
  6
Continuous
 62
     7
370
    25
100
AcDbCircle
 10
89.6516396157
 20
57.3424933628
 30
0.0
 40
0.5
100
AcDbArc
 50
210.0
 51
270.0
  0
ARC
  5
82
330
1F
100
AcDbEntity
  8
0
  6
Continuous
 62
     7
370
    25
100
AcDbCircle
 10
89.6516396157
 20
44.8424933628
 30
0.0
 40
0.5000000000000024
100
AcDbArc
 50
90.0
 51
150.0
  0
LINE
  5
83
330
1F
100
AcDbEntity
  8
0
  6
Continuous
 62
     7
370
    25
100
AcDbLine
 10
90.1629644811
 20
56.8424933628
 30
0.0
 11
89.6516396157
 21
56.8424933628
 31
0.0
  0
LINE
  5
84
330
1F
100
AcDbEntity
  8
0
  6
Continuous
 62
     7
370
    25
100
AcDbLine
 10
89.6516396157
 20
45.3424933628
 30
0.0
 11
90.1629644811
 21
45.3424933628
 31
0.0
  0
LINE
  5
85
330
1F
100
AcDbEntity
  8
0
  6
Continuous
 62
     7
370
    25
100
AcDbLine
 10
90.1629644811
 20
45.3424933628
 30
0.0
 11
90.3629644811
 21
45.5424933628
 31
0.0
  0
LINE
  5
86
330
1F
100
AcDbEntity
  8
0
  6
Continuous
 62
     7
370
    25
100
AcDbLine
 10
90.3629644811
 20
56.6424933628
 30
0.0
 11
90.1629644811
 21
56.8424933628
 31
0.0
  0
LINE
  5
87
330
1F
100
AcDbEntity
  8
0
  6
Continuous
 62
     7
370
    25
100
AcDbLine
 10
89.2186269138
 20
57.0924933628
 30
0.0
 11
88.682728529
 21
58.0206965931
 31
0.0
  0
LINE
  5
88
330
1F
100
AcDbEntity
  8
0
  6
Continuous
 62
     7
370
    25
100
AcDbLine
 10
88.682728529
 20
44.1642901326
 30
0.0
 11
89.2186269138
 21
45.0924933628
 31
0.0
  0
ARC
  5
89
330
1F
100
AcDbEntity
  8
0
  6
Continuous
 62
     7
370
    25
100
AcDbCircle
 10
75.9033056656
 20
44.8424933628
 30
0.0
 40
0.5000000000000006
100
AcDbArc
 50
90.0
 51
150.0
  0
ARC
  5
8A
330
1F
100
AcDbEntity
  8
0
  6
Continuous
 62
     7
370
    25
100
AcDbCircle
 10
75.9033056656
 20
57.3424933628
 30
0.0
 40
0.5000000000000006
100
AcDbArc
 50
210.0
 51
270.0
  0
ARC
  5
8B
330
1F
100
AcDbEntity
  8
0
  6
Continuous
 62
     7
370
    25
100
AcDbCircle
 10
70.3259553964
 20
57.3424933628
 30
0.0
 40
0.5000000000000006
100
AcDbArc
 50
270.0
 51
330.0
  0
ARC
  5
8C
330
1F
100
AcDbEntity
  8
0
  6
Continuous
 62
     7
370
    25
100
AcDbCircle
 10
70.3259553964
 20
44.8424933628
 30
0.0
 40
0.5000000000000006
100
AcDbArc
 50
30.0
 51
90.0
  0
LINE
  5
8D
330
1F
100
AcDbEntity
  8
0
  6
Continuous
 62
     7
370
    25
100
AcDbLine
 10
69.814630531
 20
56.8424933628
 30
0.0
 11
69.614630531
 21
56.6424933628
 31
0.0
  0
LINE
  5
8E
330
1F
100
AcDbEntity
  8
0
  6
Continuous
 62
     7
370
    25
100
AcDbLine
 10
69.614630531
 20
45.5424933628
 30
0.0
 11
69.814630531
 21
45.3424933628
 31
0.0
  0
LINE
  5
8F
330
1F
100
AcDbEntity
  8
0
  6
Continuous
 62
     7
370
    25
100
AcDbLine
 10
69.814630531
 20
45.3424933628
 30
0.0
 11
70.3259553964
 21
45.3424933628
 31
0.0
  0
LINE
  5
90
330
1F
100
AcDbEntity
  8
0
  6
Continuous
 62
     7
370
    25
100
AcDbLine
 10
70.3259553964
 20
56.8424933628
 30
0.0
 11
69.814630531
 21
56.8424933628
 31
0.0
  0
LINE
  5
91
330
1F
100
AcDbEntity
  8
0
  6
Continuous
 62
     7
370
    25
100
AcDbLine
 10
76.414630531
 20
56.8424933628
 30
0.0
 11
75.9033056656
 21
56.8424933628
 31
0.0
  0
LINE
  5
92
330
1F
100
AcDbEntity
  8
0
  6
Continuous
 62
     7
370
    25
100
AcDbLine
 10
75.9033056656
 20
45.3424933628
 30
0.0
 11
76.414630531
 21
45.3424933628
 31
0.0
  0
LINE
  5
93
330
1F
100
AcDbEntity
  8
0
  6
Continuous
 62
     7
370
    25
100
AcDbLine
 10
76.414630531
 20
45.3424933628
 30
0.0
 11
76.614630531
 21
45.5424933628
 31
0.0
  0
LINE
  5
94
330
1F
100
AcDbEntity
  8
0
  6
Continuous
 62
     7
370
    25
100
AcDbLine
 10
76.614630531
 20
56.6424933628
 30
0.0
 11
76.414630531
 21
56.8424933628
 31
0.0
  0
LINE
  5
95
330
1F
100
AcDbEntity
  8
0
  6
Continuous
 62
     7
370
    25
100
AcDbLine
 10
67.414630531
 20
55.9564933628
 30
0.0
 11
66.8662965808
 21
55.9564933628
 31
0.0
  0
LINE
  5
96
330
1F
100
AcDbEntity
  8
0
  6
Continuous
 62
     7
370
    25
100
AcDbLine
 10
66.8662965808
 20
46.2284933628
 30
0.0
 11
67.414630531
 21
46.2284933628
 31
0.0
  0
LINE
  5
97
330
1F
100
AcDbEntity
  8
0
  6
Continuous
 62
     7
370
    25
100
AcDbLine
 10
78.814630531
 20
55.9564933628
 30
0.0
 11
78.114630531
 21
55.2564933628
 31
0.0
  0
LINE
  5
98
330
1F
100
AcDbEntity
  8
0
  6
Continuous
 62
     7
370
    25
100
AcDbLine
 10
78.114630531
 20
46.9284933628
 30
0.0
 11
78.814630531
 21
46.2284933628
 31
0.0
  0
LINE
  5
99
330
1F
100
AcDbEntity
  8
0
  6
Continuous
 62
     7
370
    25
100
AcDbLine
 10
67.414630531
 20
46.2284933628
 30
0.0
 11
68.114630531
 21
46.9284933628
 31
0.0
  0
LINE
  5
9A
330
1F
100
AcDbEntity
  8
0
  6
Continuous
 62
     7
370
    25
100
AcDbLine
 10
68.114630531
 20
55.2564933628
 30
0.0
 11
67.414630531
 21
55.9564933628
 31
0.0
  0
LINE
  5
9B
330
1F
100
AcDbEntity
  8
0
  6
Continuous
 62
     7
370
    25
100
AcDbLine
 10
78.814630531
 20
46.2284933628
 30
0.0
 11
79.3629644811
 21
46.2284933628
 31
0.0
  0
LINE
  5
9C
330
1F
100
AcDbEntity
  8
0
  6
Continuous
 62
     7
370
    25
100
AcDbLine
 10
79.3629644811
 20
55.9564933628
 30
0.0
 11
78.814630531
 21
55.9564933628
 31
0.0
  0
LINE
  5
9D
330
1F
100
AcDbEntity
  8
0
  6
Continuous
 62
     7
370
    25
100
AcDbLine
 10
69.614630531
 20
55.0924933628
 30
0.0
 11
68.114630531
 21
55.0924933628
 31
0.0
  0
LINE
  5
9E
330
1F
100
AcDbEntity
  8
0
  6
Continuous
 62
     7
370
    25
100
AcDbLine
 10
68.114630531
 20
47.0924933628
 30
0.0
 11
69.614630531
 21
47.0924933628
 31
0.0
  0
LINE
  5
9F
330
1F
100
AcDbEntity
  8
0
  6
Continuous
 62
     7
370
    25
100
AcDbLine
 10
76.614630531
 20
47.0924933628
 30
0.0
 11
78.114630531
 21
47.0924933628
 31
0.0
  0
LINE
  5
A0
330
1F
100
AcDbEntity
  8
0
  6
Continuous
 62
     7
370
    25
100
AcDbLine
 10
78.114630531
 20
55.0924933628
 30
0.0
 11
76.614630531
 21
55.0924933628
 31
0.0
  0
LINE
  5
A1
330
1F
100
AcDbEntity
  8
0
  6
Continuous
 62
     7
370
    25
100
AcDbLine
 10
71.2948664831
 20
58.0206965931
 30
0.0
 11
70.7589680983
 21
57.0924933628
 31
0.0
  0
LINE
  5
A2
330
1F
100
AcDbEntity
  8
0
  6
Continuous
 62
     7
370
    25
100
AcDbLine
 10
75.4702929637
 20
57.0924933628
 30
0.0
 11
74.9343945788
 21
58.0206965931
 31
0.0
  0
LINE
  5
A3
330
1F
100
AcDbEntity
  8
0
  6
Continuous
 62
     7
370
    25
100
AcDbLine
 10
74.9343945788
 20
44.1642901326
 30
0.0
 11
75.4702929637
 21
45.0924933628
 31
0.0
  0
LINE
  5
A4
330
1F
100
AcDbEntity
  8
0
  6
Continuous
 62
     7
370
    25
100
AcDbLine
 10
70.7589680983
 20
45.0924933628
 30
0.0
 11
71.2948664831
 21
44.1642901326
 31
0.0
  0
SPLINE
  5
A5
330
1F
100
AcDbEntity
  8
0
  6
Continuous
 62
     7
370
    25
100
AcDbSpline
210
0.0
220
0.0
230
1.0
 70
     8
 71
     3
 72
    15
 73
    11
 74
     0
 42
0.000000001
 43
0.00000001
 40
0.0
 40
0.0
 40
0.0
 40
0.0
 40
0.1323034284088742
 40
0.2645694515465795
 40
0.3997942148562053
 40
0.5349945762150086
 40
0.6501872613016997
 40
0.7653979157221118
 40
0.8826876171264815
 40
1.0
 40
1.0
 40
1.0
 40
1.0
 10
66.18606062865332
 20
47.62839174769408
 30
0.0
 10
66.26763837900947
 20
47.47873083197253
 30
0.0
 10
66.43077081578524
 20
47.1794513131679
 30
0.0
 10
66.60629625344224
 20
46.7185875783064
 30
0.0
 10
66.7118367445334
 20
46.24903662715177
 30
0.0
 10
66.73274201493135
 20
45.79649044638465
 30
0.0
 10
66.67851863377805
 20
45.36838849576435
 30
0.0
 10
66.56740661840514
 20
44.96436092821375
 30
0.0
 10
66.4044152670267
 20
44.56216002286924
 30
0.0
 10
66.25885019921692
 20
44.29692197711802
 30
0.0
 10
66.18606062865332
 20
44.16429013255636
 30
0.0
  0
SPLINE
  5
A6
330
1F
100
AcDbEntity
  8
0
  6
Continuous
 62
     7
370
    25
100
AcDbSpline
210
0.0
220
0.0
230
1.0
 70
     8
 71
     3
 72
    16
 73
    12
 74
     0
 42
0.000000001
 43
0.00000001
 40
0.0
 40
0.0
 40
0.0
 40
0.0
 40
0.0941069532270581
 40
0.1882048666342559
 40
0.2831935229989864
 40
0.3781719080195133
 40
0.5036909879207753
 40
0.6292107879915381
 40
0.7580763715179232
 40
0.8869777414902226
 40
1.0
 40
1.0
 40
1.0
 40
1.0
 10
66.18606062865332
 20
54.55659497796961
 30
0.0
 10
66.24500929066909
 20
54.34396718203435
 30
0.0
 10
66.36290095215104
 20
53.91873201497737
 30
0.0
 10
66.5062670800649
 20
53.2701577839948
 30
0.0
 10
66.61874059389015
 20
52.61349736568928
 30
0.0
 10
66.70191962846822
 20
51.87813792142364
 30
0.0
 10
66.73390896335675
 20
51.06661208384254
 30
0.0
 10
66.69451582888408
 20
50.17576646453187
 30
0.0
 10
66.57848854103636
 20
49.283860183028
 30
0.0
 10
66.40668765596467
 20
48.43089411165418
 30
0.0
 10
66.25631292859221
 20
47.88392543031508
 30
0.0
 10
66.18606062865332
 20
47.62839174769408
 30
0.0
  0
SPLINE
  5
A7
330
1F
100
AcDbEntity
  8
0
  6
Continuous
 62
     7
370
    25
100
AcDbSpline
210
0.0
220
0.0
230
1.0
 70
     8
 71
     3
 72
    15
 73
    11
 74
     0
 42
0.000000001
 43
0.00000001
 40
0.0
 40
0.0
 40
0.0
 40
0.0
 40
0.1323034284088744
 40
0.2645694515465797
 40
0.3997942148562056
 40
0.5349945762150088
 40
0.6501872613016998
 40
0.765397915722112
 40
0.8826876171264817
 40
1.0
 40
1.0
 40
1.0
 40
1.0
 10
66.18606062865332
 20
58.02069659310737
 30
0.0
 10
66.26763837900947
 20
57.87103567738582
 30
0.0
 10
66.43077081578524
 20
57.57175615858119
 30
0.0
 10
66.60629625344224
 20
57.11089242371968
 30
0.0
 10
66.7118367445334
 20
56.64134147256504
 30
0.0
 10
66.73274201493135
 20
56.18879529179791
 30
0.0
 10
66.67851863377805
 20
55.76069334117761
 30
0.0
 10
66.56740661840514
 20
55.35666577362701
 30
0.0
 10
66.4044152670267
 20
54.95446486828249
 30
0.0
 10
66.25885019921692
 20
54.68922682253128
 30
0.0
 10
66.18606062865332
 20
54.55659497796961
 30
0.0
  0
LINE
  5
A8
330
1F
100
AcDbEntity
  8
0
  6
Continuous
 62
     7
370
    25
100
AcDbLine
 10
66.8662965808
 20
56.8424933628
 30
0.0
 11
66.8662965808
 21
45.3424933628
 31
0.0
  0
SPLINE
  5
A9
330
1F
100
AcDbEntity
  8
0
  6
Continuous
 62
     7
370
    25
100
AcDbSpline
210
0.0
220
0.0
230
1.0
 70
     8
 71
     3
 72
    12
 73
     8
 74
     0
 42
0.000000001
 43
0.00000001
 40
0.0
 40
0.0
 40
0.0
 40
0.0
 40
0.0700388419389717
 40
0.3004119028624731
 40
0.5308209005332516
 40
0.7653877700093242
 40
0.9999999999999999
 40
0.9999999999999999
 40
0.9999999999999999
 40
0.9999999999999999
 10
57.01063414811041
 20
56.28864578553848
 30
0.0
 10
57.01123715947667
 20
56.32969506600507
 30
0.0
 10
57.01382360703883
 20
56.50576440288601
 30
0.0
 10
57.05441030849858
 20
56.81661191880549
 30
0.0
 10
57.16509519014558
 20
57.22062207322206
 30
0.0
 10
57.32820090798798
 20
57.62282764099064
 30
0.0
 10
57.47375063403305
 20
57.88806506129791
 30
0.0
 10
57.54653253297265
 20
58.02069659310737
 30
0.0
  0
LINE
  5
AA
330
1F
100
AcDbEntity
  8
0
  6
Continuous
 62
     7
370
    25
100
AcDbLine
 10
66.1860606287
 20
58.0206965931
 30
0.0
 11
57.546532533
 21
58.0206965931
 31
0.0
  0
LINE
  5
AB
330
1F
100
AcDbEntity
  8
0
  6
Continuous
 62
     7
370
    25
100
AcDbLine
 10
66.1860606287
 20
54.556594978
 30
0.0
 11
57.546532533
 21
54.556594978
 31
0.0
  0
SPLINE
  5
AC
330
1F
100
AcDbEntity
  8
0
  6
Continuous
 62
     7
370
    25
100
AcDbSpline
210
0.0
220
0.0
230
1.0
 70
     8
 71
     3
 72
    11
 73
     7
 74
     0
 42
0.000000001
 43
0.00000001
 40
0.0
 40
0.0
 40
0.0
 40
0.0
 40
0.2477111816679851
 40
0.4953654927331205
 40
0.7477052806358114
 40
1.0
 40
1.0
 40
1.0
 40
1.0
 10
57.54653253297264
 20
54.55659497796961
 30
0.0
 10
57.46981781296977
 20
54.69665782755421
 30
0.0
 10
57.31640598546073
 20
54.97675137048957
 30
0.0
 10
57.14768539969551
 20
55.40708073693926
 30
0.0
 10
57.03300159428919
 20
55.84490235530478
 30
0.0
 10
57.0180895195745
 20
56.14074011581187
 30
0.0
 10
57.01063414811041
 20
56.28864578553848
 30
0.0
  0
SPLINE
  5
AD
330
1F
100
AcDbEntity
  8
0
  6
Continuous
 62
     7
370
    25
100
AcDbSpline
210
0.0
220
0.0
230
1.0
 70
     8
 71
     3
 72
    12
 73
     8
 74
     0
 42
0.000000001
 43
0.00000001
 40
0.0
 40
0.0
 40
0.0
 40
0.0
 40
0.2467719380755839
 40
0.4340694624576403
 40
0.6213864253443215
 40
0.8106839486281595
 40
1.0
 40
1.0
 40
1.0
 40
1.0
 10
57.01063414811041
 20
51.09249336283185
 30
0.0
 10
57.01752981638995
 20
51.38184921206259
 30
0.0
 10
57.02965923048271
 20
51.89082336412398
 30
0.0
 10
57.11477685369402
 20
52.6149862670098
 30
0.0
 10
57.22555894484034
 20
53.26681743574827
 30
0.0
 10
57.36872517708118
 20
53.91496051186688
 30
0.0
 10
57.48726148075145
 20
54.3427098450592
 30
0.0
 10
57.54653253297264
 20
54.55659497796961
 30
0.0
  0
LINE
  5
AE
330
1F
100
AcDbEntity
  8
0
  6
Continuous
 62
     7
370
    25
100
AcDbLine
 10
57.0106341481
 20
56.2886457855
 30
0.0
 11
57.0106341481
 21
51.0924933628
 31
0.0
  0
SPLINE
  5
AF
330
1F
100
AcDbEntity
  8
0
  6
Continuous
 62
     7
370
    25
100
AcDbSpline
210
0.0
220
0.0
230
1.0
 70
     8
 71
     3
 72
    12
 73
     8
 74
     0
 42
0.000000001
 43
0.00000001
 40
0.0
 40
0.0
 40
0.0
 40
0.0
 40
0.0700388419389713
 40
0.3004119028624733
 40
0.5308209005332518
 40
0.7653877700093247
 40
1.0
 40
1.0
 40
1.0
 40
1.0
 10
57.01063414811041
 20
45.89634094012522
 30
0.0
 10
57.01123715947667
 20
45.93739022059181
 30
0.0
 10
57.01382360703883
 20
46.11345955747274
 30
0.0
 10
57.05441030849859
 20
46.42430707339221
 30
0.0
 10
57.16509519014558
 20
46.82831722780877
 30
0.0
 10
57.32820090798798
 20
47.23052279557735
 30
0.0
 10
57.47375063403304
 20
47.49576021588462
 30
0.0
 10
57.54653253297264
 20
47.62839174769408
 30
0.0
  0
LINE
  5
B0
330
1F
100
AcDbEntity
  8
0
  6
Continuous
 62
     7
370
    25
100
AcDbLine
 10
57.0106341481
 20
51.0924933628
 30
0.0
 11
57.0106341481
 21
45.8963409401
 31
0.0
  0
SPLINE
  5
B1
330
1F
100
AcDbEntity
  8
0
  6
Continuous
 62
     7
370
    25
100
AcDbSpline
210
0.0
220
0.0
230
1.0
 70
     8
 71
     3
 72
    12
 73
     8
 74
     0
 42
0.000000001
 43
0.00000001
 40
0.0
 40
0.0
 40
0.0
 40
0.0
 40
0.2299411614592549
 40
0.4212250559963662
 40
0.6124867693594068
 40
0.8062498333010584
 40
0.9999999999999999
 40
0.9999999999999999
 40
0.9999999999999999
 40
0.9999999999999999
 10
57.54653253297264
 20
47.62839174769408
 30
0.0
 10
57.4750736334533
 20
47.88834989049111
 30
0.0
 10
57.34416936750782
 20
48.36456251184814
 30
0.0
 10
57.19684251366328
 20
49.06771248997065
 30
0.0
 10
57.09180676918449
 20
49.73526336672627
 30
0.0
 10
57.02378698065923
 20
50.41101403866424
 30
0.0
 10
57.01501832834705
 20
50.86533862839701
 30
0.0
 10
57.01063414811041
 20
51.09249336283185
 30
0.0
  0
LINE
  5
B2
330
1F
100
AcDbEntity
  8
0
  6
Continuous
 62
     7
370
    25
100
AcDbLine
 10
66.1860606287
 20
47.6283917477
 30
0.0
 11
57.546532533
 21
47.6283917477
 31
0.0
  0
LINE
  5
B3
330
1F
100
AcDbEntity
  8
0
  6
Continuous
 62
     7
370
    25
100
AcDbLine
 10
66.1860606287
 20
44.1642901326
 30
0.0
 11
57.546532533
 21
44.1642901326
 31
0.0
  0
SPLINE
  5
B4
330
1F
100
AcDbEntity
  8
0
  6
Continuous
 62
     7
370
    25
100
AcDbSpline
210
0.0
220
0.0
230
1.0
 70
     8
 71
     3
 72
    11
 73
     7
 74
     0
 42
0.000000001
 43
0.00000001
 40
0.0
 40
0.0
 40
0.0
 40
0.0
 40
0.2477111816679851
 40
0.4953654927331209
 40
0.7477052806358115
 40
1.0
 40
1.0
 40
1.0
 40
1.0
 10
57.54653253297264
 20
44.16429013255635
 30
0.0
 10
57.46981781296977
 20
44.30435298214096
 30
0.0
 10
57.31640598546074
 20
44.58444652507631
 30
0.0
 10
57.1476853996955
 20
45.014775891526
 30
0.0
 10
57.03300159428919
 20
45.45259750989152
 30
0.0
 10
57.0180895195745
 20
45.74843527039861
 30
0.0
 10
57.01063414811041
 20
45.89634094012522
 30
0.0
  0
LINE
  5
B5
330
1F
100
AcDbEntity
  8
0
  6
Continuous
 62
     7
370
    25
100
AcDbLine
 10
55.8662965808
 20
45.5424933628
 30
0.0
 11
55.8662965808
 21
56.6424933628
 31
0.0
  0
LINE
  5
B6
330
1F
100
AcDbEntity
  8
0
  6
Continuous
 62
     7
370
    25
100
AcDbLine
 10
56.0662965808
 20
56.8424933628
 30
0.0
 11
56.0662965808
 21
45.3424933628
 31
0.0
  0
SPLINE
  5
B7
330
1F
100
AcDbEntity
  8
0
  6
Continuous
 62
     7
370
    25
100
AcDbSpline
210
0.0
220
0.0
230
1.0
 70
     8
 71
     3
 72
    16
 73
    12
 74
     0
 42
0.000000001
 43
0.00000001
 40
0.0
 40
0.0
 40
0.0
 40
0.0
 40
0.1130223886251227
 40
0.2387024512201667
 40
0.3643500542235877
 40
0.4930894900811556
 40
0.6218274355442566
 40
0.7158584889512427
 40
0.8098993986606198
 40
0.9049449862565128
 40
1.0
 40
1.0
 40
1.0
 40
1.0
 10
80.04320043329359
 20
47.62839174769412
 30
0.0
 10
79.97294339051686
 20
47.88392457783115
 30
0.0
 10
79.82456103432804
 20
48.42360803048978
 30
0.0
 10
79.65505770359084
 20
49.26158351394908
 30
0.0
 10
79.53746682074689
 20
50.14560211988857
 30
0.0
 10
79.49483409058773
 20
51.04392087863725
 30
0.0
 10
79.52639943986446
 20
51.86841658234025
 30
0.0
 10
79.60970347521267
 20
52.60687480279594
 30
0.0
 10
79.72126246738353
 20
53.26143087675129
 30
0.0
 10
79.86464653932016
 20
53.91228687460703
 30
0.0
 10
79.98368050120085
 20
54.34181851073306
 30
0.0
 10
80.04320043329359
 20
54.55659497796965
 30
0.0
  0
SPLINE
  5
B8
330
1F
100
AcDbEntity
  8
0
  6
Continuous
 62
     7
370
    25
100
AcDbSpline
210
0.0
220
0.0
230
1.0
 70
     8
 71
     3
 72
    15
 73
    11
 74
     0
 42
0.000000001
 43
0.00000001
 40
0.0
 40
0.0
 40
0.0
 40
0.0
 40
0.1323034284088744
 40
0.2645694515465797
 40
0.3997942148562055
 40
0.5349945762150087
 40
0.6501872613016997
 40
0.765397915722112
 40
0.8826876171264816
 40
1.0
 40
1.0
 40
1.0
 40
1.0
 10
80.04320043329359
 20
44.16429013255636
 30
0.0
 10
79.96162268293746
 20
44.31395104827791
 30
0.0
 10
79.79849024616169
 20
44.61323056708254
 30
0.0
 10
79.62296480850469
 20
45.07409430194405
 30
0.0
 10
79.51742431741351
 20
45.54364525309869
 30
0.0
 10
79.49651904701557
 20
45.99619143386582
 30
0.0
 10
79.55074242816887
 20
46.42429338448611
 30
0.0
 10
79.66185444354176
 20
46.82832095203672
 30
0.0
 10
79.82484579492022
 20
47.23052185738123
 30
0.0
 10
79.97041086272999
 20
47.49575990313244
 30
0.0
 10
80.04320043329359
 20
47.62839174769412
 30
0.0
  0
SPLINE
  5
B9
330
1F
100
AcDbEntity
  8
0
  6
Continuous
 62
     7
370
    25
100
AcDbSpline
210
0.0
220
0.0
230
1.0
 70
     8
 71
     3
 72
    15
 73
    11
 74
     0
 42
0.000000001
 43
0.00000001
 40
0.0
 40
0.0
 40
0.0
 40
0.0
 40
0.1323034284088759
 40
0.2645694515465827
 40
0.3997942148562104
 40
0.5349945762150156
 40
0.6501872613017048
 40
0.7653979157221152
 40
0.8826876171264832
 40
1.0
 40
1.0
 40
1.0
 40
1.0
 10
80.04320043329359
 20
54.55659497796965
 30
0.0
 10
79.96162268293746
 20
54.7062558936912
 30
0.0
 10
79.79849024616169
 20
55.00553541249584
 30
0.0
 10
79.6229648085047
 20
55.46639914735734
 30
0.0
 10
79.51742431741351
 20
55.93595009851198
 30
0.0
 10
79.49651904701558
 20
56.3884962792791
 30
0.0
 10
79.55074242816889
 20
56.8165982298994
 30
0.0
 10
79.66185444354178
 20
57.22062579744999
 30
0.0
 10
79.82484579492022
 20
57.62282670279449
 30
0.0
 10
79.97041086273
 20
57.8880647485457
 30
0.0
 10
80.04320043329359
 20
58.02069659310738
 30
0.0
  0
LINE
  5
BA
330
1F
100
AcDbEntity
  8
0
  6
Continuous
 62
     7
370
    25
100
AcDbLine
 10
79.3629644811
 20
51.0924933628
 30
0.0
 11
79.3629644811
 21
56.8424933628
 31
0.0
  0
LINE
  5
BB
330
1F
100
AcDbEntity
  8
0
  6
Continuous
 62
     7
370
    25
100
AcDbLine
 10
79.3629644811
 20
45.3424933628
 30
0.0
 11
79.3629644811
 21
51.0924933628
 31
0.0
  0
SPLINE
  5
BC
330
1F
100
AcDbEntity
  8
0
  6
Continuous
 62
     7
370
    25
100
AcDbSpline
210
0.0
220
0.0
230
1.0
 70
     8
 71
     3
 72
    12
 73
     8
 74
     0
 42
0.000000001
 43
0.00000001
 40
0.0
 40
0.0
 40
0.0
 40
0.0
 40
0.0700388419389851
 40
0.3004119028624836
 40
0.5308209005332588
 40
0.765387770009328
 40
1.0
 40
1.0
 40
1.0
 40
1.0
 10
89.2186269138365
 20
56.28864578553851
 30
0.0
 10
89.21802390247024
 20
56.24759650507191
 30
0.0
 10
89.21543745490807
 20
56.07152716819098
 30
0.0
 10
89.17485075344833
 20
55.7606796522715
 30
0.0
 10
89.06416587180131
 20
55.35666949785494
 30
0.0
 10
88.90106015395894
 20
54.95446393008637
 30
0.0
 10
88.75551042791388
 20
54.68922650977912
 30
0.0
 10
88.68272852897427
 20
54.55659497796965
 30
0.0
  0
LINE
  5
BD
330
1F
100
AcDbEntity
  8
0
  6
Continuous
 62
     7
370
    25
100
AcDbLine
 10
89.2186269138
 20
51.0924933628
 30
0.0
 11
89.2186269138
 21
56.2886457855
 31
0.0
  0
SPLINE
  5
BE
330
1F
100
AcDbEntity
  8
0
  6
Continuous
 62
     7
370
    25
100
AcDbSpline
210
0.0
220
0.0
230
1.0
 70
     8
 71
     3
 72
    12
 73
     8
 74
     0
 42
0.000000001
 43
0.00000001
 40
0.0
 40
0.0
 40
0.0
 40
0.0
 40
0.187447161910247
 40
0.3748765475261016
 40
0.5640623755679541
 40
0.7532279557308604
 40
1.0
 40
1.0
 40
1.0
 40
1.0
 10
88.68272852897427
 20
54.55659497796965
 30
0.0
 10
88.74143634487542
 20
54.34482800425218
 30
0.0
 10
88.85884640920257
 20
53.92131413944762
 30
0.0
 10
89.0019914468432
 20
53.27542012682433
 30
0.0
 10
89.11366274398115
 20
52.62151370593663
 30
0.0
 10
89.19953740330197
 20
51.89301314474795
 30
0.0
 10
89.21172682474351
 20
51.38184901739165
 30
0.0
 10
89.21862691383653
 20
51.09249336283189
 30
0.0
  0
SPLINE
  5
BF
330
1F
100
AcDbEntity
  8
0
  6
Continuous
 62
     7
370
    25
100
AcDbSpline
210
0.0
220
0.0
230
1.0
 70
     8
 71
     3
 72
    12
 73
     8
 74
     0
 42
0.000000001
 43
0.00000001
 40
0.0
 40
0.0
 40
0.0
 40
0.0
 40
0.1911385458921326
 40
0.3822891756203945
 40
0.5761623698022402
 40
0.7700589757435053
 40
1.0
 40
1.0
 40
1.0
 40
1.0
 10
89.21862691383652
 20
51.09249336283189
 30
0.0
 10
89.21436124264211
 20
50.86840117789608
 30
0.0
 10
89.20582963057628
 20
50.42020264084941
 30
0.0
 10
89.13901204745574
 20
49.74743159314805
 30
0.0
 10
89.03424475511837
 20
49.07672498237304
 30
0.0
 10
88.88589556098816
 20
48.36751830479211
 30
0.0
 10
88.754184571655
 20
47.8883505524614
 30
0.0
 10
88.68272852897427
 20
47.62839174769412
 30
0.0
  0
LINE
  5
C0
330
1F
100
AcDbEntity
  8
0
  6
Continuous
 62
     7
370
    25
100
AcDbLine
 10
80.0432004333
 20
47.6283917477
 30
0.0
 11
88.682728529
 21
47.6283917477
 31
0.0
  0
LINE
  5
C1
330
1F
100
AcDbEntity
  8
0
  6
Continuous
 62
     7
370
    25
100
AcDbLine
 10
80.0432004333
 20
54.556594978
 30
0.0
 11
88.682728529
 21
54.556594978
 31
0.0
  0
LINE
  5
C2
330
1F
100
AcDbEntity
  8
0
  6
Continuous
 62
     7
370
    25
100
AcDbLine
 10
89.2186269138
 20
45.8963409401
 30
0.0
 11
89.2186269138
 21
51.0924933628
 31
0.0
  0
SPLINE
  5
C3
330
1F
100
AcDbEntity
  8
0
  6
Continuous
 62
     7
370
    25
100
AcDbSpline
210
0.0
220
0.0
230
1.0
 70
     8
 71
     3
 72
    11
 73
     7
 74
     0
 42
0.000000001
 43
0.00000001
 40
0.0
 40
0.0
 40
0.0
 40
0.0
 40
0.247711181667985
 40
0.495365492733121
 40
0.7477052806358115
 40
1.0
 40
1.0
 40
1.0
 40
1.0
 10
88.68272852897427
 20
47.62839174769412
 30
0.0
 10
88.75944324897715
 20
47.48832889810951
 30
0.0
 10
88.9128550764862
 20
47.20823535517416
 30
0.0
 10
89.08157566225141
 20
46.77790598872447
 30
0.0
 10
89.19625946765771
 20
46.34008437035896
 30
0.0
 10
89.21117154237241
 20
46.04424660985186
 30
0.0
 10
89.21862691383652
 20
45.89634094012524
 30
0.0
  0
LINE
  5
C4
330
1F
100
AcDbEntity
  8
0
  6
Continuous
 62
     7
370
    25
100
AcDbLine
 10
80.0432004333
 20
58.0206965931
 30
0.0
 11
88.682728529
 21
58.0206965931
 31
0.0
  0
SPLINE
  5
C5
330
1F
100
AcDbEntity
  8
0
  6
Continuous
 62
     7
370
    25
100
AcDbSpline
210
0.0
220
0.0
230
1.0
 70
     8
 71
     3
 72
    11
 73
     7
 74
     0
 42
0.000000001
 43
0.00000001
 40
0.0
 40
0.0
 40
0.0
 40
0.0
 40
0.2477111816679851
 40
0.4953654927331207
 40
0.7477052806358114
 40
0.9999999999999999
 40
0.9999999999999999
 40
0.9999999999999999
 40
0.9999999999999999
 10
88.68272852897427
 20
58.02069659310738
 30
0.0
 10
88.75944324897713
 20
57.88063374352276
 30
0.0
 10
88.91285507648618
 20
57.60054020058742
 30
0.0
 10
89.0815756622514
 20
57.17021083413773
 30
0.0
 10
89.19625946765771
 20
56.73238921577222
 30
0.0
 10
89.2111715423724
 20
56.43655145526512
 30
0.0
 10
89.2186269138365
 20
56.28864578553851
 30
0.0
  0
SPLINE
  5
C6
330
1F
100
AcDbEntity
  8
0
  6
Continuous
 62
     7
370
    25
100
AcDbSpline
210
0.0
220
0.0
230
1.0
 70
     8
 71
     3
 72
    12
 73
     8
 74
     0
 42
0.000000001
 43
0.00000001
 40
0.0
 40
0.0
 40
0.0
 40
0.0
 40
0.0700388419389719
 40
0.3004119028624734
 40
0.5308209005332518
 40
0.7653877700093245
 40
1.0
 40
1.0
 40
1.0
 40
1.0
 10
89.21862691383652
 20
45.89634094012524
 30
0.0
 10
89.21802390247025
 20
45.85529165965865
 30
0.0
 10
89.2154374549081
 20
45.67922232277772
 30
0.0
 10
89.17485075344834
 20
45.36837480685823
 30
0.0
 10
89.06416587180134
 20
44.96436465244167
 30
0.0
 10
88.90106015395894
 20
44.56215908467308
 30
0.0
 10
88.75551042791388
 20
44.29692166436583
 30
0.0
 10
88.68272852897427
 20
44.16429013255636
 30
0.0
  0
LINE
  5
C7
330
1F
100
AcDbEntity
  8
0
  6
Continuous
 62
     7
370
    25
100
AcDbLine
 10
80.0432004333
 20
44.1642901326
 30
0.0
 11
88.682728529
 21
44.1642901326
 31
0.0
  0
LINE
  5
C8
330
1F
100
AcDbEntity
  8
0
  6
Continuous
 62
     7
370
    25
100
AcDbLine
 10
90.1629644811
 20
51.0924933628
 30
0.0
 11
90.1629644811
 21
56.8424933628
 31
0.0
  0
LINE
  5
C9
330
1F
100
AcDbEntity
  8
0
  6
Continuous
 62
     7
370
    25
100
AcDbLine
 10
90.1629644811
 20
45.3424933628
 30
0.0
 11
90.1629644811
 21
51.0924933628
 31
0.0
  0
LINE
  5
CA
330
1F
100
AcDbEntity
  8
0
  6
Continuous
 62
     7
370
    25
100
AcDbLine
 10
90.3629644811
 20
51.0924933628
 30
0.0
 11
90.3629644811
 21
45.5424933628
 31
0.0
  0
LINE
  5
CB
330
1F
100
AcDbEntity
  8
0
  6
Continuous
 62
     7
370
    25
100
AcDbLine
 10
90.3629644811
 20
56.6424933628
 30
0.0
 11
90.3629644811
 21
51.0924933628
 31
0.0
  0
LINE
  5
CC
330
1F
100
AcDbEntity
  8
0
  6
Continuous
 62
     7
370
    25
100
AcDbLine
 10
70.7589680983
 20
51.0924933628
 30
0.0
 11
70.7589680983
 21
56.2886457855
 31
0.0
  0
SPLINE
  5
CD
330
1F
100
AcDbEntity
  8
0
  6
Continuous
 62
     7
370
    25
100
AcDbSpline
210
0.0
220
0.0
230
1.0
 70
     8
 71
     3
 72
     8
 73
     4
 74
     0
 42
0.000000001
 43
0.00000001
 40
0.0
 40
0.0
 40
0.0
 40
0.0
 40
1.0
 40
1.0
 40
1.0
 40
1.0
 10
71.29486648313254
 20
54.55659497796957
 30
0.0
 10
70.96769307480105
 20
55.12327594408516
 30
0.0
 10
70.75896809827086
 20
55.69846476666369
 30
0.0
 10
70.75896809827086
 20
56.28864578553849
 30
0.0
  0
SPLINE
  5
CE
330
1F
100
AcDbEntity
  8
0
  6
Continuous
 62
     7
370
    25
100
AcDbSpline
210
0.0
220
0.0
230
1.0
 70
     8
 71
     3
 72
    10
 73
     6
 74
     0
 42
0.000000001
 43
0.00000001
 40
0.0
 40
0.0
 40
0.0
 40
0.0
 40
0.5000000000000001
 40
0.5000000000000001
 40
1.0
 40
1.0
 40
1.0
 40
1.0
 10
70.75896809827087
 20
51.09249336283185
 30
0.0
 10
70.75896809827087
 20
51.6787221893241
 30
0.0
 10
70.81077498472871
 20
52.27261551690293
 30
0.0
 10
70.99852532448799
 20
53.42896869186728
 30
0.0
 10
71.13314266620613
 20
53.99636724254662
 30
0.0
 10
71.29486648313312
 20
54.55659497796961
 30
0.0
  0
SPLINE
  5
CF
330
1F
100
AcDbEntity
  8
0
  6
Continuous
 62
     7
370
    25
100
AcDbSpline
210
0.0
220
0.0
230
1.0
 70
     8
 71
     3
 72
    12
 73
     8
 74
     0
 42
0.000000001
 43
0.00000001
 40
0.0
 40
0.0
 40
0.0
 40
0.0
 40
0.25
 40
0.25
 40
0.5
 40
0.5
 40
1.0
 40
1.0
 40
1.0
 40
1.0
 10
70.75896809827086
 20
56.28864578553849
 30
0.0
 10
70.75896809827086
 20
56.43563949548106
 30
0.0
 10
70.77163475776338
 20
56.58329228008954
 30
0.0
 10
70.82065322154155
 20
56.87538032832349
 30
0.0
 10
70.856957911423
 20
57.02044743469165
 30
0.0
 10
70.99698126148346
 20
57.45307223593559
 30
0.0
 10
71.13168815509172
 20
57.73806343824611
 30
0.0
 10
71.29486648313281
 20
58.0206965931074
 30
0.0
  0
LINE
  5
D0
330
1F
100
AcDbEntity
  8
0
  6
Continuous
 62
     7
370
    25
100
AcDbLine
 10
74.9343945788
 20
58.0206965931
 30
0.0
 11
71.2948664831
 21
58.0206965931
 31
0.0
  0
SPLINE
  5
D1
330
1F
100
AcDbEntity
  8
0
  6
Continuous
 62
     7
370
    25
100
AcDbSpline
210
0.0
220
0.0
230
1.0
 70
     8
 71
     3
 72
    12
 73
     8
 74
     0
 42
0.000000001
 43
0.00000001
 40
0.0
 40
0.0
 40
0.0
 40
0.0
 40
0.25
 40
0.25
 40
0.5
 40
0.5
 40
1.0
 40
1.0
 40
1.0
 40
1.0
 10
75.47029296367606
 20
56.28864578553849
 30
0.0
 10
75.47029296367606
 20
56.43563949548106
 30
0.0
 10
75.45762630418353
 20
56.58329228008954
 30
0.0
 10
75.40860784040537
 20
56.87538032832349
 30
0.0
 10
75.37230315052393
 20
57.02044743469165
 30
0.0
 10
75.23227980046346
 20
57.45307223593559
 30
0.0
 10
75.09757290685519
 20
57.73806343824611
 30
0.0
 10
74.9343945788141
 20
58.0206965931074
 30
0.0
  0
SPLINE
  5
D2
330
1F
100
AcDbEntity
  8
0
  6
Continuous
 62
     7
370
    25
100
AcDbSpline
210
0.0
220
0.0
230
1.0
 70
     8
 71
     3
 72
     8
 73
     4
 74
     0
 42
0.000000001
 43
0.00000001
 40
0.0
 40
0.0
 40
0.0
 40
0.0
 40
1.0
 40
1.0
 40
1.0
 40
1.0
 10
74.93439457881439
 20
54.55659497796957
 30
0.0
 10
75.26156798714587
 20
55.12327594408516
 30
0.0
 10
75.47029296367606
 20
55.69846476666369
 30
0.0
 10
75.47029296367606
 20
56.28864578553849
 30
0.0
  0
LINE
  5
D3
330
1F
100
AcDbEntity
  8
0
  6
Continuous
 62
     7
370
    25
100
AcDbLine
 10
74.9343945788
 20
54.556594978
 30
0.0
 11
71.2948664831
 21
54.556594978
 31
0.0
  0
SPLINE
  5
D4
330
1F
100
AcDbEntity
  8
0
  6
Continuous
 62
     7
370
    25
100
AcDbSpline
210
0.0
220
0.0
230
1.0
 70
     8
 71
     3
 72
    10
 73
     6
 74
     0
 42
0.000000001
 43
0.00000001
 40
0.0
 40
0.0
 40
0.0
 40
0.0
 40
0.5
 40
0.5
 40
1.0
 40
1.0
 40
1.0
 40
1.0
 10
71.2948664831331
 20
47.62839174769407
 30
0.0
 10
71.13209753891314
 20
48.19223991026067
 30
0.0
 10
70.99577337730504
 20
48.7691027891685
 30
0.0
 10
70.80935259400185
 20
49.92508336190345
 30
0.0
 10
70.75896809827087
 20
50.50667177279329
 30
0.0
 10
70.75896809827087
 20
51.09249336283185
 30
0.0
  0
SPLINE
  5
D5
330
1F
100
AcDbEntity
  8
0
  6
Continuous
 62
     7
370
    25
100
AcDbSpline
210
0.0
220
0.0
230
1.0
 70
     8
 71
     3
 72
    10
 73
     6
 74
     0
 42
0.000000001
 43
0.00000001
 40
0.0
 40
0.0
 40
0.0
 40
0.0
 40
0.5000000000000001
 40
0.5000000000000001
 40
1.0
 40
1.0
 40
1.0
 40
1.0
 10
75.47029296367604
 20
51.09249336283185
 30
0.0
 10
75.47029296367604
 20
51.6787221893241
 30
0.0
 10
75.4184860772182
 20
52.27261551690293
 30
0.0
 10
75.23073573745893
 20
53.42896869186728
 30
0.0
 10
75.09611839574079
 20
53.99636724254662
 30
0.0
 10
74.93439457881381
 20
54.55659497796961
 30
0.0
  0
SPLINE
  5
D6
330
1F
100
AcDbEntity
  8
0
  6
Continuous
 62
     7
370
    25
100
AcDbSpline
210
0.0
220
0.0
230
1.0
 70
     8
 71
     3
 72
    10
 73
     6
 74
     0
 42
0.000000001
 43
0.00000001
 40
0.0
 40
0.0
 40
0.0
 40
0.0
 40
0.5
 40
0.5
 40
1.0
 40
1.0
 40
1.0
 40
1.0
 10
74.93439457881382
 20
47.62839174769407
 30
0.0
 10
75.09716352303377
 20
48.19223991026067
 30
0.0
 10
75.23348768464187
 20
48.7691027891685
 30
0.0
 10
75.41990846794506
 20
49.92508336190345
 30
0.0
 10
75.47029296367604
 20
50.50667177279329
 30
0.0
 10
75.47029296367604
 20
51.09249336283185
 30
0.0
  0
LINE
  5
D7
330
1F
100
AcDbEntity
  8
0
  6
Continuous
 62
     7
370
    25
100
AcDbLine
 10
74.9343945788
 20
47.6283917477
 30
0.0
 11
71.2948664831
 21
47.6283917477
 31
0.0
  0
LINE
  5
D8
330
1F
100
AcDbEntity
  8
0
  6
Continuous
 62
     7
370
    25
100
AcDbLine
 10
75.4702929637
 20
45.8963409401
 30
0.0
 11
75.4702929637
 21
51.0924933628
 31
0.0
  0
SPLINE
  5
D9
330
1F
100
AcDbEntity
  8
0
  6
Continuous
 62
     7
370
    25
100
AcDbSpline
210
0.0
220
0.0
230
1.0
 70
     8
 71
     3
 72
    12
 73
     8
 74
     0
 42
0.000000001
 43
0.00000001
 40
0.0
 40
0.0
 40
0.0
 40
0.0
 40
0.25
 40
0.25
 40
0.5
 40
0.5
 40
1.0
 40
1.0
 40
1.0
 40
1.0
 10
75.47029296367604
 20
45.89634094012521
 30
0.0
 10
75.47029296367606
 20
46.04333465006777
 30
0.0
 10
75.45762630418353
 20
46.19098743467626
 30
0.0
 10
75.40860784040537
 20
46.48307548291019
 30
0.0
 10
75.37230315052393
 20
46.62814258927837
 30
0.0
 10
75.23227980046346
 20
47.06076739052229
 30
0.0
 10
75.09757290685519
 20
47.34575859283281
 30
0.0
 10
74.9343945788141
 20
47.6283917476941
 30
0.0
  0
LINE
  5
DA
330
1F
100
AcDbEntity
  8
0
  6
Continuous
 62
     7
370
    25
100
AcDbLine
 10
70.7589680983
 20
45.8963409401
 30
0.0
 11
70.7589680983
 21
51.0924933628
 31
0.0
  0
SPLINE
  5
DB
330
1F
100
AcDbEntity
  8
0
  6
Continuous
 62
     7
370
    25
100
AcDbSpline
210
0.0
220
0.0
230
1.0
 70
     8
 71
     3
 72
    12
 73
     8
 74
     0
 42
0.000000001
 43
0.00000001
 40
0.0
 40
0.0
 40
0.0
 40
0.0
 40
0.25
 40
0.25
 40
0.5
 40
0.5
 40
1.0
 40
1.0
 40
1.0
 40
1.0
 10
70.75896809827087
 20
45.89634094012521
 30
0.0
 10
70.75896809827086
 20
46.04333465006777
 30
0.0
 10
70.77163475776338
 20
46.19098743467626
 30
0.0
 10
70.82065322154155
 20
46.48307548291019
 30
0.0
 10
70.856957911423
 20
46.62814258927837
 30
0.0
 10
70.99698126148346
 20
47.06076739052229
 30
0.0
 10
71.13168815509172
 20
47.34575859283281
 30
0.0
 10
71.29486648313281
 20
47.6283917476941
 30
0.0
  0
LINE
  5
DC
330
1F
100
AcDbEntity
  8
0
  6
Continuous
 62
     7
370
    25
100
AcDbLine
 10
75.4702929637
 20
51.0924933628
 30
0.0
 11
75.4702929637
 21
56.2886457855
 31
0.0
  0
SPLINE
  5
DD
330
1F
100
AcDbEntity
  8
0
  6
Continuous
 62
     7
370
    25
100
AcDbSpline
210
0.0
220
0.0
230
1.0
 70
     8
 71
     3
 72
     8
 73
     4
 74
     0
 42
0.000000001
 43
0.00000001
 40
0.0
 40
0.0
 40
0.0
 40
0.0
 40
1.0
 40
1.0
 40
1.0
 40
1.0
 10
71.29486648313254
 20
44.16429013255631
 30
0.0
 10
70.96769307480105
 20
44.73097109867189
 30
0.0
 10
70.75896809827087
 20
45.30615992125041
 30
0.0
 10
70.75896809827087
 20
45.89634094012521
 30
0.0
  0
SPLINE
  5
DE
330
1F
100
AcDbEntity
  8
0
  6
Continuous
 62
     7
370
    25
100
AcDbSpline
210
0.0
220
0.0
230
1.0
 70
     8
 71
     3
 72
     8
 73
     4
 74
     0
 42
0.000000001
 43
0.00000001
 40
0.0
 40
0.0
 40
0.0
 40
0.0
 40
1.0
 40
1.0
 40
1.0
 40
1.0
 10
74.93439457881439
 20
44.16429013255631
 30
0.0
 10
75.26156798714587
 20
44.73097109867189
 30
0.0
 10
75.47029296367604
 20
45.30615992125041
 30
0.0
 10
75.47029296367604
 20
45.89634094012521
 30
0.0
  0
LINE
  5
DF
330
1F
100
AcDbEntity
  8
0
  6
Continuous
 62
     7
370
    25
100
AcDbLine
 10
74.9343945788
 20
44.1642901326
 30
0.0
 11
71.2948664831
 21
44.1642901326
 31
0.0
  0
LINE
  5
E0
330
1F
100
AcDbEntity
  8
0
  6
Continuous
 62
     7
370
    25
100
AcDbLine
 10
69.614630531
 20
56.6424933628
 30
0.0
 11
69.614630531
 21
45.5424933628
 31
0.0
  0
LINE
  5
E1
330
1F
100
AcDbEntity
  8
0
  6
Continuous
 62
     7
370
    25
100
AcDbLine
 10
69.814630531
 20
45.3424933628
 30
0.0
 11
69.814630531
 21
56.8424933628
 31
0.0
  0
LINE
  5
E2
330
1F
100
AcDbEntity
  8
0
  6
Continuous
 62
     7
370
    25
100
AcDbLine
 10
76.414630531
 20
45.3424933628
 30
0.0
 11
76.414630531
 21
56.8424933628
 31
0.0
  0
LINE
  5
E3
330
1F
100
AcDbEntity
  8
0
  6
Continuous
 62
     7
370
    25
100
AcDbLine
 10
76.614630531
 20
56.6424933628
 30
0.0
 11
76.614630531
 21
45.5424933628
 31
0.0
  0
LINE
  5
E4
330
1F
100
AcDbEntity
  8
0
  6
Continuous
 62
     7
370
    25
100
AcDbLine
 10
67.414630531
 20
55.9564933628
 30
0.0
 11
67.414630531
 21
46.2284933628
 31
0.0
  0
LINE
  5
E5
330
1F
100
AcDbEntity
  8
0
  6
Continuous
 62
     7
370
    25
100
AcDbLine
 10
78.114630531
 20
46.9284933628
 30
0.0
 11
78.114630531
 21
55.2564933628
 31
0.0
  0
LINE
  5
E6
330
1F
100
AcDbEntity
  8
0
  6
Continuous
 62
     7
370
    25
100
AcDbLine
 10
78.814630531
 20
55.9564933628
 30
0.0
 11
78.814630531
 21
46.2284933628
 31
0.0
  0
LINE
  5
E7
330
1F
100
AcDbEntity
  8
0
  6
Continuous
 62
     7
370
    25
100
AcDbLine
 10
68.114630531
 20
46.9284933628
 30
0.0
 11
68.114630531
 21
55.2564933628
 31
0.0
  0
LINE
  5
E8
330
1F
100
AcDbEntity
  8
0
  6
Continuous
 62
     1
370
    25
100
AcDbLine
 10
56.5776214462
 20
51.0924933628
 30
0.0
 11
56.5776214462
 21
56.8424933628
 31
0.0
  0
LINE
  5
E9
330
1F
100
AcDbEntity
  8
0
  6
Continuous
 62
     1
370
    25
100
AcDbLine
 10
56.5776214462
 20
45.3424933628
 30
0.0
 11
56.5776214462
 21
51.0924933628
 31
0.0
  0
LINE
  5
EA
330
1F
100
AcDbEntity
  8
0
  6
Continuous
 62
     1
370
    25
100
AcDbLine
 10
57.0106341481
 20
57.0924933628
 30
0.0
 11
57.0106341481
 21
56.2886457855
 31
0.0
  0
LINE
  5
EB
330
1F
100
AcDbEntity
  8
0
  6
Continuous
 62
     1
370
    25
100
AcDbLine
 10
57.0106341481
 20
45.8963409401
 30
0.0
 11
57.0106341481
 21
45.0924933628
 31
0.0
  0
LINE
  5
EC
330
1F
100
AcDbEntity
  8
0
  6
Continuous
 62
     1
370
    25
100
AcDbLine
 10
89.6516396157
 20
56.8424933628
 30
0.0
 11
89.6516396157
 21
45.3424933628
 31
0.0
  0
LINE
  5
ED
330
1F
100
AcDbEntity
  8
0
  6
Continuous
 62
     1
370
    25
100
AcDbLine
 10
89.2186269138
 20
56.2886457855
 30
0.0
 11
89.2186269138
 21
57.0924933628
 31
0.0
  0
LINE
  5
EE
330
1F
100
AcDbEntity
  8
0
  6
Continuous
 62
     1
370
    25
100
AcDbLine
 10
89.2186269138
 20
45.0924933628
 30
0.0
 11
89.2186269138
 21
45.8963409401
 31
0.0
  0
LINE
  5
EF
330
1F
100
AcDbEntity
  8
0
  6
Continuous
 62
     1
370
    25
100
AcDbLine
 10
75.4702929637
 20
56.2886457855
 30
0.0
 11
75.4702929637
 21
57.0924933628
 31
0.0
  0
LINE
  5
F0
330
1F
100
AcDbEntity
  8
0
  6
Continuous
 62
     1
370
    25
100
AcDbLine
 10
75.4702929637
 20
45.0924933628
 30
0.0
 11
75.4702929637
 21
45.8963409401
 31
0.0
  0
LINE
  5
F1
330
1F
100
AcDbEntity
  8
0
  6
Continuous
 62
     1
370
    25
100
AcDbLine
 10
75.9033056656
 20
51.0924933628
 30
0.0
 11
75.9033056656
 21
45.3424933628
 31
0.0
  0
LINE
  5
F2
330
1F
100
AcDbEntity
  8
0
  6
Continuous
 62
     1
370
    25
100
AcDbLine
 10
75.9033056656
 20
56.8424933628
 30
0.0
 11
75.9033056656
 21
51.0924933628
 31
0.0
  0
LINE
  5
F3
330
1F
100
AcDbEntity
  8
0
  6
Continuous
 62
     1
370
    25
100
AcDbLine
 10
70.7589680983
 20
56.2886457855
 30
0.0
 11
70.7589680983
 21
57.0924933628
 31
0.0
  0
LINE
  5
F4
330
1F
100
AcDbEntity
  8
0
  6
Continuous
 62
     1
370
    25
100
AcDbLine
 10
70.7589680983
 20
45.0924933628
 30
0.0
 11
70.7589680983
 21
45.8963409401
 31
0.0
  0
LINE
  5
F5
330
1F
100
AcDbEntity
  8
0
  6
Continuous
 62
     1
370
    25
100
AcDbLine
 10
70.3259553964
 20
51.0924933628
 30
0.0
 11
70.3259553964
 21
45.3424933628
 31
0.0
  0
LINE
  5
F6
330
1F
100
AcDbEntity
  8
0
  6
Continuous
 62
     1
370
    25
100
AcDbLine
 10
70.3259553964
 20
56.8424933628
 30
0.0
 11
70.3259553964
 21
51.0924933628
 31
0.0
  0
CIRCLE
  5
F7
330
1F
100
AcDbEntity
  8
0
  6
Continuous
 62
     7
370
    25
100
AcDbCircle
 10
111.6040597345
 20
51.0924933628
 30
0.0
 40
5.549999999999997
  0
CIRCLE
  5
F8
330
1F
100
AcDbEntity
  8
0
  6
Continuous
 62
     7
370
    25
100
AcDbCircle
 10
111.6040597345
 20
51.0924933628
 30
0.0
 40
3.174999999999997
  0
CIRCLE
  5
F9
330
1F
100
AcDbEntity
  8
0
  6
Continuous
 62
     7
370
    25
100
AcDbCircle
 10
111.6040597345
 20
51.0924933628
 30
0.0
 40
5.749999999999986
  0
CIRCLE
  5
FA
330
1F
100
AcDbEntity
  8
0
  6
Continuous
 62
     7
370
    25
100
AcDbCircle
 10
111.6040597345
 20
51.0924933628
 30
0.0
 40
3.074999999999989
  0
ARC
  5
FB
330
1F
100
AcDbEntity
  8
0
  6
Continuous
 62
     7
370
    25
100
AcDbCircle
 10
111.6040597345
 20
51.0924933628
 30
0.0
 40
5.999999999999994
100
AcDbArc
 50
180.0
 51
240.0
  0
ARC
  5
FC
330
1F
100
AcDbEntity
  8
0
  6
Continuous
 62
     7
370
    25
100
AcDbCircle
 10
111.6040597345
 20
51.0924933628
 30
0.0
 40
6.000000000000013
100
AcDbArc
 50
120.0
 51
180.0
  0
ARC
  5
FD
330
1F
100
AcDbEntity
  8
0
  6
Continuous
 62
     7
370
    25
100
AcDbCircle
 10
111.6040597345
 20
51.0924933628
 30
0.0
 40
6.000000000000013
100
AcDbArc
 50
60.0
 51
120.0
  0
ARC
  5
FE
330
1F
100
AcDbEntity
  8
0
  6
Continuous
 62
     7
370
    25
100
AcDbCircle
 10
111.6040597345
 20
51.0924933628
 30
0.0
 40
6.0
100
AcDbArc
 50
0.0
 51
60.0
  0
ARC
  5
FF
330
1F
100
AcDbEntity
  8
0
  6
Continuous
 62
     7
370
    25
100
AcDbCircle
 10
111.6040597345
 20
51.0924933628
 30
0.0
 40
6.0
100
AcDbArc
 50
300.0
 51
0.0
  0
ARC
  5
100
330
1F
100
AcDbEntity
  8
0
  6
Continuous
 62
     7
370
    25
100
AcDbCircle
 10
111.6040597345
 20
51.0924933628
 30
0.0
 40
5.999999999999994
100
AcDbArc
 50
240.0
 51
300.0
  0
SPLINE
  5
101
330
1F
100
AcDbEntity
  8
0
  6
Continuous
 62
     7
370
    25
100
AcDbSpline
210
0.0
220
0.0
230
1.0
 70
    24
 71
     3
 72
    12
 73
     8
 74
     0
 42
0.000000001
 43
0.00000001
 40
0.0
 40
0.0
 40
0.0
 40
0.0
 40
0.0700385718644583
 40
0.2997996769400307
 40
0.5308224945585882
 40
0.7650211555547356
 40
1.0
 40
1.0
 40
1.0
 40
1.0
 10
108.6040597345133
 20
45.89634094012524
 30
0.0
 10
108.6751589366129
 20
45.85529179665386
 30
0.0
 10
108.9794986347639
 20
45.67958119000126
 30
0.0
 10
109.5179282403789
 20
45.36871871225981
 30
0.0
 10
110.217299369428
 20
44.96493660263984
 30
0.0
 10
110.9145721498872
 20
44.56236597514312
 30
0.0
 10
111.3739758960009
 20
44.29712909865766
 30
0.0
 10
111.6040597345133
 20
44.16429013255635
 30
0.0
  0
SPLINE
  5
102
330
1F
100
AcDbEntity
  8
0
  6
Continuous
 62
     7
370
    25
100
AcDbSpline
210
0.0
220
0.0
230
1.0
 70
    24
 71
     3
 72
    11
 73
     7
 74
     0
 42
0.000000001
 43
0.00000001
 40
0.0
 40
0.0
 40
0.0
 40
0.0
 40
0.2472686137512651
 40
0.4953625653849104
 40
0.7468740051198236
 40
1.0
 40
1.0
 40
1.0
 40
1.0
 10
111.6040597345133
 20
44.16429013255636
 30
0.0
 10
111.8462190217037
 20
44.30410086220252
 30
0.0
 10
112.3313458799595
 20
44.58418898440764
 30
0.0
 10
113.0758885950905
 20
45.01405092141165
 30
0.0
 10
113.8345966329815
 20
45.45209121132436
 30
0.0
 10
114.3470255395158
 20
45.74794217845253
 30
0.0
 10
114.6040597345133
 20
45.89634094012524
 30
0.0
  0
SPLINE
  5
103
330
1F
100
AcDbEntity
  8
0
  6
Continuous
 62
     7
370
    25
100
AcDbSpline
210
0.0
220
0.0
230
1.0
 70
    24
 71
     3
 72
    11
 73
     7
 74
     0
 42
0.000000001
 43
0.00000001
 40
0.0
 40
0.0
 40
0.0
 40
0.0
 40
0.247268613751265
 40
0.4953625653849101
 40
0.7468740051198235
 40
1.0
 40
1.0
 40
1.0
 40
1.0
 10
117.6040597345133
 20
54.55659497796965
 30
0.0
 10
117.3619004473228
 20
54.6964057076158
 30
0.0
 10
116.876773589067
 20
54.97649382982093
 30
0.0
 10
116.1322308739361
 20
55.40635576682494
 30
0.0
 10
115.3735228360451
 20
55.84439605673764
 30
0.0
 10
114.8610939295107
 20
56.14024702386579
 30
0.0
 10
114.6040597345132
 20
56.28864578553851
 30
0.0
  0
SPLINE
  5
104
330
1F
100
AcDbEntity
  8
0
  6
Continuous
 62
     7
370
    25
100
AcDbSpline
210
0.0
220
0.0
230
1.0
 70
    24
 71
     3
 72
    12
 73
     8
 74
     0
 42
0.000000001
 43
0.00000001
 40
0.0
 40
0.0
 40
0.0
 40
0.0
 40
0.2467717232827324
 40
0.4337771387112417
 40
0.6213867515395267
 40
0.8105047604015172
 40
1.0
 40
1.0
 40
1.0
 40
1.0
 10
117.6040597345133
 20
51.09249336283189
 30
0.0
 10
117.6040597345133
 20
51.38184785639765
 30
0.0
 10
117.6040597345133
 20
51.8904772999275
 30
0.0
 10
117.6040597345133
 20
52.61465879580643
 30
0.0
 10
117.6040597345133
 20
53.26627116267354
 30
0.0
 10
117.6040597345133
 20
53.91475682666005
 30
0.0
 10
117.6040597345133
 20
54.34250686483229
 30
0.0
 10
117.6040597345133
 20
54.55659497796965
 30
0.0
  0
SPLINE
  5
105
330
1F
100
AcDbEntity
  8
0
  6
Continuous
 62
     7
370
    25
100
AcDbSpline
210
0.0
220
0.0
230
1.0
 70
    24
 71
     3
 72
    12
 73
     8
 74
     0
 42
0.000000001
 43
0.00000001
 40
0.0
 40
0.0
 40
0.0
 40
0.0
 40
0.190762328010727
 40
0.3822900697926658
 40
0.5758896407802043
 40
0.770059506749124
 40
1.0
 40
1.0
 40
1.0
 40
1.0
 10
105.6040597345133
 20
51.09249336283189
 30
0.0
 10
105.6040597345133
 20
50.86883934652284
 30
0.0
 10
105.6040597345133
 20
50.42063392569473
 30
0.0
 10
105.6040597345133
 20
49.74819389635294
 30
0.0
 10
105.6040597345133
 20
49.07702939120803
 30
0.0
 10
105.6040597345133
 20
48.36783160062785
 30
0.0
 10
105.6040597345133
 20
47.88835190808633
 30
0.0
 10
105.6040597345133
 20
47.62839174769412
 30
0.0
  0
SPLINE
  5
106
330
1F
100
AcDbEntity
  8
0
  6
Continuous
 62
     7
370
    25
100
AcDbSpline
210
0.0
220
0.0
230
1.0
 70
    24
 71
     3
 72
    11
 73
     7
 74
     0
 42
0.000000001
 43
0.00000001
 40
0.0
 40
0.0
 40
0.0
 40
0.0
 40
0.247268613751265
 40
0.4953625653849104
 40
0.7468740051198236
 40
1.0
 40
1.0
 40
1.0
 40
1.0
 10
105.6040597345133
 20
47.62839174769412
 30
0.0
 10
105.8462190217037
 20
47.48858101804797
 30
0.0
 10
106.3313458799595
 20
47.20849289584284
 30
0.0
 10
107.0758885950905
 20
46.77863095883882
 30
0.0
 10
107.8345966329815
 20
46.34059066892612
 30
0.0
 10
108.3470255395158
 20
46.04473970179796
 30
0.0
 10
108.6040597345133
 20
45.89634094012524
 30
0.0
  0
SPLINE
  5
107
330
1F
100
AcDbEntity
  8
0
  6
Continuous
 62
     7
370
    25
100
AcDbSpline
210
0.0
220
0.0
230
1.0
 70
    24
 71
     3
 72
    12
 73
     8
 74
     0
 42
0.000000001
 43
0.00000001
 40
0.0
 40
0.0
 40
0.0
 40
0.0
 40
0.0700385718644716
 40
0.2997996769400409
 40
0.5308224945585952
 40
0.7650211555547389
 40
1.0
 40
1.0
 40
1.0
 40
1.0
 10
108.6040597345133
 20
56.28864578553851
 30
0.0
 10
108.5329605324136
 20
56.24759664206712
 30
0.0
 10
108.2286208342626
 20
56.07188603541452
 30
0.0
 10
107.6901912286476
 20
55.76102355767308
 30
0.0
 10
106.9908200995985
 20
55.3572414480531
 30
0.0
 10
106.2935473191393
 20
54.95467082055641
 30
0.0
 10
105.8341435730257
 20
54.68943394407095
 30
0.0
 10
105.6040597345133
 20
54.55659497796965
 30
0.0
  0
SPLINE
  5
108
330
1F
100
AcDbEntity
  8
0
  6
Continuous
 62
     7
370
    25
100
AcDbSpline
210
0.0
220
0.0
230
1.0
 70
    24
 71
     3
 72
    12
 73
     8
 74
     0
 42
0.000000001
 43
0.00000001
 40
0.0
 40
0.0
 40
0.0
 40
0.0
 40
0.1872734889728913
 40
0.3748762106130477
 40
0.5637618838290639
 40
0.7532281671094972
 40
1.0
 40
1.0
 40
1.0
 40
1.0
 10
105.6040597345133
 20
54.55659497796965
 30
0.0
 10
105.6040597345133
 20
54.34502486028568
 30
0.0
 10
105.6040597345133
 20
53.92151267801518
 30
0.0
 10
105.6040597345133
 20
53.27596009908738
 30
0.0
 10
105.6040597345133
 20
52.62187659432721
 30
0.0
 10
105.6040597345133
 20
51.89336177970219
 30
0.0
 10
105.6040597345133
 20
51.38184751851699
 30
0.0
 10
105.6040597345133
 20
51.09249336283189
 30
0.0
  0
SPLINE
  5
109
330
1F
100
AcDbEntity
  8
0
  6
Continuous
 62
     7
370
    25
100
AcDbSpline
210
0.0
220
0.0
230
1.0
 70
    24
 71
     3
 72
    11
 73
     7
 74
     0
 42
0.000000001
 43
0.00000001
 40
0.0
 40
0.0
 40
0.0
 40
0.0
 40
0.2472686137512649
 40
0.4953625653849102
 40
0.7468740051198234
 40
0.9999999999999999
 40
0.9999999999999999
 40
0.9999999999999999
 40
0.9999999999999999
 10
111.6040597345132
 20
58.02069659310737
 30
0.0
 10
111.3619004473228
 20
57.88088586346122
 30
0.0
 10
110.876773589067
 20
57.60079774125609
 30
0.0
 10
110.1322308739361
 20
57.17093580425209
 30
0.0
 10
109.3735228360451
 20
56.73289551433938
 30
0.0
 10
108.8610939295107
 20
56.43704454721123
 30
0.0
 10
108.6040597345133
 20
56.28864578553851
 30
0.0
  0
SPLINE
  5
10A
330
1F
100
AcDbEntity
  8
0
  6
Continuous
 62
     7
370
    25
100
AcDbSpline
210
0.0
220
0.0
230
1.0
 70
    24
 71
     3
 72
    12
 73
     8
 74
     0
 42
0.000000001
 43
0.00000001
 40
0.0
 40
0.0
 40
0.0
 40
0.0
 40
0.0700385718644581
 40
0.2997996769400305
 40
0.5308224945585881
 40
0.7650211555547356
 40
1.0
 40
1.0
 40
1.0
 40
1.0
 10
114.6040597345132
 20
56.28864578553851
 30
0.0
 10
114.5329605324136
 20
56.32969492900989
 30
0.0
 10
114.2286208342626
 20
56.50540553566249
 30
0.0
 10
113.6901912286476
 20
56.81626801340393
 30
0.0
 10
112.9908200995985
 20
57.2200501230239
 30
0.0
 10
112.2935473191393
 20
57.6226207505206
 30
0.0
 10
111.8341435730256
 20
57.88785762700607
 30
0.0
 10
111.6040597345132
 20
58.02069659310738
 30
0.0
  0
SPLINE
  5
10B
330
1F
100
AcDbEntity
  8
0
  6
Continuous
 62
     7
370
    25
100
AcDbSpline
210
0.0
220
0.0
230
1.0
 70
    24
 71
     3
 72
    12
 73
     8
 74
     0
 42
0.000000001
 43
0.00000001
 40
0.0
 40
0.0
 40
0.0
 40
0.0
 40
0.0700385718644578
 40
0.2997996769400306
 40
0.530822494558588
 40
0.765021155554736
 40
1.0
 40
1.0
 40
1.0
 40
1.0
 10
114.6040597345133
 20
45.89634094012524
 30
0.0
 10
114.6751589366129
 20
45.93739008359663
 30
0.0
 10
114.9794986347639
 20
46.11310069024923
 30
0.0
 10
115.5179282403789
 20
46.42396316799066
 30
0.0
 10
116.217299369428
 20
46.82774527761065
 30
0.0
 10
116.9145721498872
 20
47.23031590510735
 30
0.0
 10
117.3739758960009
 20
47.49555278159282
 30
0.0
 10
117.6040597345133
 20
47.62839174769412
 30
0.0
  0
SPLINE
  5
10C
330
1F
100
AcDbEntity
  8
0
  6
Continuous
 62
     7
370
    25
100
AcDbSpline
210
0.0
220
0.0
230
1.0
 70
    24
 71
     3
 72
    12
 73
     8
 74
     0
 42
0.000000001
 43
0.00000001
 40
0.0
 40
0.0
 40
0.0
 40
0.0
 40
0.2299406266580858
 40
0.4209627907871277
 40
0.6124858037083586
 40
0.8058577968207262
 40
1.0
 40
1.0
 40
1.0
 40
1.0
 10
117.6040597345133
 20
47.62839174769412
 30
0.0
 10
117.6040597345133
 20
47.88835113626295
 30
0.0
 10
117.6040597345133
 20
48.36427064337107
 30
0.0
 10
117.6040597345133
 20
49.06739959944895
 30
0.0
 10
117.6040597345133
 20
49.73451179905715
 30
0.0
 10
117.6040597345133
 20
50.41054265083925
 30
0.0
 10
117.6040597345133
 20
50.86487545334726
 30
0.0
 10
117.6040597345133
 20
51.09249336283189
 30
0.0
  0
CIRCLE
  5
10D
330
1F
100
AcDbEntity
  8
0
  6
Continuous
 62
     7
370
    25
100
AcDbCircle
 10
111.6040597345
 20
51.0924933628
 30
0.0
 40
3.049999999999997
  0
CIRCLE
  5
10E
330
1F
100
AcDbEntity
  8
0
  6
Continuous
 62
     7
370
    25
100
AcDbCircle
 10
111.6040597345
 20
51.0924933628
 30
0.0
 40
2.5
  0
LINE
  5
10F
330
1F
100
AcDbEntity
  8
0
  6
Continuous
 62
     7
370
    25
100
AcDbLine
 10
66.7219590135
 20
79.5218561947
 30
0.0
 11
66.8662965808
 21
79.7718561947
 31
0.0
  0
LINE
  5
110
330
1F
100
AcDbEntity
  8
0
  6
Continuous
 62
     7
370
    25
100
AcDbLine
 10
66.8662965808
 20
91.2718561947
 30
0.0
 11
66.7219590135
 21
91.5218561947
 31
0.0
  0
ARC
  5
111
330
1F
100
AcDbEntity
  8
0
  6
Continuous
 62
     7
370
    25
100
AcDbCircle
 10
56.5776214462
 20
79.2718561947
 30
0.0
 40
0.5
100
AcDbArc
 50
30.0
 51
90.0
  0
ARC
  5
112
330
1F
100
AcDbEntity
  8
0
  6
Continuous
 62
     7
370
    25
100
AcDbCircle
 10
56.5776214462
 20
91.7718561947
 30
0.0
 40
0.5
100
AcDbArc
 50
270.0
 51
330.0
  0
LINE
  5
113
330
1F
100
AcDbEntity
  8
0
  6
Continuous
 62
     7
370
    25
100
AcDbLine
 10
56.0662965808
 20
79.7718561947
 30
0.0
 11
56.5776214462
 21
79.7718561947
 31
0.0
  0
LINE
  5
114
330
1F
100
AcDbEntity
  8
0
  6
Continuous
 62
     7
370
    25
100
AcDbLine
 10
56.5776214462
 20
91.2718561947
 30
0.0
 11
56.0662965808
 21
91.2718561947
 31
0.0
  0
LINE
  5
115
330
1F
100
AcDbEntity
  8
0
  6
Continuous
 62
     7
370
    25
100
AcDbLine
 10
56.0662965808
 20
91.2718561947
 30
0.0
 11
55.8662965808
 21
91.0718561947
 31
0.0
  0
LINE
  5
116
330
1F
100
AcDbEntity
  8
0
  6
Continuous
 62
     7
370
    25
100
AcDbLine
 10
55.8662965808
 20
79.9718561947
 30
0.0
 11
56.0662965808
 21
79.7718561947
 31
0.0
  0
LINE
  5
117
330
1F
100
AcDbEntity
  8
0
  6
Continuous
 62
     7
370
    25
100
AcDbLine
 10
79.5073020484
 20
91.5218561947
 30
0.0
 11
79.3629644811
 21
91.2718561947
 31
0.0
  0
LINE
  5
118
330
1F
100
AcDbEntity
  8
0
  6
Continuous
 62
     7
370
    25
100
AcDbLine
 10
79.3629644811
 20
79.7718561947
 30
0.0
 11
79.5073020484
 21
79.5218561947
 31
0.0
  0
ARC
  5
119
330
1F
100
AcDbEntity
  8
0
  6
Continuous
 62
     7
370
    25
100
AcDbCircle
 10
89.6516396157
 20
91.7718561947
 30
0.0
 40
0.5
100
AcDbArc
 50
210.0
 51
270.0
  0
ARC
  5
11A
330
1F
100
AcDbEntity
  8
0
  6
Continuous
 62
     7
370
    25
100
AcDbCircle
 10
89.6516396157
 20
79.2718561947
 30
0.0
 40
0.5
100
AcDbArc
 50
90.0
 51
150.0
  0
LINE
  5
11B
330
1F
100
AcDbEntity
  8
0
  6
Continuous
 62
     7
370
    25
100
AcDbLine
 10
90.1629644811
 20
79.7718561947
 30
0.0
 11
90.3629644811
 21
79.9718561947
 31
0.0
  0
LINE
  5
11C
330
1F
100
AcDbEntity
  8
0
  6
Continuous
 62
     7
370
    25
100
AcDbLine
 10
90.3629644811
 20
91.0718561947
 30
0.0
 11
90.1629644811
 21
91.2718561947
 31
0.0
  0
LINE
  5
11D
330
1F
100
AcDbEntity
  8
0
  6
Continuous
 62
     7
370
    25
100
AcDbLine
 10
90.1629644811
 20
91.2718561947
 30
0.0
 11
89.6516396157
 21
91.2718561947
 31
0.0
  0
LINE
  5
11E
330
1F
100
AcDbEntity
  8
0
  6
Continuous
 62
     7
370
    25
100
AcDbLine
 10
89.6516396157
 20
79.7718561947
 30
0.0
 11
90.1629644811
 21
79.7718561947
 31
0.0
  0
ARC
  5
11F
330
1F
100
AcDbEntity
  8
0
  6
Continuous
 62
     7
370
    25
100
AcDbCircle
 10
70.3259553964
 20
91.7718561947
 30
0.0
 40
0.5000000000000041
100
AcDbArc
 50
270.0
 51
330.0
  0
ARC
  5
120
330
1F
100
AcDbEntity
  8
0
  6
Continuous
 62
     7
370
    25
100
AcDbCircle
 10
70.3259553964
 20
79.2718561947
 30
0.0
 40
0.5000000000000041
100
AcDbArc
 50
30.0
 51
90.0
  0
ARC
  5
121
330
1F
100
AcDbEntity
  8
0
  6
Continuous
 62
     7
370
    25
100
AcDbCircle
 10
75.9033056656
 20
79.2718561947
 30
0.0
 40
0.5000000000000041
100
AcDbArc
 50
90.0
 51
150.0
  0
ARC
  5
122
330
1F
100
AcDbEntity
  8
0
  6
Continuous
 62
     7
370
    25
100
AcDbCircle
 10
75.9033056656
 20
91.7718561947
 30
0.0
 40
0.5000000000000041
100
AcDbArc
 50
210.0
 51
270.0
  0
LINE
  5
123
330
1F
100
AcDbEntity
  8
0
  6
Continuous
 62
     7
370
    25
100
AcDbLine
 10
76.414630531
 20
91.2718561947
 30
0.0
 11
75.9033056656
 21
91.2718561947
 31
0.0
  0
LINE
  5
124
330
1F
100
AcDbEntity
  8
0
  6
Continuous
 62
     7
370
    25
100
AcDbLine
 10
75.9033056656
 20
79.7718561947
 30
0.0
 11
76.414630531
 21
79.7718561947
 31
0.0
  0
LINE
  5
125
330
1F
100
AcDbEntity
  8
0
  6
Continuous
 62
     7
370
    25
100
AcDbLine
 10
69.814630531
 20
79.7718561947
 30
0.0
 11
70.3259553964
 21
79.7718561947
 31
0.0
  0
LINE
  5
126
330
1F
100
AcDbEntity
  8
0
  6
Continuous
 62
     7
370
    25
100
AcDbLine
 10
70.3259553964
 20
91.2718561947
 30
0.0
 11
69.814630531
 21
91.2718561947
 31
0.0
  0
LINE
  5
127
330
1F
100
AcDbEntity
  8
0
  6
Continuous
 62
     7
370
    25
100
AcDbLine
 10
76.414630531
 20
79.7718561947
 30
0.0
 11
76.614630531
 21
79.9718561947
 31
0.0
  0
LINE
  5
128
330
1F
100
AcDbEntity
  8
0
  6
Continuous
 62
     7
370
    25
100
AcDbLine
 10
76.614630531
 20
91.0718561947
 30
0.0
 11
76.414630531
 21
91.2718561947
 31
0.0
  0
LINE
  5
129
330
1F
100
AcDbEntity
  8
0
  6
Continuous
 62
     7
370
    25
100
AcDbLine
 10
69.814630531
 20
91.2718561947
 30
0.0
 11
69.614630531
 21
91.0718561947
 31
0.0
  0
LINE
  5
12A
330
1F
100
AcDbEntity
  8
0
  6
Continuous
 62
     7
370
    25
100
AcDbLine
 10
69.614630531
 20
79.9718561947
 30
0.0
 11
69.814630531
 21
79.7718561947
 31
0.0
  0
LINE
  5
12B
330
1F
100
AcDbEntity
  8
0
  6
Continuous
 62
     7
370
    25
100
AcDbLine
 10
67.414630531
 20
90.3858561947
 30
0.0
 11
66.8662965808
 21
90.3858561947
 31
0.0
  0
LINE
  5
12C
330
1F
100
AcDbEntity
  8
0
  6
Continuous
 62
     7
370
    25
100
AcDbLine
 10
66.8662965808
 20
80.6578561947
 30
0.0
 11
67.414630531
 21
80.6578561947
 31
0.0
  0
LINE
  5
12D
330
1F
100
AcDbEntity
  8
0
  6
Continuous
 62
     7
370
    25
100
AcDbLine
 10
67.414630531
 20
80.6578561947
 30
0.0
 11
68.114630531
 21
81.3578561947
 31
0.0
  0
LINE
  5
12E
330
1F
100
AcDbEntity
  8
0
  6
Continuous
 62
     7
370
    25
100
AcDbLine
 10
68.114630531
 20
89.6858561947
 30
0.0
 11
67.414630531
 21
90.3858561947
 31
0.0
  0
LINE
  5
12F
330
1F
100
AcDbEntity
  8
0
  6
Continuous
 62
     7
370
    25
100
AcDbLine
 10
78.814630531
 20
80.6578561947
 30
0.0
 11
79.3629644811
 21
80.6578561947
 31
0.0
  0
LINE
  5
130
330
1F
100
AcDbEntity
  8
0
  6
Continuous
 62
     7
370
    25
100
AcDbLine
 10
79.3629644811
 20
90.3858561947
 30
0.0
 11
78.814630531
 21
90.3858561947
 31
0.0
  0
LINE
  5
131
330
1F
100
AcDbEntity
  8
0
  6
Continuous
 62
     7
370
    25
100
AcDbLine
 10
78.814630531
 20
90.3858561947
 30
0.0
 11
78.114630531
 21
89.6858561947
 31
0.0
  0
LINE
  5
132
330
1F
100
AcDbEntity
  8
0
  6
Continuous
 62
     7
370
    25
100
AcDbLine
 10
78.114630531
 20
81.3578561947
 30
0.0
 11
78.814630531
 21
80.6578561947
 31
0.0
  0
LINE
  5
133
330
1F
100
AcDbEntity
  8
0
  6
Continuous
 62
     7
370
    25
100
AcDbLine
 10
69.614630531
 20
89.5218561947
 30
0.0
 11
68.114630531
 21
89.5218561947
 31
0.0
  0
LINE
  5
134
330
1F
100
AcDbEntity
  8
0
  6
Continuous
 62
     7
370
    25
100
AcDbLine
 10
68.114630531
 20
81.5218561947
 30
0.0
 11
69.614630531
 21
81.5218561947
 31
0.0
  0
LINE
  5
135
330
1F
100
AcDbEntity
  8
0
  6
Continuous
 62
     7
370
    25
100
AcDbLine
 10
76.614630531
 20
81.5218561947
 30
0.0
 11
78.114630531
 21
81.5218561947
 31
0.0
  0
LINE
  5
136
330
1F
100
AcDbEntity
  8
0
  6
Continuous
 62
     7
370
    25
100
AcDbLine
 10
78.114630531
 20
89.5218561947
 30
0.0
 11
76.614630531
 21
89.5218561947
 31
0.0
  0
SPLINE
  5
137
330
1F
100
AcDbEntity
  8
0
  6
Continuous
 62
     7
370
    25
100
AcDbSpline
210
0.0
220
0.0
230
1.0
 70
    24
 71
     3
 72
    12
 73
     8
 74
     0
 42
0.000000001
 43
0.00000001
 40
0.0
 40
0.0
 40
0.0
 40
0.0
 40
0.2437106260430406
 40
0.4314624431931919
 40
0.6198272706591269
 40
0.8097223838404198
 40
1.0
 40
1.0
 40
1.0
 40
1.0
 10
66.71983947023222
 20
91.52185619469024
 30
0.0
 10
66.71401811223492
 20
91.52185619469024
 30
0.0
 10
66.70371204809241
 20
91.52185619469024
 30
0.0
 10
66.61906150302936
 20
91.52185619469023
 30
0.0
 10
66.5082566976939
 20
91.52185619469023
 30
0.0
 10
66.36462827549471
 20
91.52185619469022
 30
0.0
 10
66.24562308914126
 20
91.52185619469022
 30
0.0
 10
66.18606062865332
 20
91.52185619469022
 30
0.0
  0
SPLINE
  5
138
330
1F
100
AcDbEntity
  8
0
  6
Continuous
 62
     7
370
    25
100
AcDbSpline
210
0.0
220
0.0
230
1.0
 70
    24
 71
     3
 72
    12
 73
     8
 74
     0
 42
0.000000001
 43
0.00000001
 40
0.0
 40
0.0
 40
0.0
 40
0.0
 40
0.1880235534370391
 40
0.3763807007855933
 40
0.5660389177223799
 40
0.7562863929732516
 40
1.0
 40
1.0
 40
1.0
 40
1.0
 10
66.18606062865332
 20
79.52185619469026
 30
0.0
 10
66.24494486329127
 20
79.52185619469026
 30
0.0
 10
66.36281780576638
 20
79.52185619469026
 30
0.0
 10
66.50628648319818
 20
79.52185619469026
 30
0.0
 10
66.61819333539076
 20
79.52185619469026
 30
0.0
 10
66.70339073884684
 20
79.52185619469027
 30
0.0
 10
66.71468883502553
 20
79.52185619469027
 30
0.0
 10
66.72103387352021
 20
79.52185619469027
 30
0.0
  0
SPLINE
  5
139
330
1F
100
AcDbEntity
  8
0
  6
Continuous
 62
     7
370
    25
100
AcDbSpline
210
0.0
220
0.0
230
1.0
 70
     8
 71
     3
 72
    15
 73
    11
 74
     0
 42
0.000000001
 43
0.00000001
 40
0.0
 40
0.0
 40
0.0
 40
0.0
 40
0.1323034284088744
 40
0.2645694515465797
 40
0.3997942148562056
 40
0.5349945762150088
 40
0.6501872613016998
 40
0.765397915722112
 40
0.8826876171264817
 40
1.0
 40
1.0
 40
1.0
 40
1.0
 10
66.18606062865332
 20
85.52185619469026
 30
0.0
 10
66.26763837900947
 20
85.26263588475325
 30
0.0
 10
66.43077081578524
 20
84.74426855251886
 30
0.0
 10
66.60629625344224
 20
83.94602914837277
 30
0.0
 10
66.7118367445334
 20
83.13274304423065
 30
0.0
 10
66.73274201493135
 20
82.34891006637073
 30
0.0
 10
66.67851863377805
 20
81.60741573707705
 30
0.0
 10
66.56740661840514
 20
80.90761946242094
 30
0.0
 10
66.4044152670267
 20
80.21098705951404
 30
0.0
 10
66.25885019921692
 20
79.75158128817266
 30
0.0
 10
66.18606062865332
 20
79.52185619469026
 30
0.0
  0
SPLINE
  5
13A
330
1F
100
AcDbEntity
  8
0
  6
Continuous
 62
     7
370
    25
100
AcDbSpline
210
0.0
220
0.0
230
1.0
 70
     8
 71
     3
 72
    15
 73
    11
 74
     0
 42
0.000000001
 43
0.00000001
 40
0.0
 40
0.0
 40
0.0
 40
0.0
 40
0.1323034284088759
 40
0.2645694515465827
 40
0.3997942148562104
 40
0.5349945762150156
 40
0.6501872613017048
 40
0.7653979157221152
 40
0.8826876171264832
 40
1.0
 40
1.0
 40
1.0
 40
1.0
 10
66.18606062865332
 20
91.52185619469022
 30
0.0
 10
66.26763837900947
 20
91.2626358847532
 30
0.0
 10
66.43077081578524
 20
90.74426855251882
 30
0.0
 10
66.60629625344222
 20
89.94602914837273
 30
0.0
 10
66.7118367445334
 20
89.13274304423061
 30
0.0
 10
66.73274201493133
 20
88.34891006637069
 30
0.0
 10
66.67851863377804
 20
87.607415737077
 30
0.0
 10
66.56740661840513
 20
86.90761946242091
 30
0.0
 10
66.4044152670267
 20
86.21098705951404
 30
0.0
 10
66.25885019921691
 20
85.75158128817266
 30
0.0
 10
66.18606062865332
 20
85.52185619469026
 30
0.0
  0
LINE
  5
13B
330
1F
100
AcDbEntity
  8
0
  6
Continuous
 62
     7
370
    25
100
AcDbLine
 10
66.8662965808
 20
91.2718561947
 30
0.0
 11
66.8662965808
 21
79.7718561947
 31
0.0
  0
SPLINE
  5
13C
330
1F
100
AcDbEntity
  8
0
  6
Continuous
 62
     7
370
    25
100
AcDbSpline
210
0.0
220
0.0
230
1.0
 70
     8
 71
     3
 72
    12
 73
     8
 74
     0
 42
0.000000001
 43
0.00000001
 40
0.0
 40
0.0
 40
0.0
 40
0.0
 40
0.0700385718644715
 40
0.2997996769400408
 40
0.5308224945585953
 40
0.7650211555547389
 40
1.0
 40
1.0
 40
1.0
 40
1.0
 10
57.01063414811042
 20
88.52185619469024
 30
0.0
 10
57.01124077400682
 20
88.59295539678986
 30
0.0
 10
57.01383743243266
 20
88.89729509494093
 30
0.0
 10
57.05402675850732
 20
89.43572470055585
 30
0.0
 10
57.16498145169143
 20
90.13509582960499
 30
0.0
 10
57.32806212868804
 20
90.83236861006417
 30
0.0
 10
57.47362837872828
 20
91.29177235617784
 30
0.0
 10
57.54653253297264
 20
91.52185619469022
 30
0.0
  0
LINE
  5
13D
330
1F
100
AcDbEntity
  8
0
  6
Continuous
 62
     7
370
    25
100
AcDbLine
 10
66.1860606287
 20
91.5218561947
 30
0.0
 11
57.546532533
 21
91.5218561947
 31
0.0
  0
LINE
  5
13E
330
1F
100
AcDbEntity
  8
0
  6
Continuous
 62
     7
370
    25
100
AcDbLine
 10
66.1860606287
 20
85.5218561947
 30
0.0
 11
57.546532533
 21
85.5218561947
 31
0.0
  0
SPLINE
  5
13F
330
1F
100
AcDbEntity
  8
0
  6
Continuous
 62
     7
370
    25
100
AcDbSpline
210
0.0
220
0.0
230
1.0
 70
     8
 71
     3
 72
    11
 73
     7
 74
     0
 42
0.000000001
 43
0.00000001
 40
0.0
 40
0.0
 40
0.0
 40
0.0
 40
0.2472686137512649
 40
0.4953625653849102
 40
0.7468740051198234
 40
0.9999999999999999
 40
0.9999999999999999
 40
0.9999999999999999
 40
0.9999999999999999
 10
57.54653253297265
 20
85.52185619469026
 30
0.0
 10
57.46992925096253
 20
85.76401548188068
 30
0.0
 10
57.3164669990505
 20
86.24914234013652
 30
0.0
 10
57.14806208990863
 20
86.99368505526743
 30
0.0
 10
57.03265233556527
 20
87.75239309315843
 30
0.0
 10
57.01798918186901
 20
88.26482199969278
 30
0.0
 10
57.01063414811042
 20
88.52185619469024
 30
0.0
  0
SPLINE
  5
140
330
1F
100
AcDbEntity
  8
0
  6
Continuous
 62
     7
370
    25
100
AcDbSpline
210
0.0
220
0.0
230
1.0
 70
     8
 71
     3
 72
    12
 73
     8
 74
     0
 42
0.000000001
 43
0.00000001
 40
0.0
 40
0.0
 40
0.0
 40
0.0
 40
0.0700385718644581
 40
0.2997996769400305
 40
0.530822494558588
 40
0.7650211555547355
 40
1.0
 40
1.0
 40
1.0
 40
1.0
 10
57.01063414811041
 20
82.52185619469026
 30
0.0
 10
57.01124077400681
 20
82.59295539678988
 30
0.0
 10
57.01383743243263
 20
82.89729509494093
 30
0.0
 10
57.05402675850732
 20
83.43572470055584
 30
0.0
 10
57.16498145169141
 20
84.135095829605
 30
0.0
 10
57.32806212868803
 20
84.83236861006418
 30
0.0
 10
57.47362837872828
 20
85.29177235617789
 30
0.0
 10
57.54653253297265
 20
85.52185619469026
 30
0.0
  0
LINE
  5
141
330
1F
100
AcDbEntity
  8
0
  6
Continuous
 62
     7
370
    25
100
AcDbLine
 10
57.0106341481
 20
88.5218561947
 30
0.0
 11
57.0106341481
 21
82.5218561947
 31
0.0
  0
LINE
  5
142
330
1F
100
AcDbEntity
  8
0
  6
Continuous
 62
     7
370
    25
100
AcDbLine
 10
66.1860606287
 20
79.5218561947
 30
0.0
 11
57.546532533
 21
79.5218561947
 31
0.0
  0
SPLINE
  5
143
330
1F
100
AcDbEntity
  8
0
  6
Continuous
 62
     7
370
    25
100
AcDbSpline
210
0.0
220
0.0
230
1.0
 70
     8
 71
     3
 72
    11
 73
     7
 74
     0
 42
0.000000001
 43
0.00000001
 40
0.0
 40
0.0
 40
0.0
 40
0.0
 40
0.247268613751265
 40
0.49536256538491
 40
0.7468740051198235
 40
1.0
 40
1.0
 40
1.0
 40
1.0
 10
57.54653253297264
 20
79.52185619469026
 30
0.0
 10
57.46992925096252
 20
79.76401548188066
 30
0.0
 10
57.31646699905049
 20
80.24914234013652
 30
0.0
 10
57.14806208990862
 20
80.99368505526743
 30
0.0
 10
57.03265233556527
 20
81.75239309315845
 30
0.0
 10
57.01798918186901
 20
82.2648219996928
 30
0.0
 10
57.01063414811041
 20
82.52185619469026
 30
0.0
  0
LINE
  5
144
330
1F
100
AcDbEntity
  8
0
  6
Continuous
 62
     7
370
    25
100
AcDbLine
 10
57.0106341481
 20
91.5218561947
 30
0.0
 11
57.0106341481
 21
88.5218561947
 31
0.0
  0
LINE
  5
145
330
1F
100
AcDbEntity
  8
0
  6
Continuous
 62
     7
370
    25
100
AcDbLine
 10
57.0106341481
 20
82.5218561947
 30
0.0
 11
57.0106341481
 21
79.5218561947
 31
0.0
  0
LINE
  5
146
330
1F
100
AcDbEntity
  8
0
  6
Continuous
 62
     7
370
    25
100
AcDbLine
 10
56.0662965808
 20
91.2718561947
 30
0.0
 11
56.0662965808
 21
79.7718561947
 31
0.0
  0
LINE
  5
147
330
1F
100
AcDbEntity
  8
0
  6
Continuous
 62
     7
370
    25
100
AcDbLine
 10
55.8662965808
 20
79.9718561947
 30
0.0
 11
55.8662965808
 21
91.0718561947
 31
0.0
  0
SPLINE
  5
148
330
1F
100
AcDbEntity
  8
0
  6
Continuous
 62
     7
370
    25
100
AcDbSpline
210
0.0
220
0.0
230
1.0
 70
    24
 71
     3
 72
    12
 73
     8
 74
     0
 42
0.000000001
 43
0.00000001
 40
0.0
 40
0.0
 40
0.0
 40
0.0
 40
0.1872734889728913
 40
0.3748762106130477
 40
0.5637618838290638
 40
0.7532281671094971
 40
0.9999999999999999
 40
0.9999999999999999
 40
0.9999999999999999
 40
0.9999999999999999
 10
57.54653253297264
 20
91.52185619469022
 30
0.0
 10
57.48787555653069
 20
91.52185619469022
 30
0.0
 10
57.37045848284249
 20
91.52185619469022
 30
0.0
 10
57.22740457388738
 20
91.52185619469023
 30
0.0
 10
57.11555481151423
 20
91.52185619469023
 30
0.0
 10
57.02976584302773
 20
91.52185619469024
 30
0.0
 10
57.01754643895995
 20
91.52185619469024
 30
0.0
 10
57.0106341481104
 20
91.52185619469024
 30
0.0
  0
SPLINE
  5
149
330
1F
100
AcDbEntity
  8
0
  6
Continuous
 62
     7
370
    25
100
AcDbSpline
210
0.0
220
0.0
230
1.0
 70
    24
 71
     3
 72
    12
 73
     8
 74
     0
 42
0.000000001
 43
0.00000001
 40
0.0
 40
0.0
 40
0.0
 40
0.0
 40
0.2467717232827324
 40
0.4337771387112417
 40
0.6213867515395266
 40
0.8105047604015172
 40
1.0
 40
1.0
 40
1.0
 40
1.0
 10
57.01063414811041
 20
79.52185619469027
 30
0.0
 10
57.01754051341275
 20
79.52185619469027
 30
0.0
 10
57.02968057281623
 20
79.52185619469027
 30
0.0
 10
57.11463763689969
 20
79.52185619469026
 30
0.0
 10
57.22547370153357
 20
79.52185619469026
 30
0.0
 10
57.36866913059671
 20
79.52185619469026
 30
0.0
 10
57.48720536438169
 20
79.52185619469026
 30
0.0
 10
57.54653253297264
 20
79.52185619469026
 30
0.0
  0
SPLINE
  5
14A
330
1F
100
AcDbEntity
  8
0
  6
Continuous
 62
     7
370
    25
100
AcDbSpline
210
0.0
220
0.0
230
1.0
 70
    24
 71
     3
 72
    12
 73
     8
 74
     0
 42
0.000000001
 43
0.00000001
 40
0.0
 40
0.0
 40
0.0
 40
0.0
 40
0.2437106260430226
 40
0.4314624431931783
 40
0.6198272706591179
 40
0.8097223838404153
 40
1.0
 40
1.0
 40
1.0
 40
1.0
 10
79.50942159171471
 20
79.52185619469027
 30
0.0
 10
79.51524294971199
 20
79.52185619469027
 30
0.0
 10
79.52554901385449
 20
79.52185619469027
 30
0.0
 10
79.61019955891756
 20
79.52185619469027
 30
0.0
 10
79.72100436425303
 20
79.52185619469027
 30
0.0
 10
79.86463278645222
 20
79.52185619469027
 30
0.0
 10
79.98363797280565
 20
79.52185619469027
 30
0.0
 10
80.04320043329359
 20
79.52185619469029
 30
0.0
  0
SPLINE
  5
14B
330
1F
100
AcDbEntity
  8
0
  6
Continuous
 62
     7
370
    25
100
AcDbSpline
210
0.0
220
0.0
230
1.0
 70
    24
 71
     3
 72
    12
 73
     8
 74
     0
 42
0.000000001
 43
0.00000001
 40
0.0
 40
0.0
 40
0.0
 40
0.0
 40
0.1880235534370346
 40
0.3763807007855843
 40
0.5660389177223665
 40
0.7562863929732336
 40
0.9999999999999999
 40
0.9999999999999999
 40
0.9999999999999999
 40
0.9999999999999999
 10
80.04320043329359
 20
91.52185619469023
 30
0.0
 10
79.98431619865565
 20
91.52185619469023
 30
0.0
 10
79.86644325618053
 20
91.52185619469024
 30
0.0
 10
79.72297457874873
 20
91.52185619469024
 30
0.0
 10
79.61106772655616
 20
91.52185619469024
 30
0.0
 10
79.52587032310008
 20
91.52185619469024
 30
0.0
 10
79.51457222692137
 20
91.52185619469024
 30
0.0
 10
79.50822718842669
 20
91.52185619469024
 30
0.0
  0
SPLINE
  5
14C
330
1F
100
AcDbEntity
  8
0
  6
Continuous
 62
     7
370
    25
100
AcDbSpline
210
0.0
220
0.0
230
1.0
 70
     8
 71
     3
 72
    15
 73
    11
 74
     0
 42
0.000000001
 43
0.00000001
 40
0.0
 40
0.0
 40
0.0
 40
0.0
 40
0.1323034284088744
 40
0.2645694515465797
 40
0.3997942148562056
 40
0.5349945762150088
 40
0.6501872613016997
 40
0.765397915722112
 40
0.8826876171264817
 40
1.0
 40
1.0
 40
1.0
 40
1.0
 10
80.04320043329359
 20
85.5218561946902
 30
0.0
 10
79.96162268293746
 20
85.78107650462722
 30
0.0
 10
79.79849024616169
 20
86.29944383686161
 30
0.0
 10
79.62296480850469
 20
87.0976832410077
 30
0.0
 10
79.51742431741351
 20
87.91096934514984
 30
0.0
 10
79.49651904701557
 20
88.69480232300975
 30
0.0
 10
79.55074242816887
 20
89.43629665230344
 30
0.0
 10
79.66185444354176
 20
90.13609292695955
 30
0.0
 10
79.82484579492022
 20
90.83272532986646
 30
0.0
 10
79.97041086272999
 20
91.29213110120783
 30
0.0
 10
80.04320043329359
 20
91.52185619469023
 30
0.0
  0
SPLINE
  5
14D
330
1F
100
AcDbEntity
  8
0
  6
Continuous
 62
     7
370
    25
100
AcDbSpline
210
0.0
220
0.0
230
1.0
 70
     8
 71
     3
 72
    15
 73
    11
 74
     0
 42
0.000000001
 43
0.00000001
 40
0.0
 40
0.0
 40
0.0
 40
0.0
 40
0.1323034284088759
 40
0.2645694515465827
 40
0.3997942148562104
 40
0.5349945762150156
 40
0.6501872613017048
 40
0.7653979157221152
 40
0.8826876171264832
 40
1.0
 40
1.0
 40
1.0
 40
1.0
 10
80.04320043329359
 20
79.52185619469029
 30
0.0
 10
79.96162268293746
 20
79.7810765046273
 30
0.0
 10
79.79849024616169
 20
80.29944383686167
 30
0.0
 10
79.6229648085047
 20
81.09768324100776
 30
0.0
 10
79.51742431741351
 20
81.91096934514988
 30
0.0
 10
79.49651904701558
 20
82.6948023230098
 30
0.0
 10
79.55074242816889
 20
83.43629665230348
 30
0.0
 10
79.66185444354178
 20
84.13609292695956
 30
0.0
 10
79.82484579492022
 20
84.83272532986643
 30
0.0
 10
79.97041086273
 20
85.29213110120781
 30
0.0
 10
80.04320043329359
 20
85.5218561946902
 30
0.0
  0
LINE
  5
14E
330
1F
100
AcDbEntity
  8
0
  6
Continuous
 62
     7
370
    25
100
AcDbLine
 10
79.3629644811
 20
79.7718561947
 30
0.0
 11
79.3629644811
 21
91.2718561947
 31
0.0
  0
SPLINE
  5
14F
330
1F
100
AcDbEntity
  8
0
  6
Continuous
 62
     7
370
    25
100
AcDbSpline
210
0.0
220
0.0
230
1.0
 70
     8
 71
     3
 72
    12
 73
     8
 74
     0
 42
0.000000001
 43
0.00000001
 40
0.0
 40
0.0
 40
0.0
 40
0.0
 40
0.0700385718644581
 40
0.2997996769400305
 40
0.5308224945585881
 40
0.7650211555547356
 40
1.0
 40
1.0
 40
1.0
 40
1.0
 10
89.21862691383652
 20
88.52185619469022
 30
0.0
 10
89.2180202879401
 20
88.45075699259061
 30
0.0
 10
89.21542362951429
 20
88.14641729443956
 30
0.0
 10
89.17523430343961
 20
87.60798768882464
 30
0.0
 10
89.06427961025551
 20
86.90861655977547
 30
0.0
 10
88.90119893325888
 20
86.2113437793163
 30
0.0
 10
88.75563268321865
 20
85.75194003320259
 30
0.0
 10
88.68272852897427
 20
85.52185619469022
 30
0.0
  0
LINE
  5
150
330
1F
100
AcDbEntity
  8
0
  6
Continuous
 62
     7
370
    25
100
AcDbLine
 10
80.0432004333
 20
85.5218561947
 30
0.0
 11
88.682728529
 21
85.5218561947
 31
0.0
  0
LINE
  5
151
330
1F
100
AcDbEntity
  8
0
  6
Continuous
 62
     7
370
    25
100
AcDbLine
 10
80.0432004333
 20
91.5218561947
 30
0.0
 11
88.682728529
 21
91.5218561947
 31
0.0
  0
SPLINE
  5
152
330
1F
100
AcDbEntity
  8
0
  6
Continuous
 62
     7
370
    25
100
AcDbSpline
210
0.0
220
0.0
230
1.0
 70
     8
 71
     3
 72
    11
 73
     7
 74
     0
 42
0.000000001
 43
0.00000001
 40
0.0
 40
0.0
 40
0.0
 40
0.0
 40
0.247268613751265
 40
0.4953625653849101
 40
0.7468740051198235
 40
1.0
 40
1.0
 40
1.0
 40
1.0
 10
88.68272852897427
 20
91.52185619469024
 30
0.0
 10
88.7593318109844
 20
91.27969690749981
 30
0.0
 10
88.91279406289642
 20
90.79457004924397
 30
0.0
 10
89.0811989720383
 20
90.05002733411305
 30
0.0
 10
89.19660872638165
 20
89.29131929622204
 30
0.0
 10
89.21127188007792
 20
88.77889038968769
 30
0.0
 10
89.21862691383652
 20
88.52185619469022
 30
0.0
  0
LINE
  5
153
330
1F
100
AcDbEntity
  8
0
  6
Continuous
 62
     7
370
    25
100
AcDbLine
 10
89.2186269138
 20
82.5218561947
 30
0.0
 11
89.2186269138
 21
88.5218561947
 31
0.0
  0
SPLINE
  5
154
330
1F
100
AcDbEntity
  8
0
  6
Continuous
 62
     7
370
    25
100
AcDbSpline
210
0.0
220
0.0
230
1.0
 70
     8
 71
     3
 72
    11
 73
     7
 74
     0
 42
0.000000001
 43
0.00000001
 40
0.0
 40
0.0
 40
0.0
 40
0.0
 40
0.2472686137512649
 40
0.4953625653849102
 40
0.7468740051198234
 40
0.9999999999999999
 40
0.9999999999999999
 40
0.9999999999999999
 40
0.9999999999999999
 10
88.68272852897427
 20
85.52185619469022
 30
0.0
 10
88.75933181098439
 20
85.27969690749978
 30
0.0
 10
88.91279406289642
 20
84.79457004924396
 30
0.0
 10
89.08119897203828
 20
84.05002733411304
 30
0.0
 10
89.19660872638163
 20
83.29131929622206
 30
0.0
 10
89.2112718800779
 20
82.77889038968769
 30
0.0
 10
89.2186269138365
 20
82.52185619469024
 30
0.0
  0
SPLINE
  5
155
330
1F
100
AcDbEntity
  8
0
  6
Continuous
 62
     7
370
    25
100
AcDbSpline
210
0.0
220
0.0
230
1.0
 70
     8
 71
     3
 72
    12
 73
     8
 74
     0
 42
0.000000001
 43
0.00000001
 40
0.0
 40
0.0
 40
0.0
 40
0.0
 40
0.0700385718644716
 40
0.2997996769400409
 40
0.5308224945585952
 40
0.7650211555547389
 40
1.0
 40
1.0
 40
1.0
 40
1.0
 10
89.2186269138365
 20
82.52185619469024
 30
0.0
 10
89.21802028794009
 20
82.45075699259061
 30
0.0
 10
89.21542362951426
 20
82.14641729443956
 30
0.0
 10
89.17523430343958
 20
81.60798768882464
 30
0.0
 10
89.06427961025548
 20
80.9086165597755
 30
0.0
 10
88.90119893325887
 20
80.21134377931634
 30
0.0
 10
88.75563268321864
 20
79.75194003320264
 30
0.0
 10
88.68272852897427
 20
79.52185619469027
 30
0.0
  0
LINE
  5
156
330
1F
100
AcDbEntity
  8
0
  6
Continuous
 62
     7
370
    25
100
AcDbLine
 10
80.0432004333
 20
79.5218561947
 30
0.0
 11
88.682728529
 21
79.5218561947
 31
0.0
  0
LINE
  5
157
330
1F
100
AcDbEntity
  8
0
  6
Continuous
 62
     7
370
    25
100
AcDbLine
 10
89.2186269138
 20
79.5218561947
 30
0.0
 11
89.2186269138
 21
82.5218561947
 31
0.0
  0
LINE
  5
158
330
1F
100
AcDbEntity
  8
0
  6
Continuous
 62
     7
370
    25
100
AcDbLine
 10
89.2186269138
 20
88.5218561947
 30
0.0
 11
89.2186269138
 21
91.5218561947
 31
0.0
  0
LINE
  5
159
330
1F
100
AcDbEntity
  8
0
  6
Continuous
 62
     7
370
    25
100
AcDbLine
 10
90.3629644811
 20
91.0718561947
 30
0.0
 11
90.3629644811
 21
79.9718561947
 31
0.0
  0
LINE
  5
15A
330
1F
100
AcDbEntity
  8
0
  6
Continuous
 62
     7
370
    25
100
AcDbLine
 10
90.1629644811
 20
79.7718561947
 30
0.0
 11
90.1629644811
 21
91.2718561947
 31
0.0
  0
SPLINE
  5
15B
330
1F
100
AcDbEntity
  8
0
  6
Continuous
 62
     7
370
    25
100
AcDbSpline
210
0.0
220
0.0
230
1.0
 70
    24
 71
     3
 72
    12
 73
     8
 74
     0
 42
0.000000001
 43
0.00000001
 40
0.0
 40
0.0
 40
0.0
 40
0.0
 40
0.2467717232827324
 40
0.4337771387112417
 40
0.6213867515395267
 40
0.8105047604015172
 40
1.0
 40
1.0
 40
1.0
 40
1.0
 10
89.21862691383652
 20
91.52185619469024
 30
0.0
 10
89.21172054853417
 20
91.52185619469024
 30
0.0
 10
89.1995804891307
 20
91.52185619469024
 30
0.0
 10
89.11462342504723
 20
91.52185619469024
 30
0.0
 10
89.00378736041336
 20
91.52185619469024
 30
0.0
 10
88.86059193135021
 20
91.52185619469024
 30
0.0
 10
88.74205569756525
 20
91.52185619469024
 30
0.0
 10
88.68272852897427
 20
91.52185619469023
 30
0.0
  0
SPLINE
  5
15C
330
1F
100
AcDbEntity
  8
0
  6
Continuous
 62
     7
370
    25
100
AcDbSpline
210
0.0
220
0.0
230
1.0
 70
    24
 71
     3
 72
    12
 73
     8
 74
     0
 42
0.000000001
 43
0.00000001
 40
0.0
 40
0.0
 40
0.0
 40
0.0
 40
0.1872734889728913
 40
0.3748762106130477
 40
0.5637618838290639
 40
0.7532281671094972
 40
1.0
 40
1.0
 40
1.0
 40
1.0
 10
88.68272852897427
 20
79.52185619469029
 30
0.0
 10
88.74138550541623
 20
79.52185619469027
 30
0.0
 10
88.85880257910442
 20
79.52185619469029
 30
0.0
 10
89.00185648805954
 20
79.52185619469027
 30
0.0
 10
89.11370625043268
 20
79.52185619469027
 30
0.0
 10
89.1994952189192
 20
79.52185619469027
 30
0.0
 10
89.21171462298696
 20
79.52185619469027
 30
0.0
 10
89.21862691383653
 20
79.52185619469027
 30
0.0
  0
SPLINE
  5
15D
330
1F
100
AcDbEntity
  8
0
  6
Continuous
 62
     7
370
    25
100
AcDbSpline
210
0.0
220
0.0
230
1.0
 70
     8
 71
     3
 72
     8
 73
     4
 74
     0
 42
0.000000001
 43
0.00000001
 40
0.0
 40
0.0
 40
0.0
 40
0.0
 40
1.0
 40
1.0
 40
1.0
 40
1.0
 10
71.29486648313254
 20
85.52185619469019
 30
0.0
 10
70.96769307480106
 20
86.50337641968459
 30
0.0
 10
70.75896809827087
 20
87.49963268433632
 30
0.0
 10
70.75896809827087
 20
88.52185619469024
 30
0.0
  0
SPLINE
  5
15E
330
1F
100
AcDbEntity
  8
0
  6
Continuous
 62
     7
370
    25
100
AcDbSpline
210
0.0
220
0.0
230
1.0
 70
     8
 71
     3
 72
    12
 73
     8
 74
     0
 42
0.000000001
 43
0.00000001
 40
0.0
 40
0.0
 40
0.0
 40
0.0
 40
0.2499999999999998
 40
0.2499999999999998
 40
0.4999999999999999
 40
0.4999999999999999
 40
1.0
 40
1.0
 40
1.0
 40
1.0
 10
70.75896809827087
 20
88.52185619469024
 30
0.0
 10
70.75896809827087
 20
88.7764567687038
 30
0.0
 10
70.7716347577634
 20
89.03219889352472
 30
0.0
 10
70.82065322154156
 20
89.53811023334953
 30
0.0
 10
70.85695791142301
 20
89.7893738320862
 30
0.0
 10
70.99698126148346
 20
90.53870196845507
 30
0.0
 10
71.13168815509172
 20
91.03232121056702
 30
0.0
 10
71.29486648313281
 20
91.52185619469026
 30
0.0
  0
LINE
  5
15F
330
1F
100
AcDbEntity
  8
0
  6
Continuous
 62
     7
370
    25
100
AcDbLine
 10
74.9343945788
 20
91.5218561947
 30
0.0
 11
71.2948664831
 21
91.5218561947
 31
0.0
  0
SPLINE
  5
160
330
1F
100
AcDbEntity
  8
0
  6
Continuous
 62
     7
370
    25
100
AcDbSpline
210
0.0
220
0.0
230
1.0
 70
     8
 71
     3
 72
    12
 73
     8
 74
     0
 42
0.000000001
 43
0.00000001
 40
0.0
 40
0.0
 40
0.0
 40
0.0
 40
0.2499999999999998
 40
0.2499999999999998
 40
0.4999999999999999
 40
0.4999999999999999
 40
1.0
 40
1.0
 40
1.0
 40
1.0
 10
75.47029296367604
 20
88.52185619469024
 30
0.0
 10
75.47029296367604
 20
88.7764567687038
 30
0.0
 10
75.45762630418352
 20
89.03219889352472
 30
0.0
 10
75.40860784040535
 20
89.53811023334953
 30
0.0
 10
75.37230315052392
 20
89.7893738320862
 30
0.0
 10
75.23227980046346
 20
90.53870196845507
 30
0.0
 10
75.09757290685519
 20
91.03232121056702
 30
0.0
 10
74.9343945788141
 20
91.52185619469026
 30
0.0
  0
SPLINE
  5
161
330
1F
100
AcDbEntity
  8
0
  6
Continuous
 62
     7
370
    25
100
AcDbSpline
210
0.0
220
0.0
230
1.0
 70
     8
 71
     3
 72
     8
 73
     4
 74
     0
 42
0.000000001
 43
0.00000001
 40
0.0
 40
0.0
 40
0.0
 40
0.0
 40
1.0
 40
1.0
 40
1.0
 40
1.0
 10
74.93439457881439
 20
85.52185619469019
 30
0.0
 10
75.26156798714585
 20
86.50337641968459
 30
0.0
 10
75.47029296367604
 20
87.49963268433632
 30
0.0
 10
75.47029296367604
 20
88.52185619469024
 30
0.0
  0
LINE
  5
162
330
1F
100
AcDbEntity
  8
0
  6
Continuous
 62
     7
370
    25
100
AcDbLine
 10
74.9343945788
 20
85.5218561947
 30
0.0
 11
71.2948664831
 21
85.5218561947
 31
0.0
  0
LINE
  5
163
330
1F
100
AcDbEntity
  8
0
  6
Continuous
 62
     7
370
    25
100
AcDbLine
 10
75.4702929637
 20
82.5218561947
 30
0.0
 11
75.4702929637
 21
88.5218561947
 31
0.0
  0
SPLINE
  5
164
330
1F
100
AcDbEntity
  8
0
  6
Continuous
 62
     7
370
    25
100
AcDbSpline
210
0.0
220
0.0
230
1.0
 70
     8
 71
     3
 72
    12
 73
     8
 74
     0
 42
0.000000001
 43
0.00000001
 40
0.0
 40
0.0
 40
0.0
 40
0.0
 40
0.25
 40
0.25
 40
0.5
 40
0.5
 40
1.0
 40
1.0
 40
1.0
 40
1.0
 10
75.47029296367606
 20
82.52185619469026
 30
0.0
 10
75.47029296367606
 20
82.77645676870381
 30
0.0
 10
75.45762630418353
 20
83.03219889352472
 30
0.0
 10
75.40860784040537
 20
83.53811023334954
 30
0.0
 10
75.37230315052393
 20
83.78937383208621
 30
0.0
 10
75.23227980046346
 20
84.53870196845509
 30
0.0
 10
75.09757290685519
 20
85.03232121056705
 30
0.0
 10
74.9343945788141
 20
85.5218561946903
 30
0.0
  0
LINE
  5
165
330
1F
100
AcDbEntity
  8
0
  6
Continuous
 62
     7
370
    25
100
AcDbLine
 10
70.7589680983
 20
82.5218561947
 30
0.0
 11
70.7589680983
 21
88.5218561947
 31
0.0
  0
SPLINE
  5
166
330
1F
100
AcDbEntity
  8
0
  6
Continuous
 62
     7
370
    25
100
AcDbSpline
210
0.0
220
0.0
230
1.0
 70
     8
 71
     3
 72
    12
 73
     8
 74
     0
 42
0.000000001
 43
0.00000001
 40
0.0
 40
0.0
 40
0.0
 40
0.0
 40
0.25
 40
0.25
 40
0.5
 40
0.5
 40
1.0
 40
1.0
 40
1.0
 40
1.0
 10
70.75896809827086
 20
82.52185619469026
 30
0.0
 10
70.75896809827086
 20
82.77645676870381
 30
0.0
 10
70.77163475776338
 20
83.03219889352472
 30
0.0
 10
70.82065322154155
 20
83.53811023334954
 30
0.0
 10
70.856957911423
 20
83.78937383208621
 30
0.0
 10
70.99698126148346
 20
84.53870196845509
 30
0.0
 10
71.13168815509172
 20
85.03232121056705
 30
0.0
 10
71.29486648313281
 20
85.5218561946903
 30
0.0
  0
SPLINE
  5
167
330
1F
100
AcDbEntity
  8
0
  6
Continuous
 62
     7
370
    25
100
AcDbSpline
210
0.0
220
0.0
230
1.0
 70
     8
 71
     3
 72
     8
 73
     4
 74
     0
 42
0.000000001
 43
0.00000001
 40
0.0
 40
0.0
 40
0.0
 40
0.0
 40
1.0
 40
1.0
 40
1.0
 40
1.0
 10
71.29486648313254
 20
79.52185619469017
 30
0.0
 10
70.96769307480105
 20
80.50337641968459
 30
0.0
 10
70.75896809827086
 20
81.49963268433632
 30
0.0
 10
70.75896809827086
 20
82.52185619469026
 30
0.0
  0
SPLINE
  5
168
330
1F
100
AcDbEntity
  8
0
  6
Continuous
 62
     7
370
    25
100
AcDbSpline
210
0.0
220
0.0
230
1.0
 70
     8
 71
     3
 72
     8
 73
     4
 74
     0
 42
0.000000001
 43
0.00000001
 40
0.0
 40
0.0
 40
0.0
 40
0.0
 40
1.0
 40
1.0
 40
1.0
 40
1.0
 10
74.93439457881439
 20
79.52185619469017
 30
0.0
 10
75.26156798714587
 20
80.50337641968459
 30
0.0
 10
75.47029296367606
 20
81.49963268433632
 30
0.0
 10
75.47029296367606
 20
82.52185619469026
 30
0.0
  0
LINE
  5
169
330
1F
100
AcDbEntity
  8
0
  6
Continuous
 62
     7
370
    25
100
AcDbLine
 10
74.9343945788
 20
79.5218561947
 30
0.0
 11
71.2948664831
 21
79.5218561947
 31
0.0
  0
LINE
  5
16A
330
1F
100
AcDbEntity
  8
0
  6
Continuous
 62
     7
370
    25
100
AcDbLine
 10
70.7589680983
 20
88.5218561947
 30
0.0
 11
70.7589680983
 21
91.5218561947
 31
0.0
  0
LINE
  5
16B
330
1F
100
AcDbEntity
  8
0
  6
Continuous
 62
     7
370
    25
100
AcDbLine
 10
70.7589680983
 20
79.5218561947
 30
0.0
 11
70.7589680983
 21
82.5218561947
 31
0.0
  0
LINE
  5
16C
330
1F
100
AcDbEntity
  8
0
  6
Continuous
 62
     7
370
    25
100
AcDbLine
 10
75.4702929637
 20
79.5218561947
 30
0.0
 11
75.4702929637
 21
82.5218561947
 31
0.0
  0
LINE
  5
16D
330
1F
100
AcDbEntity
  8
0
  6
Continuous
 62
     7
370
    25
100
AcDbLine
 10
75.4702929637
 20
88.5218561947
 30
0.0
 11
75.4702929637
 21
91.5218561947
 31
0.0
  0
LINE
  5
16E
330
1F
100
AcDbEntity
  8
0
  6
Continuous
 62
     7
370
    25
100
AcDbLine
 10
76.414630531
 20
79.7718561947
 30
0.0
 11
76.414630531
 21
91.2718561947
 31
0.0
  0
LINE
  5
16F
330
1F
100
AcDbEntity
  8
0
  6
Continuous
 62
     7
370
    25
100
AcDbLine
 10
69.814630531
 20
79.7718561947
 30
0.0
 11
69.814630531
 21
91.2718561947
 31
0.0
  0
LINE
  5
170
330
1F
100
AcDbEntity
  8
0
  6
Continuous
 62
     7
370
    25
100
AcDbLine
 10
76.614630531
 20
91.0718561947
 30
0.0
 11
76.614630531
 21
79.9718561947
 31
0.0
  0
LINE
  5
171
330
1F
100
AcDbEntity
  8
0
  6
Continuous
 62
     7
370
    25
100
AcDbLine
 10
69.614630531
 20
91.0718561947
 30
0.0
 11
69.614630531
 21
79.9718561947
 31
0.0
  0
SPLINE
  5
172
330
1F
100
AcDbEntity
  8
0
  6
Continuous
 62
     7
370
    25
100
AcDbSpline
210
0.0
220
0.0
230
1.0
 70
    24
 71
     3
 72
    10
 73
     6
 74
     0
 42
0.000000001
 43
0.00000001
 40
0.0
 40
0.0
 40
0.0
 40
0.0
 40
0.4999999999999999
 40
0.4999999999999999
 40
1.0
 40
1.0
 40
1.0
 40
1.0
 10
75.47029296367604
 20
91.52185619469026
 30
0.0
 10
75.47029296367604
 20
91.52185619469024
 30
0.0
 10
75.41848607721847
 20
91.52185619469024
 30
0.0
 10
75.23073573745897
 20
91.52185619469023
 30
0.0
 10
75.09611839574073
 20
91.52185619469022
 30
0.0
 10
74.93439457881381
 20
91.52185619469022
 30
0.0
  0
SPLINE
  5
173
330
1F
100
AcDbEntity
  8
0
  6
Continuous
 62
     7
370
    25
100
AcDbSpline
210
0.0
220
0.0
230
1.0
 70
    24
 71
     3
 72
    10
 73
     6
 74
     0
 42
0.000000001
 43
0.00000001
 40
0.0
 40
0.0
 40
0.0
 40
0.0
 40
0.4999999999999999
 40
0.4999999999999999
 40
1.0
 40
1.0
 40
1.0
 40
1.0
 10
70.75896809827087
 20
91.52185619469026
 30
0.0
 10
70.75896809827087
 20
91.52185619469024
 30
0.0
 10
70.81077498472844
 20
91.52185619469024
 30
0.0
 10
70.99852532448794
 20
91.52185619469023
 30
0.0
 10
71.13314266620618
 20
91.52185619469022
 30
0.0
 10
71.29486648313312
 20
91.52185619469022
 30
0.0
  0
SPLINE
  5
174
330
1F
100
AcDbEntity
  8
0
  6
Continuous
 62
     7
370
    25
100
AcDbSpline
210
0.0
220
0.0
230
1.0
 70
    24
 71
     3
 72
    10
 73
     6
 74
     0
 42
0.000000001
 43
0.00000001
 40
0.0
 40
0.0
 40
0.0
 40
0.0
 40
0.5000000000000001
 40
0.5000000000000001
 40
1.0
 40
1.0
 40
1.0
 40
1.0
 10
70.75896809827087
 20
79.52185619469026
 30
0.0
 10
70.75896809827087
 20
79.52185619469026
 30
0.0
 10
70.81077498472871
 20
79.52185619469026
 30
0.0
 10
70.99852532448799
 20
79.52185619469026
 30
0.0
 10
71.13314266620613
 20
79.52185619469026
 30
0.0
 10
71.29486648313312
 20
79.52185619469024
 30
0.0
  0
SPLINE
  5
175
330
1F
100
AcDbEntity
  8
0
  6
Continuous
 62
     7
370
    25
100
AcDbSpline
210
0.0
220
0.0
230
1.0
 70
    24
 71
     3
 72
    10
 73
     6
 74
     0
 42
0.000000001
 43
0.00000001
 40
0.0
 40
0.0
 40
0.0
 40
0.0
 40
0.5000000000000001
 40
0.5000000000000001
 40
1.0
 40
1.0
 40
1.0
 40
1.0
 10
75.47029296367604
 20
79.52185619469026
 30
0.0
 10
75.47029296367604
 20
79.52185619469026
 30
0.0
 10
75.4184860772182
 20
79.52185619469026
 30
0.0
 10
75.23073573745893
 20
79.52185619469026
 30
0.0
 10
75.09611839574079
 20
79.52185619469026
 30
0.0
 10
74.93439457881381
 20
79.52185619469024
 30
0.0
  0
LINE
  5
176
330
1F
100
AcDbEntity
  8
0
  6
Continuous
 62
     7
370
    25
100
AcDbLine
 10
67.414630531
 20
90.3858561947
 30
0.0
 11
67.414630531
 21
80.6578561947
 31
0.0
  0
LINE
  5
177
330
1F
100
AcDbEntity
  8
0
  6
Continuous
 62
     7
370
    25
100
AcDbLine
 10
68.114630531
 20
81.3578561947
 30
0.0
 11
68.114630531
 21
89.6858561947
 31
0.0
  0
LINE
  5
178
330
1F
100
AcDbEntity
  8
0
  6
Continuous
 62
     7
370
    25
100
AcDbLine
 10
78.814630531
 20
90.3858561947
 30
0.0
 11
78.814630531
 21
80.6578561947
 31
0.0
  0
LINE
  5
179
330
1F
100
AcDbEntity
  8
0
  6
Continuous
 62
     7
370
    25
100
AcDbLine
 10
78.114630531
 20
81.3578561947
 30
0.0
 11
78.114630531
 21
89.6858561947
 31
0.0
  0
LINE
  5
17A
330
1F
100
AcDbEntity
  8
0
  6
Continuous
 62
     1
370
    25
100
AcDbLine
 10
56.5776214462
 20
79.7718561947
 30
0.0
 11
56.5776214462
 21
91.2718561947
 31
0.0
  0
LINE
  5
17B
330
1F
100
AcDbEntity
  8
0
  6
Continuous
 62
     1
370
    25
100
AcDbLine
 10
89.6516396157
 20
91.2718561947
 30
0.0
 11
89.6516396157
 21
79.7718561947
 31
0.0
  0
LINE
  5
17C
330
1F
100
AcDbEntity
  8
0
  6
Continuous
 62
     1
370
    25
100
AcDbLine
 10
70.3259553964
 20
91.2718561947
 30
0.0
 11
70.3259553964
 21
79.7718561947
 31
0.0
  0
LINE
  5
17D
330
1F
100
AcDbEntity
  8
0
  6
Continuous
 62
     1
370
    25
100
AcDbLine
 10
75.9033056656
 20
91.2718561947
 30
0.0
 11
75.9033056656
 21
79.7718561947
 31
0.0
  0
ENDSEC
  0
SECTION
  2
OBJECTS
  0
DICTIONARY
  5
C
330
0
100
AcDbDictionary
281
     1
  3
ACAD_GROUP
350
D
  3
ACAD_LAYOUT
350
1A
  3
ACAD_MLINESTYLE
350
17
  3
ACAD_PLOTSETTINGS
350
19
  3
ACAD_PLOTSTYLENAME
350
E
  3
ACAD_SCALELIST
350
47
  0
DICTIONARY
  5
D
102
{ACAD_REACTORS
330
C
102
}
330
C
100
AcDbDictionary
281
     1
  0
DICTIONARY
  5
1A
102
{ACAD_REACTORS
330
C
102
}
330
C
100
AcDbDictionary
281
     1
  3
Layout1
350
1E
  3
Layout2
350
26
  3
Model
350
22
  0
DICTIONARY
  5
17
102
{ACAD_REACTORS
330
C
102
}
330
C
100
AcDbDictionary
281
     1
  3
Standard
350
18
  0
DICTIONARY
  5
19
102
{ACAD_REACTORS
330
C
102
}
330
C
100
AcDbDictionary
281
     1
  0
ACDBDICTIONARYWDFLT
  5
E
102
{ACAD_REACTORS
330
C
102
}
330
C
100
AcDbDictionary
281
     1
  3
Normal
350
F
100
AcDbDictionaryWithDefault
340
F
  0
DICTIONARY
  5
47
102
{ACAD_REACTORS
330
C
102
}
330
C
100
AcDbDictionary
281
     1
  3
A0
350
48
  3
A1
350
49
  3
A2
350
4A
  3
A3
350
4B
  3
A4
350
4C
  3
A5
350
4D
  3
A6
350
4E
  3
A7
350
4F
  3
A8
350
50
  3
A9
350
51
  3
B0
350
52
  3
B1
350
53
  3
B2
350
54
  3
B3
350
55
  3
B4
350
56
  3
B5
350
57
  3
B6
350
58
  3
B7
350
59
  3
B8
350
5A
  3
B9
350
5B
  3
C0
350
5C
  3
C1
350
5D
  3
C2
350
5E
  3
C3
350
5F
  3
C4
350
60
  3
C5
350
61
  3
C6
350
62
  3
C7
350
63
  3
C8
350
64
  3
C9
350
65
  3
D0
350
66
  3
D1
350
67
  3
D2
350
68
  0
LAYOUT
  5
1E
102
{ACAD_REACTORS
330
1A
102
}
330
1A
100
AcDbPlotSettings
  1

  2
none_device
  4

  6

 40
0.0
 41
0.0
 42
0.0
 43
0.0
 44
0.0
 45
0.0
 46
0.0
 47
0.0
 48
0.0
 49
0.0
140
0.0
141
0.0
142
1.0
143
1.0
 70
   688
 72
     1
 73
     0
 74
     5
  7

 75
    16
147
1.0
148
0.0
149
0.0
100
AcDbLayout
  1
Layout1
 70
     1
 71
     1
 10
0.0
 20
0.0
 11
420.0
 21
297.0
 12
0.0
 22
0.0
 32
0.0
 14
1.0000000000E+20
 24
1.0000000000E+20
 34
1.0000000000E+20
 15
-1.0000000000E+20
 25
-1.0000000000E+20
 35
-1.0000000000E+20
146
0.0
 13
0.0
 23
0.0
 33
0.0
 16
1.0
 26
0.0
 36
0.0
 17
0.0
 27
1.0
 37
0.0
 76
     0
330
1B
  0
LAYOUT
  5
26
102
{ACAD_REACTORS
330
1A
102
}
330
1A
100
AcDbPlotSettings
  1

  2
none_device
  4

  6

 40
0.0
 41
0.0
 42
0.0
 43
0.0
 44
0.0
 45
0.0
 46
0.0
 47
0.0
 48
0.0
 49
0.0
140
0.0
141
0.0
142
1.0
143
1.0
 70
   688
 72
     1
 73
     0
 74
     5
  7

 75
    16
147
1.0
148
0.0
149
0.0
100
AcDbLayout
  1
Layout2
 70
     1
 71
     2
 10
0.0
 20
0.0
 11
0.0
 21
0.0
 12
0.0
 22
0.0
 32
0.0
 14
0.0
 24
0.0
 34
0.0
 15
0.0
 25
0.0
 35
0.0
146
0.0
 13
0.0
 23
0.0
 33
0.0
 16
1.0
 26
0.0
 36
0.0
 17
0.0
 27
1.0
 37
0.0
 76
     0
330
23
  0
LAYOUT
  5
22
102
{ACAD_REACTORS
330
1A
102
}
330
1A
100
AcDbPlotSettings
  1

  2
none_device
  4
Letter_(8.50_x_11.00_Inches)
  6

 40
6.35
 41
6.35
 42
6.35000508
 43
6.35000508
 44
215.9
 45
279.4
 46
0.0
 47
0.0
 48
0.0
 49
0.0
140
0.0
141
0.0
142
1.0
143
1.0
 70
  1712
 72
     1
 73
     0
 74
     0
  7

 75
     0
147
1.0
148
0.0
149
0.0
100
AcDbLayout
  1
Model
 70
     1
 71
     0
 10
0.0
 20
0.0
 11
215.9
 21
139.7
 12
0.0
 22
0.0
 32
0.0
 14
0.0
 24
0.0
 34
0.0
 15
215.9
 25
139.7
 35
0.0
146
0.0
 13
0.0
 23
0.0
 33
0.0
 16
1.0
 26
0.0
 36
0.0
 17
0.0
 27
1.0
 37
0.0
 76
     0
330
1F
331
29
  0
MLINESTYLE
  5
18
102
{ACAD_REACTORS
330
17
102
}
330
17
100
AcDbMlineStyle
  2
Standard
 70
     0
  3

 62
   256
 51
90.0
 52
90.0
 71
     2
 49
0.5
 62
   256
  6
BYLAYER
 49
-0.5
 62
   256
  6
BYLAYER
  0
ACDBPLACEHOLDER
  5
F
102
{ACAD_REACTORS
330
E
102
}
330
E
  0
SCALE
  5
48
102
{ACAD_REACTORS
330
47
102
}
330
47
100
AcDbScale
 70
     0
300
1:1
140
1.0
141
1.0
290
     1
  0
SCALE
  5
49
102
{ACAD_REACTORS
330
47
102
}
330
47
100
AcDbScale
 70
     0
300
1:2
140
1.0
141
2.0
290
     0
  0
SCALE
  5
4A
102
{ACAD_REACTORS
330
47
102
}
330
47
100
AcDbScale
 70
     0
300
1:4
140
1.0
141
4.0
290
     0
  0
SCALE
  5
4B
102
{ACAD_REACTORS
330
47
102
}
330
47
100
AcDbScale
 70
     0
300
1:5
140
1.0
141
5.0
290
     0
  0
SCALE
  5
4C
102
{ACAD_REACTORS
330
47
102
}
330
47
100
AcDbScale
 70
     0
300
1:8
140
1.0
141
8.0
290
     0
  0
SCALE
  5
4D
102
{ACAD_REACTORS
330
47
102
}
330
47
100
AcDbScale
 70
     0
300
1:10
140
1.0
141
10.0
290
     0
  0
SCALE
  5
4E
102
{ACAD_REACTORS
330
47
102
}
330
47
100
AcDbScale
 70
     0
300
1:16
140
1.0
141
16.0
290
     0
  0
SCALE
  5
4F
102
{ACAD_REACTORS
330
47
102
}
330
47
100
AcDbScale
 70
     0
300
1:20
140
1.0
141
20.0
290
     0
  0
SCALE
  5
50
102
{ACAD_REACTORS
330
47
102
}
330
47
100
AcDbScale
 70
     0
300
1:30
140
1.0
141
30.0
290
     0
  0
SCALE
  5
51
102
{ACAD_REACTORS
330
47
102
}
330
47
100
AcDbScale
 70
     0
300
1:40
140
1.0
141
40.0
290
     0
  0
SCALE
  5
52
102
{ACAD_REACTORS
330
47
102
}
330
47
100
AcDbScale
 70
     0
300
1:50
140
1.0
141
50.0
290
     0
  0
SCALE
  5
53
102
{ACAD_REACTORS
330
47
102
}
330
47
100
AcDbScale
 70
     0
300
1:100
140
1.0
141
100.0
290
     0
  0
SCALE
  5
54
102
{ACAD_REACTORS
330
47
102
}
330
47
100
AcDbScale
 70
     0
300
2:1
140
2.0
141
1.0
290
     0
  0
SCALE
  5
55
102
{ACAD_REACTORS
330
47
102
}
330
47
100
AcDbScale
 70
     0
300
4:1
140
4.0
141
1.0
290
     0
  0
SCALE
  5
56
102
{ACAD_REACTORS
330
47
102
}
330
47
100
AcDbScale
 70
     0
300
8:1
140
8.0
141
1.0
290
     0
  0
SCALE
  5
57
102
{ACAD_REACTORS
330
47
102
}
330
47
100
AcDbScale
 70
     0
300
10:1
140
10.0
141
1.0
290
     0
  0
SCALE
  5
58
102
{ACAD_REACTORS
330
47
102
}
330
47
100
AcDbScale
 70
     0
300
100:1
140
100.0
141
1.0
290
     0
  0
SCALE
  5
59
102
{ACAD_REACTORS
330
47
102
}
330
47
100
AcDbScale
 70
     0
300
1/128" = 1'-0"
140
0.0078125
141
12.0
290
     0
  0
SCALE
  5
5A
102
{ACAD_REACTORS
330
47
102
}
330
47
100
AcDbScale
 70
     0
300
1/64" = 1'-0"
140
0.015625
141
12.0
290
     0
  0
SCALE
  5
5B
102
{ACAD_REACTORS
330
47
102
}
330
47
100
AcDbScale
 70
     0
300
1/32" = 1'-0"
140
0.03125
141
12.0
290
     0
  0
SCALE
  5
5C
102
{ACAD_REACTORS
330
47
102
}
330
47
100
AcDbScale
 70
     0
300
1/16" = 1'-0"
140
0.0625
141
12.0
290
     0
  0
SCALE
  5
5D
102
{ACAD_REACTORS
330
47
102
}
330
47
100
AcDbScale
 70
     0
300
3/32" = 1'-0"
140
0.09375
141
12.0
290
     0
  0
SCALE
  5
5E
102
{ACAD_REACTORS
330
47
102
}
330
47
100
AcDbScale
 70
     0
300
1/8" = 1'-0"
140
0.125
141
12.0
290
     0
  0
SCALE
  5
5F
102
{ACAD_REACTORS
330
47
102
}
330
47
100
AcDbScale
 70
     0
300
3/16" = 1'-0"
140
0.1875
141
12.0
290
     0
  0
SCALE
  5
60
102
{ACAD_REACTORS
330
47
102
}
330
47
100
AcDbScale
 70
     0
300
1/4" = 1'-0"
140
0.25
141
12.0
290
     0
  0
SCALE
  5
61
102
{ACAD_REACTORS
330
47
102
}
330
47
100
AcDbScale
 70
     0
300
3/8" = 1'-0"
140
0.375
141
12.0
290
     0
  0
SCALE
  5
62
102
{ACAD_REACTORS
330
47
102
}
330
47
100
AcDbScale
 70
     0
300
1/2" = 1'-0"
140
0.5
141
12.0
290
     0
  0
SCALE
  5
63
102
{ACAD_REACTORS
330
47
102
}
330
47
100
AcDbScale
 70
     0
300
3/4" = 1'-0"
140
0.75
141
12.0
290
     0
  0
SCALE
  5
64
102
{ACAD_REACTORS
330
47
102
}
330
47
100
AcDbScale
 70
     0
300
1" = 1'-0"
140
1.0
141
12.0
290
     0
  0
SCALE
  5
65
102
{ACAD_REACTORS
330
47
102
}
330
47
100
AcDbScale
 70
     0
300
1-1/2" = 1'-0"
140
1.5
141
12.0
290
     0
  0
SCALE
  5
66
102
{ACAD_REACTORS
330
47
102
}
330
47
100
AcDbScale
 70
     0
300
3" = 1'-0"
140
3.0
141
12.0
290
     0
  0
SCALE
  5
67
102
{ACAD_REACTORS
330
47
102
}
330
47
100
AcDbScale
 70
     0
300
6" = 1'-0"
140
6.0
141
12.0
290
     0
  0
SCALE
  5
68
102
{ACAD_REACTORS
330
47
102
}
330
47
100
AcDbScale
 70
     0
300
1'-0" = 1'-0"
140
12.0
141
12.0
290
     0
  0
ENDSEC
  0
EOF
