  0
SECTION
  2
HEADER
  9
$ACADVER
  1
AC1015
  9
$ACADMAINTVER
 70
     6
  9
$DWGCODEPAGE
  3
DOS932
  9
$INSBASE
 10
0.0
 20
0.0
 30
0.0
  9
$EXTMIN
 10
0.0
 20
0.0
 30
0.0
  9
$EXTMAX
 10
215.9
 20
139.7
 30
0.0
  9
$LIMMIN
 10
0.0
 20
0.0
  9
$LIMMAX
 10
215.9
 20
139.7
  9
$ORTHOMODE
 70
     0
  9
$REGENMODE
 70
     1
  9
$FILLMODE
 70
     1
  9
$QTEXTMODE
 70
     0
  9
$MIRRTEXT
 70
     1
  9
$LTSCALE
 40
0.5
  9
$ATTMODE
 70
     1
  9
$TEXTSIZE
 40
1.75
  9
$TRACEWID
 40
1.0
  9
$TEXTSTYLE
  7
Standard
  9
$CLAYER
  8
0
  9
$CELTYPE
  6
ByLayer
  9
$CECOLOR
 62
   256
  9
$CELTSCALE
 40
1.0
  9
$DISPSILH
 70
     0
  9
$DIMSCALE
 40
1.0
  9
$DIMASZ
 40
1.778
  9
$DIMEXO
 40
0.5
  9
$DIMDLI
 40
3.75
  9
$DIMRND
 40
0.0
  9
$DIMDLE
 40
0.0
  9
$DIMEXE
 40
0.5
  9
$DIMTP
 40
0.0
  9
$DIMTM
 40
0.0
  9
$DIMTXT
 40
1.75
  9
$DIMCEN
 40
2.5
  9
$DIMTSZ
 40
0.0
  9
$DIMTOL
 70
     0
  9
$DIMLIM
 70
     0
  9
$DIMTIH
 70
     1
  9
$DIMTOH
 70
     1
  9
$DIMSE1
 70
     0
  9
$DIMSE2
 70
     0
  9
$DIMTAD
 70
     1
  9
$DIMZIN
 70
     1
  9
$DIMBLK
  1

  9
$DIMASO
 70
     1
  9
$DIMSHO
 70
     1
  9
$DIMPOST
  1

  9
$DIMAPOST
  1

  9
$DIMALT
 70
     0
  9
$DIMALTD
 70
     3
  9
$DIMALTF
 40
0.0393700787
  9
$DIMLFAC
 40
1.0
  9
$DIMTOFL
 70
     1
  9
$DIMTVP
 40
0.0
  9
$DIMTIX
 70
     0
  9
$DIMSOXD
 70
     0
  9
$DIMSAH
 70
     0
  9
$DIMBLK1
  1

  9
$DIMBLK2
  1

  9
$DIMSTYLE
  2
ISO-25
  9
$DIMCLRD
 70
     0
  9
$DIMCLRE
 70
     0
  9
$DIMCLRT
 70
     0
  9
$DIMTFAC
 40
1.0
  9
$DIMGAP
 40
0.762
  9
$DIMJUST
 70
     0
  9
$DIMSD1
 70
     0
  9
$DIMSD2
 70
     0
  9
$DIMTOLJ
 70
     0
  9
$DIMTZIN
 70
     1
  9
$DIMALTZ
 70
     0
  9
$DIMALTTZ
 70
     0
  9
$DIMUPT
 70
     0
  9
$DIMDEC
 70
     2
  9
$DIMTDEC
 70
     2
  9
$DIMALTU
 70
     2
  9
$DIMALTTD
 70
     3
  9
$DIMTXSTY
  7
Standard
  9
$DIMAUNIT
 70
     0
  9
$DIMADEC
 70
     2
  9
$DIMALTRND
 40
0.0
  9
$DIMAZIN
 70
     0
  9
$DIMDSEP
 70
    44
  9
$DIMATFIT
 70
     3
  9
$DIMFRAC
 70
     0
  9
$DIMLDRBLK
  1

  9
$DIMLUNIT
 70
     2
  9
$DIMLWD
 70
    -2
  9
$DIMLWE
 70
    -2
  9
$DIMTMOVE
 70
     0
  9
$LUNITS
 70
     2
  9
$LUPREC
 70
     2
  9
$SKETCHINC
 40
1.0
  9
$FILLETRAD
 40
10.0
  9
$AUNITS
 70
     0
  9
$AUPREC
 70
     2
  9
$MENU
  1
.
  9
$ELEVATION
 40
0.0
  9
$PELEVATION
 40
0.0
  9
$THICKNESS
 40
0.0
  9
$LIMCHECK
 70
     0
  9
$CHAMFERA
 40
0.0
  9
$CHAMFERB
 40
0.0
  9
$CHAMFERC
 40
0.0
  9
$CHAMFERD
 40
0.0
  9
$SKPOLY
 70
     0
  9
$TDCREATE
 40
2459375.492553924
  9
$TDUCREATE
 40
2459375.117553924
  9
$TDUPDATE
 40
2459375.492554711
  9
$TDUUPDATE
 40
2459375.117554711
  9
$TDINDWG
 40
0.0000000116
  9
$TDUSRTIMER
 40
0.0000000116
  9
$USRTIMER
 70
     1
  9
$ANGBASE
 50
0.0
  9
$ANGDIR
 70
     0
  9
$PDMODE
 70
     0
  9
$PDSIZE
 40
-1.0
  9
$PLINEWID
 40
0.0
  9
$SPLFRAME
 70
     0
  9
$SPLINETYPE
 70
     6
  9
$SPLINESEGS
 70
     8
  9
$HANDSEED
  5
175
  9
$SURFTAB1
 70
     6
  9
$SURFTAB2
 70
     6
  9
$SURFTYPE
 70
     6
  9
$SURFU
 70
     6
  9
$SURFV
 70
     6
  9
$UCSBASE
  2

  9
$UCSNAME
  2

  9
$UCSORG
 10
0.0
 20
0.0
 30
0.0
  9
$UCSXDIR
 10
1.0
 20
0.0
 30
0.0
  9
$UCSYDIR
 10
0.0
 20
1.0
 30
0.0
  9
$UCSORTHOREF
  2

  9
$UCSORTHOVIEW
 70
     0
  9
$UCSORGTOP
 10
0.0
 20
0.0
 30
0.0
  9
$UCSORGBOTTOM
 10
0.0
 20
0.0
 30
0.0
  9
$UCSORGLEFT
 10
0.0
 20
0.0
 30
0.0
  9
$UCSORGRIGHT
 10
0.0
 20
0.0
 30
0.0
  9
$UCSORGFRONT
 10
0.0
 20
0.0
 30
0.0
  9
$UCSORGBACK
 10
0.0
 20
0.0
 30
0.0
  9
$PUCSBASE
  2

  9
$PUCSNAME
  2

  9
$PUCSORG
 10
0.0
 20
0.0
 30
0.0
  9
$PUCSXDIR
 10
1.0
 20
0.0
 30
0.0
  9
$PUCSYDIR
 10
0.0
 20
1.0
 30
0.0
  9
$PUCSORTHOREF
  2

  9
$PUCSORTHOVIEW
 70
     0
  9
$PUCSORGTOP
 10
0.0
 20
0.0
 30
0.0
  9
$PUCSORGBOTTOM
 10
0.0
 20
0.0
 30
0.0
  9
$PUCSORGLEFT
 10
0.0
 20
0.0
 30
0.0
  9
$PUCSORGRIGHT
 10
0.0
 20
0.0
 30
0.0
  9
$PUCSORGFRONT
 10
0.0
 20
0.0
 30
0.0
  9
$PUCSORGBACK
 10
0.0
 20
0.0
 30
0.0
  9
$USERI1
 70
     0
  9
$USERI2
 70
     0
  9
$USERI3
 70
     0
  9
$USERI4
 70
     0
  9
$USERI5
 70
     0
  9
$USERR1
 40
0.0
  9
$USERR2
 40
0.0
  9
$USERR3
 40
0.0
  9
$USERR4
 40
0.0
  9
$USERR5
 40
0.0
  9
$WORLDVIEW
 70
     1
  9
$SHADEDGE
 70
     3
  9
$SHADEDIF
 70
    70
  9
$TILEMODE
 70
     1
  9
$MAXACTVP
 70
    64
  9
$PINSBASE
 10
0.0
 20
0.0
 30
0.0
  9
$PLIMCHECK
 70
     0
  9
$PEXTMIN
 10
1.0000000000E+20
 20
1.0000000000E+20
 30
1.0000000000E+20
  9
$PEXTMAX
 10
-1.0000000000E+20
 20
-1.0000000000E+20
 30
-1.0000000000E+20
  9
$PLIMMIN
 10
0.0
 20
0.0
  9
$PLIMMAX
 10
420.0
 20
297.0
  9
$UNITMODE
 70
     0
  9
$VISRETAIN
 70
     1
  9
$PLINEGEN
 70
     0
  9
$PSLTSCALE
 70
     1
  9
$TREEDEPTH
 70
  3020
  9
$CMLSTYLE
  2
Standard
  9
$CMLJUST
 70
     0
  9
$CMLSCALE
 40
20.0
  9
$PROXYGRAPHICS
 70
     1
  9
$MEASUREMENT
 70
     1
  9
$CELWEIGHT
370
    -1
  9
$ENDCAPS
280
     0
  9
$JOINSTYLE
280
     0
  9
$LWDISPLAY
290
     1
  9
$INSUNITS
 70
     4
  9
$HYPERLINKBASE
  1

  9
$STYLESHEET
  1

  9
$XEDIT
290
     1
  9
$CEPSNTYPE
380
     0
  9
$PSTYLEMODE
290
     1
  9
$FINGERPRINTGUID
  2
{2F59D9B2-01BE-4F6A-BCAB-2E4358370C7D}
  9
$VERSIONGUID
  2
{FAEB1C32-E019-11D5-929B-00C0DF256EC4}
  9
$EXTNAMES
290
     1
  9
$PSVPSCALE
 40
0.0
  9
$OLESTARTUP
290
     0
  0
ENDSEC
  0
SECTION
  2
CLASSES
  0
CLASS
  1
ACDBDICTIONARYWDFLT
  2
AcDbDictionaryWithDefault
  3
ObjectDBX Classes
 90
        0
280
     0
281
     0
  0
CLASS
  1
VISUALSTYLE
  2
AcDbVisualStyle
  3
ObjectDBX Classes
 90
     4095
280
     0
281
     0
  0
CLASS
  1
MATERIAL
  2
AcDbMaterial
  3
ObjectDBX Classes
 90
     1153
280
     0
281
     0
  0
CLASS
  1
SCALE
  2
AcDbScale
  3
ObjectDBX Classes
 90
     1153
280
     0
281
     0
  0
CLASS
  1
TABLESTYLE
  2
AcDbTableStyle
  3
ObjectDBX Classes
 90
     4095
280
     0
281
     0
  0
CLASS
  1
MLEADERSTYLE
  2
AcDbMLeaderStyle
  3
ACDB_MLEADERSTYLE_CLASS
 90
     4095
280
     0
281
     0
  0
CLASS
  1
SUN
  2
AcDbSun
  3
SCENEOE
 90
     1153
280
     0
281
     0
  0
CLASS
  1
ACDBPLACEHOLDER
  2
AcDbPlaceHolder
  3
ObjectDBX Classes
 90
        0
280
     0
281
     0
  0
CLASS
  1
LAYOUT
  2
AcDbLayout
  3
ObjectDBX Classes
 90
        0
280
     0
281
     0
  0
ENDSEC
  0
SECTION
  2
TABLES
  0
TABLE
  2
VPORT
  5
8
330
0
100
AcDbSymbolTable
 70
     1
  0
VPORT
  5
29
330
8
100
AcDbSymbolTableRecord
100
AcDbViewportTableRecord
  2
*Active
 70
     0
 10
0.0
 20
0.0
 11
1.0
 21
1.0
 12
107.95
 22
69.85
 13
0.0
 23
0.0
 14
10.0
 24
10.0
 15
10.0
 25
10.0
 16
0.0
 26
0.0
 36
1.0
 17
0.0
 27
0.0
 37
0.0
 40
139.7
 41
1.5454545455
 42
50.0
 43
0.0
 44
0.0
 50
0.0
 51
0.0
 71
     0
 72
  2000
 73
     1
 74
     3
 75
     0
 76
     0
 77
     0
 78
     0
281
     0
 65
     1
110
0.0
120
0.0
130
0.0
111
1.0
121
0.0
131
0.0
112
0.0
122
1.0
132
0.0
 79
     0
146
0.0
  0
ENDTAB
  0
TABLE
  2
LTYPE
  5
5
330
0
100
AcDbSymbolTable
 70
     6
  0
LTYPE
  5
14
330
5
100
AcDbSymbolTableRecord
100
AcDbLinetypeTableRecord
  2
ByBlock
 70
     0
  3

 72
    65
 73
     0
 40
0.0
  0
LTYPE
  5
15
330
5
100
AcDbSymbolTableRecord
100
AcDbLinetypeTableRecord
  2
ByLayer
 70
     0
  3

 72
    65
 73
     0
 40
0.0
  0
LTYPE
  5
16
330
5
100
AcDbSymbolTableRecord
100
AcDbLinetypeTableRecord
  2
Continuous
 70
     0
  3
Solid line
 72
    65
 73
     0
 40
0.0
  0
LTYPE
  5
6E
330
5
100
AcDbSymbolTableRecord
100
AcDbLinetypeTableRecord
  2
HIDDEN
 70
     0
  3
Hidden __ __ __ __ __ __ __ __ __ __ __ __ __ __
 72
    65
 73
     2
 40
1.905
 49
1.27
 74
     0
 49
-0.635
 74
     0
  0
LTYPE
  5
6F
330
5
100
AcDbSymbolTableRecord
100
AcDbLinetypeTableRecord
  2
PHANTOM
 70
     0
  3
Phantom ______  __  __  ______  __  __  ______
 72
    65
 73
     6
 40
12.7
 49
6.35
 74
     0
 49
-1.27
 74
     0
 49
1.27
 74
     0
 49
-1.27
 74
     0
 49
1.27
 74
     0
 49
-1.27
 74
     0
  0
LTYPE
  5
70
330
5
100
AcDbSymbolTableRecord
100
AcDbLinetypeTableRecord
  2
CENTER
 70
     0
  3
Center ____ _ ____ _ ____ _ ____ _ ____ _ ____
 72
    65
 73
     4
 40
10.16
 49
6.35
 74
     0
 49
-1.27
 74
     0
 49
1.27
 74
     0
 49
-1.27
 74
     0
  0
LTYPE
  5
71
330
5
100
AcDbSymbolTableRecord
100
AcDbLinetypeTableRecord
  2
CENTERX2
 70
     0
  3
Center (2x) ________  __  ________  __  _____
 72
    65
 73
     4
 40
20.32
 49
12.7
 74
     0
 49
-2.54
 74
     0
 49
2.54
 74
     0
 49
-2.54
 74
     0
  0
LTYPE
  5
72
330
5
100
AcDbSymbolTableRecord
100
AcDbLinetypeTableRecord
  2
DOT2
 70
     0
  3
Dot (.5x) ........................................
 72
    65
 73
     2
 40
0.635
 49
0.0
 74
     0
 49
-0.635
 74
     0
  0
ENDTAB
  0
TABLE
  2
LAYER
  5
2
330
0
100
AcDbSymbolTable
 70
     1
  0
LAYER
  5
10
330
2
100
AcDbSymbolTableRecord
100
AcDbLayerTableRecord
  2
0
 70
     0
 62
     7
  6
Continuous
370
    -3
390
F
  0
ENDTAB
  0
TABLE
  2
STYLE
  5
3
330
0
100
AcDbSymbolTable
 70
     2
  0
STYLE
  5
11
330
3
100
AcDbSymbolTableRecord
100
AcDbTextStyleTableRecord
  2
Standard
 70
     0
 40
0.0
 41
1.0
 50
0.0
 71
     0
 42
1.75
  3
txt
  4
bigfont
  0
STYLE
  5
73
330
3
100
AcDbSymbolTableRecord
100
AcDbTextStyleTableRecord
  2
SLDTEXTSTYLE0
 70
     0
 40
0.0
 41
0.75
 50
0.0
 71
     0
 42
1.75
  3
TXT
  4
bigfont
  0
ENDTAB
  0
TABLE
  2
VIEW
  5
6
330
0
100
AcDbSymbolTable
 70
     0
  0
ENDTAB
  0
TABLE
  2
UCS
  5
7
330
0
100
AcDbSymbolTable
 70
     0
  0
ENDTAB
  0
TABLE
  2
APPID
  5
9
330
0
100
AcDbSymbolTable
 70
     1
  0
APPID
  5
12
330
9
100
AcDbSymbolTableRecord
100
AcDbRegAppTableRecord
  2
ACAD
 70
     0
  0
ENDTAB
  0
TABLE
  2
DIMSTYLE
  5
A
330
0
100
AcDbSymbolTable
 70
     1
100
AcDbDimStyleTable
  0
DIMSTYLE
105
27
330
A
100
AcDbSymbolTableRecord
100
AcDbDimStyleTableRecord
  2
ISO-25
 70
     0
 41
2.5
 42
0.625
 43
3.75
 44
1.25
 73
     0
 74
     0
 77
     1
 78
     8
140
2.5
141
2.5
143
0.0393700787
147
0.625
171
     3
172
     1
178
     0
271
     2
272
     2
274
     3
278
    44
283
     0
284
     8
340
11
  0
ENDTAB
  0
TABLE
  2
BLOCK_RECORD
  5
1
330
0
100
AcDbSymbolTable
 70
     1
  0
BLOCK_RECORD
  5
1F
330
1
100
AcDbSymbolTableRecord
100
AcDbBlockTableRecord
  2
*Model_Space
340
22
  0
BLOCK_RECORD
  5
1B
330
1
100
AcDbSymbolTableRecord
100
AcDbBlockTableRecord
  2
*Paper_Space
340
1E
  0
BLOCK_RECORD
  5
23
330
1
100
AcDbSymbolTableRecord
100
AcDbBlockTableRecord
  2
*Paper_Space0
340
26
  0
ENDTAB
  0
ENDSEC
  0
SECTION
  2
BLOCKS
  0
BLOCK
  5
20
330
1F
100
AcDbEntity
  8
0
100
AcDbBlockBegin
  2
*Model_Space
 70
     0
 10
0.0
 20
0.0
 30
0.0
  3
*Model_Space
  1

  0
ENDBLK
  5
21
330
1F
100
AcDbEntity
  8
0
100
AcDbBlockEnd
  0
BLOCK
  5
1C
330
1B
100
AcDbEntity
 67
     1
  8
0
100
AcDbBlockBegin
  2
*Paper_Space
 70
     0
 10
0.0
 20
0.0
 30
0.0
  3
*Paper_Space
  1

  0
ENDBLK
  5
1D
330
1B
100
AcDbEntity
 67
     1
  8
0
100
AcDbBlockEnd
  0
BLOCK
  5
24
330
23
100
AcDbEntity
  8
0
100
AcDbBlockBegin
  2
*Paper_Space0
 70
     0
 10
0.0
 20
0.0
 30
0.0
  3
*Paper_Space0
  1

  0
ENDBLK
  5
25
330
23
100
AcDbEntity
  8
0
100
AcDbBlockEnd
  0
ENDSEC
  0
SECTION
  2
ENTITIES
  0
MTEXT
  5
74
330
1F
100
AcDbEntity
  8
0
  6
Continuous
 62
     7
370
     0
100
AcDbMText
 10
91.597991791
 20
64.8847977656
 30
0.0
 40
2.6458333333
 41
0.0
 71
     1
 72
     1
  1
5R-RS1310
  7
SLDTEXTSTYLE0
 73
     1
 44
1.0
  0
LINE
  5
75
330
1F
100
AcDbEntity
  8
0
  6
Continuous
 62
     7
370
    25
100
AcDbLine
 10
62.878062891
 20
52.0119550373
 30
0.0
 11
51.9519723247
 21
51.6705147071
 31
0.0
  0
LINE
  5
76
330
1F
100
AcDbEntity
  8
0
  6
Continuous
 62
     7
370
    25
100
AcDbLine
 10
51.9519723247
 20
35.2757703675
 30
0.0
 11
62.878062891
 21
34.9343300373
 31
0.0
  0
LINE
  5
77
330
1F
100
AcDbEntity
  8
0
  6
Continuous
 62
     7
370
    25
100
AcDbLine
 10
73.378062891
 20
35.1421425373
 30
0.0
 11
75.2603714374
 21
35.1421425373
 31
0.0
  0
LINE
  5
78
330
1F
100
AcDbEntity
  8
0
  6
Continuous
 62
     7
370
    25
100
AcDbLine
 10
75.2603714374
 20
51.8041425373
 30
0.0
 11
73.378062891
 21
51.8041425373
 31
0.0
  0
LINE
  5
79
330
1F
100
AcDbEntity
  8
0
  6
Continuous
 62
     7
370
    25
100
AcDbLine
 10
73.378062891
 20
51.8041425373
 30
0.0
 11
72.378062891
 21
50.8041425373
 31
0.0
  0
LINE
  5
7A
330
1F
100
AcDbEntity
  8
0
  6
Continuous
 62
     7
370
    25
100
AcDbLine
 10
72.378062891
 20
36.1421425373
 30
0.0
 11
73.378062891
 21
35.1421425373
 31
0.0
  0
LINE
  5
7B
330
1F
100
AcDbEntity
  8
0
  6
Continuous
 62
     7
370
    25
100
AcDbLine
 10
70.178062891
 20
35.2231425373
 30
0.0
 11
70.378062891
 21
35.4231425373
 31
0.0
  0
LINE
  5
7C
330
1F
100
AcDbEntity
  8
0
  6
Continuous
 62
     7
370
    25
100
AcDbLine
 10
70.378062891
 20
51.5231425373
 30
0.0
 11
70.178062891
 21
51.7231425373
 31
0.0
  0
LINE
  5
7D
330
1F
100
AcDbEntity
  8
0
  6
Continuous
 62
     7
370
    25
100
AcDbLine
 10
70.178062891
 20
51.7231425373
 30
0.0
 11
69.3110755929
 21
51.7231425373
 31
0.0
  0
LINE
  5
7E
330
1F
100
AcDbEntity
  8
0
  6
Continuous
 62
     7
370
    25
100
AcDbLine
 10
69.3110755929
 20
35.2231425373
 30
0.0
 11
70.178062891
 21
35.2231425373
 31
0.0
  0
LINE
  5
7F
330
1F
100
AcDbEntity
  8
0
  6
Continuous
 62
     7
370
    25
100
AcDbLine
 10
51.9519723247
 20
51.6705147071
 30
0.0
 11
49.878062891
 21
50.4731425373
 31
0.0
  0
LINE
  5
80
330
1F
100
AcDbEntity
  8
0
  6
Continuous
 62
     7
370
    25
100
AcDbLine
 10
49.878062891
 20
36.4731425373
 30
0.0
 11
51.9519723247
 21
35.2757703675
 31
0.0
  0
LINE
  5
81
330
1F
100
AcDbEntity
  8
0
  6
Continuous
 62
     7
370
    25
100
AcDbLine
 10
70.378062891
 20
36.2231425373
 30
0.0
 11
72.378062891
 21
36.2231425373
 31
0.0
  0
LINE
  5
82
330
1F
100
AcDbEntity
  8
0
  6
Continuous
 62
     7
370
    25
100
AcDbLine
 10
72.378062891
 20
50.7231425373
 30
0.0
 11
70.378062891
 21
50.7231425373
 31
0.0
  0
ARC
  5
83
330
1F
100
AcDbEntity
  8
0
  6
Continuous
 62
     7
370
    25
100
AcDbCircle
 10
69.3110755929
 20
34.4731425373
 30
0.0
 40
0.75
100
AcDbArc
 50
90.0
 51
150.0
  0
LINE
  5
84
330
1F
100
AcDbEntity
  8
0
  6
Continuous
 62
     7
370
    25
100
AcDbLine
 10
67.9745359451
 20
33.6581879611
 30
0.0
 11
68.66155654
 21
34.8481425373
 31
0.0
  0
ARC
  5
85
330
1F
100
AcDbEntity
  8
0
  6
Continuous
 62
     7
370
    25
100
AcDbCircle
 10
69.3110755929
 20
52.4731425373
 30
0.0
 40
0.75
100
AcDbArc
 50
210.0
 51
270.0
  0
LINE
  5
86
330
1F
100
AcDbEntity
  8
0
  6
Continuous
 62
     7
370
    25
100
AcDbLine
 10
68.66155654
 20
52.0981425373
 30
0.0
 11
67.9745359451
 21
53.2880971135
 31
0.0
  0
LINE
  5
87
330
1F
100
AcDbEntity
  8
0
  6
Continuous
 62
     7
370
    25
100
AcDbLine
 10
76.3425311782
 20
55.5974981903
 30
0.0
 11
75.2603714374
 21
53.7231425373
 31
0.0
  0
LINE
  5
88
330
1F
100
AcDbEntity
  8
0
  6
Continuous
 62
     7
370
    25
100
AcDbLine
 10
75.2603714374
 20
33.2231425373
 30
0.0
 11
76.3425311782
 21
31.3487868843
 31
0.0
  0
LINE
  5
89
330
1F
100
AcDbEntity
  8
0
  6
Continuous
 62
     7
370
    25
100
AcDbLine
 10
90.0603714374
 20
33.2231425373
 30
0.0
 11
90.2603714374
 21
33.4231425373
 31
0.0
  0
LINE
  5
8A
330
1F
100
AcDbEntity
  8
0
  6
Continuous
 62
     7
370
    25
100
AcDbLine
 10
90.2603714374
 20
53.5231425373
 30
0.0
 11
90.0603714374
 21
53.7231425373
 31
0.0
  0
LINE
  5
8B
330
1F
100
AcDbEntity
  8
0
  6
Continuous
 62
     7
370
    25
100
AcDbLine
 10
90.0603714374
 20
53.7231425373
 30
0.0
 11
89.3377217066
 21
53.7231425373
 31
0.0
  0
LINE
  5
8C
330
1F
100
AcDbEntity
  8
0
  6
Continuous
 62
     7
370
    25
100
AcDbLine
 10
89.3377217066
 20
33.2231425373
 30
0.0
 11
90.0603714374
 21
33.2231425373
 31
0.0
  0
LINE
  5
8D
330
1F
100
AcDbEntity
  8
0
  6
Continuous
 62
     7
370
    25
100
AcDbLine
 10
88.4716963028
 20
54.2231425373
 30
0.0
 11
87.6782116966
 21
55.5974981903
 31
0.0
  0
ARC
  5
8E
330
1F
100
AcDbEntity
  8
0
  6
Continuous
 62
     7
370
    25
100
AcDbCircle
 10
89.3377217066
 20
54.7231425373
 30
0.0
 40
1.0
100
AcDbArc
 50
210.0
 51
270.0
  0
LINE
  5
8F
330
1F
100
AcDbEntity
  8
0
  6
Continuous
 62
     7
370
    25
100
AcDbLine
 10
87.6782116966
 20
31.3487868843
 30
0.0
 11
88.4716963028
 21
32.7231425373
 31
0.0
  0
ARC
  5
90
330
1F
100
AcDbEntity
  8
0
  6
Continuous
 62
     7
370
    25
100
AcDbCircle
 10
89.3377217066
 20
32.2231425373
 30
0.0
 40
1.0
100
AcDbArc
 50
90.0
 51
150.0
  0
LINE
  5
91
330
1F
100
AcDbEntity
  8
0
  6
Continuous
 62
     7
370
    25
100
AcDbLine
 10
62.878062891
 20
42.6599273689
 30
0.0
 11
62.878062891
 21
38.5656652492
 31
0.0
  0
SPLINE
  5
92
330
1F
100
AcDbEntity
  8
0
  6
Continuous
 62
     7
370
    25
100
AcDbSpline
210
0.0
220
0.0
230
1.0
 70
     8
 71
     3
 72
    22
 73
    18
 74
     0
 42
0.000000001
 43
0.00000001
 40
0.0
 40
0.0
 40
0.0
 40
0.0
 40
0.2499999999999998
 40
0.2499999999999998
 40
0.3749999999999998
 40
0.3749999999999998
 40
0.4374999999999997
 40
0.4374999999999997
 40
0.4999999999999997
 40
0.4999999999999997
 40
0.5624999999999998
 40
0.5624999999999998
 40
0.6249999999999998
 40
0.6249999999999998
 40
0.7499999999999998
 40
0.7499999999999998
 40
1.0
 40
1.0
 40
1.0
 40
1.0
 10
62.87806289099107
 20
42.65992736888848
 30
0.0
 10
62.63725376678433
 20
42.73894335535984
 30
0.0
 10
62.39771890854712
 20
42.82613072074107
 30
0.0
 10
62.05030569561622
 20
43.00028836604787
 30
0.0
 10
61.93840355984365
 20
43.06412397554776
 30
0.0
 10
61.78815583014651
 20
43.18596824694956
 30
0.0
 10
61.74014785435237
 20
43.23196643223897
 30
0.0
 10
61.66457214153989
 20
43.33895412428929
 30
0.0
 10
61.63744886642154
 20
43.40265233531998
 30
0.0
 10
61.63478799951912
 20
43.53276872909641
 30
0.0
 10
61.65971550438288
 20
43.59766464274157
 30
0.0
 10
61.73269009401223
 20
43.70612768089882
 30
0.0
 10
61.77999654704338
 20
43.75278748433514
 30
0.0
 10
61.93023959964868
 20
43.87716126115655
 30
0.0
 10
62.04277537125363
 20
43.94181701037512
 30
0.0
 10
62.39149439983005
 20
44.11780769406759
 30
0.0
 10
62.63346577130809
 20
44.20609877550521
 30
0.0
 10
62.87806289099038
 20
44.2863577057404
 30
0.0
  0
LINE
  5
93
330
1F
100
AcDbEntity
  8
0
  6
Continuous
 62
     7
370
    25
100
AcDbLine
 10
62.878062891
 20
48.3806198254
 30
0.0
 11
62.878062891
 21
44.2863577057
 31
0.0
  0
LINE
  5
94
330
1F
100
AcDbEntity
  8
0
  6
Continuous
 62
     7
370
    25
100
AcDbLine
 10
67.9745359451
 20
48.3806198254
 30
0.0
 11
62.878062891
 21
48.3806198254
 31
0.0
  0
SPLINE
  5
95
330
1F
100
AcDbEntity
  8
0
  6
Continuous
 62
     7
370
    25
100
AcDbSpline
210
0.0
220
0.0
230
1.0
 70
     8
 71
     3
 72
     8
 73
     4
 74
     0
 42
0.000000001
 43
0.00000001
 40
0.0
 40
0.0
 40
0.0
 40
0.0
 40
1.0
 40
1.0
 40
1.0
 40
1.0
 10
68.66155654004498
 20
44.9362300261534
 30
0.0
 10
68.54618804469783
 20
46.11420662504267
 30
0.0
 10
68.29875367941338
 20
47.25749664846845
 30
0.0
 10
67.97453594513881
 20
48.38061982542526
 30
0.0
  0
SPLINE
  5
96
330
1F
100
AcDbEntity
  8
0
  6
Continuous
 62
     7
370
    25
100
AcDbSpline
210
0.0
220
0.0
230
1.0
 70
     8
 71
     3
 72
    10
 73
     6
 74
     0
 42
0.000000001
 43
0.00000001
 40
0.0
 40
0.0
 40
0.0
 40
0.0
 40
0.5
 40
0.5
 40
1.0
 40
1.0
 40
1.0
 40
1.0
 10
68.66155654004497
 20
42.01005504847345
 30
0.0
 10
68.70893469671161
 20
42.49381241814253
 30
0.0
 10
68.73353269236182
 20
42.97953504824574
 30
0.0
 10
68.73391568636319
 20
43.95519143989209
 30
0.0
 10
68.70943706663715
 20
44.44734317971959
 30
0.0
 10
68.66155654004498
 20
44.9362300261534
 30
0.0
  0
SPLINE
  5
97
330
1F
100
AcDbEntity
  8
0
  6
Continuous
 62
     7
370
    25
100
AcDbSpline
210
0.0
220
0.0
230
1.0
 70
     8
 71
     3
 72
    10
 73
     6
 74
     0
 42
0.000000001
 43
0.00000001
 40
0.0
 40
0.0
 40
0.0
 40
0.0
 40
0.5
 40
0.5
 40
1.0
 40
1.0
 40
1.0
 40
1.0
 10
67.97453594513884
 20
38.56566524920157
 30
0.0
 10
68.13713191977557
 20
39.12891422755557
 30
0.0
 10
68.28142946782701
 20
39.70202847702369
 30
0.0
 10
68.51515315947972
 20
40.85227517057321
 30
0.0
 10
68.604723006796
 20
41.42975301716039
 30
0.0
 10
68.66155654004497
 20
42.01005504847345
 30
0.0
  0
LINE
  5
98
330
1F
100
AcDbEntity
  8
0
  6
Continuous
 62
     7
370
    25
100
AcDbLine
 10
67.9745359451
 20
38.5656652492
 30
0.0
 11
62.878062891
 21
38.5656652492
 31
0.0
  0
LINE
  5
99
330
1F
100
AcDbEntity
  8
0
  6
Continuous
 62
     7
370
    25
100
AcDbLine
 10
51.9519723247
 20
35.2757703675
 30
0.0
 11
51.9519723247
 21
51.6705147071
 31
0.0
  0
SPLINE
  5
9A
330
1F
100
AcDbEntity
  8
0
  6
Continuous
 62
     7
370
    25
100
AcDbSpline
210
0.0
220
0.0
230
1.0
 70
     8
 71
     3
 72
    22
 73
    18
 74
     0
 42
0.000000001
 43
0.00000001
 40
0.0
 40
0.0
 40
0.0
 40
0.0
 40
0.249999999999999
 40
0.249999999999999
 40
0.3749999999999986
 40
0.3749999999999986
 40
0.4374999999999987
 40
0.4374999999999987
 40
0.4999999999999988
 40
0.4999999999999988
 40
0.5624999999999989
 40
0.5624999999999989
 40
0.6249999999999989
 40
0.6249999999999989
 40
0.7499999999999992
 40
0.7499999999999992
 40
1.0
 40
1.0
 40
1.0
 40
1.0
 10
62.87806289098936
 20
50.42775088526658
 30
0.0
 10
62.6325402339105
 20
50.4680321973098
 30
0.0
 10
62.39013874904235
 20
50.51234806241798
 30
0.0
 10
62.04291670663578
 20
50.59999554762898
 30
0.0
 10
61.93016245828506
 20
50.6323712700102
 30
0.0
 10
61.7798978535041
 20
50.69458173627923
 30
0.0
 10
61.73281962073582
 20
50.71784090111395
 30
0.0
 10
61.66022140608604
 20
50.77165081259411
 30
0.0
 10
61.63536608933351
 20
50.80304727904154
 30
0.0
 10
61.63679111367294
 20
50.86855864057383
 30
0.0
 10
61.66307144087972
 20
50.89992027758775
 30
0.0
 10
61.73714783216806
 20
50.9532657357781
 30
0.0
 10
61.78427492079818
 20
50.97616361836114
 30
0.0
 10
61.93433573613017
 20
51.03761149118186
 30
0.0
 10
62.04766977614511
 20
51.07001790169672
 30
0.0
 10
62.39137138409964
 20
51.15648197691315
 30
0.0
 10
62.63331985312936
 20
51.20081264872557
 30
0.0
 10
62.87806289099096
 20
51.24096605369379
 30
0.0
  0
SPLINE
  5
9B
330
1F
100
AcDbEntity
  8
0
  6
Continuous
 62
     7
370
    25
100
AcDbSpline
210
0.0
220
0.0
230
1.0
 70
     8
 71
     3
 72
    22
 73
    18
 74
     0
 42
0.000000001
 43
0.00000001
 40
0.0
 40
0.0
 40
0.0
 40
0.0
 40
0.2500000000000005
 40
0.2500000000000005
 40
0.3750000000000006
 40
0.3750000000000006
 40
0.4375000000000006
 40
0.4375000000000006
 40
0.5000000000000006
 40
0.5000000000000006
 40
0.5625000000000004
 40
0.5625000000000004
 40
0.6250000000000003
 40
0.6250000000000003
 40
0.7500000000000003
 40
0.7500000000000003
 40
1.0
 40
1.0
 40
1.0
 40
1.0
 10
62.87806289099088
 20
35.70531902093067
 30
0.0
 10
62.63254023391168
 20
35.74560033297391
 30
0.0
 10
62.39013874904319
 20
35.78991619808209
 30
0.0
 10
62.04291670663608
 20
35.87756368329309
 30
0.0
 10
61.93016245828518
 20
35.90993940567434
 30
0.0
 10
61.77989785350391
 20
35.97214987194334
 30
0.0
 10
61.73281962073549
 20
35.99540903677804
 30
0.0
 10
61.66022140608536
 20
36.04921894825819
 30
0.0
 10
61.6353660893326
 20
36.08061541470561
 30
0.0
 10
61.63679111367163
 20
36.14612677623798
 30
0.0
 10
61.6630714408783
 20
36.17748841325196
 30
0.0
 10
61.73714783216659
 20
36.23083387144245
 30
0.0
 10
61.78427492079675
 20
36.25373175402552
 30
0.0
 10
61.93433573612889
 20
36.31517962684634
 30
0.0
 10
62.04766977614396
 20
36.34758603736122
 30
0.0
 10
62.39137138409889
 20
36.43405011257776
 30
0.0
 10
62.63331985312894
 20
36.47838078439024
 30
0.0
 10
62.87806289099083
 20
36.51853418935848
 30
0.0
  0
SPLINE
  5
9C
330
1F
100
AcDbEntity
  8
0
  6
Continuous
 62
     7
370
    25
100
AcDbSpline
210
0.0
220
0.0
230
1.0
 70
     8
 71
     3
 72
     8
 73
     4
 74
     0
 42
0.000000001
 43
0.00000001
 40
0.0
 40
0.0
 40
0.0
 40
0.0
 40
1.0
 40
1.0
 40
1.0
 40
1.0
 10
67.97453594513924
 20
48.38061982542522
 30
0.0
 10
68.30189406075037
 20
48.94762071393371
 30
0.0
 10
68.54749403705948
 20
49.5204938803482
 30
0.0
 10
68.66155654004497
 20
50.10281472506119
 30
0.0
  0
LINE
  5
9D
330
1F
100
AcDbEntity
  8
0
  6
Continuous
 62
     7
370
    25
100
AcDbLine
 10
68.66155654
 20
44.9362300262
 30
0.0
 11
68.66155654
 21
50.1028147251
 31
0.0
  0
ARC
  5
9E
330
1F
100
AcDbEntity
  8
0
  6
Continuous
 62
     7
370
    25
100
AcDbCircle
 10
69.2423523286
 20
47.5186966274
 30
0.0
 40
2.646971381555034
100
AcDbArc
 50
257.3250901839
 51
271.4877363346
  0
SPLINE
  5
9F
330
1F
100
AcDbEntity
  8
0
  6
Continuous
 62
     7
370
    25
100
AcDbSpline
210
0.0
220
0.0
230
1.0
 70
     8
 71
     3
 72
    10
 73
     6
 74
     0
 42
0.000000001
 43
0.00000001
 40
0.0
 40
0.0
 40
0.0
 40
0.0
 40
0.5
 40
0.5
 40
1.0
 40
1.0
 40
1.0
 40
1.0
 10
69.3110755928833
 20
44.87261752663862
 30
0.0
 10
69.3110755928833
 20
44.40891996706102
 30
0.0
 10
69.29279242497967
 20
43.94336970697999
 30
0.0
 10
69.29269249385094
 20
43.00820628497231
 30
0.0
 10
69.3110755928833
 20
42.53754628556229
 30
0.0
 10
69.3110755928833
 20
42.07366754798823
 30
0.0
  0
ARC
  5
A0
330
1F
100
AcDbEntity
  8
0
  6
Continuous
 62
     7
370
    25
100
AcDbCircle
 10
69.2423523286
 20
39.4275884472
 30
0.0
 40
2.646971381583472
100
AcDbArc
 50
88.5122636654
 51
102.674909816
  0
LINE
  5
A1
330
1F
100
AcDbEntity
  8
0
  6
Continuous
 62
     7
370
    25
100
AcDbLine
 10
68.66155654
 20
36.8434703496
 30
0.0
 11
68.66155654
 21
42.0100550485
 31
0.0
  0
SPLINE
  5
A2
330
1F
100
AcDbEntity
  8
0
  6
Continuous
 62
     7
370
    25
100
AcDbSpline
210
0.0
220
0.0
230
1.0
 70
     8
 71
     3
 72
     8
 73
     4
 74
     0
 42
0.000000001
 43
0.00000001
 40
0.0
 40
0.0
 40
0.0
 40
0.0
 40
1.0
 40
1.0
 40
1.0
 40
1.0
 10
68.66155654004497
 20
36.84347034956569
 30
0.0
 10
68.54725040772222
 20
37.42703498989727
 30
0.0
 10
68.30129814607712
 20
37.99969651518381
 30
0.0
 10
67.97453594513902
 20
38.5656652492016
 30
0.0
  0
LINE
  5
A3
330
1F
100
AcDbEntity
  8
0
  6
Continuous
 62
     7
370
    25
100
AcDbLine
 10
62.878062891
 20
53.2880971135
 30
0.0
 11
62.878062891
 21
51.2409660537
 31
0.0
  0
LINE
  5
A4
330
1F
100
AcDbEntity
  8
0
  6
Continuous
 62
     7
370
    25
100
AcDbLine
 10
67.9745359451
 20
53.2880971135
 30
0.0
 11
62.878062891
 21
53.2880971135
 31
0.0
  0
SPLINE
  5
A5
330
1F
100
AcDbEntity
  8
0
  6
Continuous
 62
     7
370
    25
100
AcDbSpline
210
0.0
220
0.0
230
1.0
 70
     8
 71
     3
 72
     8
 73
     4
 74
     0
 42
0.000000001
 43
0.00000001
 40
0.0
 40
0.0
 40
0.0
 40
0.0
 40
1.0
 40
1.0
 40
1.0
 40
1.0
 10
68.66155654004497
 20
51.56590221390118
 30
0.0
 10
68.54725040772222
 20
52.14946685423276
 30
0.0
 10
68.30129814607712
 20
52.72212837951931
 30
0.0
 10
67.97453594513902
 20
53.28809711353712
 30
0.0
  0
SPLINE
  5
A6
330
1F
100
AcDbEntity
  8
0
  6
Continuous
 62
     7
370
    25
100
AcDbSpline
210
0.0
220
0.0
230
1.0
 70
     8
 71
     3
 72
    10
 73
     6
 74
     0
 42
0.000000001
 43
0.00000001
 40
0.0
 40
0.0
 40
0.0
 40
0.0
 40
0.5
 40
0.5
 40
1.0
 40
1.0
 40
1.0
 40
1.0
 10
68.66155654004497
 20
50.10281472506119
 30
0.0
 10
68.70886430334279
 20
50.34433403214302
 30
0.0
 10
68.73359333245918
 20
50.58747505668333
 30
0.0
 10
68.73385625443379
 20
51.07729054615531
 30
0.0
 10
68.7091110127741
 20
51.32312338646268
 30
0.0
 10
68.66155654004497
 20
51.56590221390118
 30
0.0
  0
LINE
  5
A7
330
1F
100
AcDbEntity
  8
0
  6
Continuous
 62
     7
370
    25
100
AcDbLine
 10
62.878062891
 20
50.4277508853
 30
0.0
 11
62.878062891
 21
48.3806198254
 31
0.0
  0
ARC
  5
A8
330
1F
100
AcDbEntity
  8
0
  6
Continuous
 62
     7
370
    25
100
AcDbCircle
 10
69.2821232933
 20
50.6252471316
 30
0.0
 40
0.8111958547050534
100
AcDbArc
 50
220.0927969335
 51
272.0453715946
  0
LINE
  5
A9
330
1F
100
AcDbEntity
  8
0
  6
Continuous
 62
     7
370
    25
100
AcDbLine
 10
69.3110755929
 20
49.8145681082
 30
0.0
 11
69.3110755929
 21
44.8726175266
 31
0.0
  0
LINE
  5
AA
330
1F
100
AcDbEntity
  8
0
  6
Continuous
 62
     7
370
    25
100
AcDbLine
 10
69.3110755929
 20
42.073667548
 30
0.0
 11
69.3110755929
 21
37.1317169664
 31
0.0
  0
ARC
  5
AB
330
1F
100
AcDbEntity
  8
0
  6
Continuous
 62
     7
370
    25
100
AcDbCircle
 10
69.2821232933
 20
36.321037943
 30
0.0
 40
0.8111958547041942
100
AcDbArc
 50
87.9546284054
 51
139.9072030665
  0
LINE
  5
AC
330
1F
100
AcDbEntity
  8
0
  6
Continuous
 62
     7
370
    25
100
AcDbLine
 10
62.878062891
 20
35.7053190209
 30
0.0
 11
62.878062891
 21
33.6581879611
 31
0.0
  0
SPLINE
  5
AD
330
1F
100
AcDbEntity
  8
0
  6
Continuous
 62
     7
370
    25
100
AcDbSpline
210
0.0
220
0.0
230
1.0
 70
     8
 71
     3
 72
    10
 73
     6
 74
     0
 42
0.000000001
 43
0.00000001
 40
0.0
 40
0.0
 40
0.0
 40
0.0
 40
0.5
 40
0.5
 40
1.0
 40
1.0
 40
1.0
 40
1.0
 10
68.66155654004497
 20
35.38038286072572
 30
0.0
 10
68.70886430334279
 20
35.62190216780755
 30
0.0
 10
68.73359333245918
 20
35.86504319234786
 30
0.0
 10
68.73385625443379
 20
36.35485868181983
 30
0.0
 10
68.7091110127741
 20
36.6006915221272
 30
0.0
 10
68.66155654004497
 20
36.84347034956569
 30
0.0
  0
SPLINE
  5
AE
330
1F
100
AcDbEntity
  8
0
  6
Continuous
 62
     7
370
    25
100
AcDbSpline
210
0.0
220
0.0
230
1.0
 70
     8
 71
     3
 72
     8
 73
     4
 74
     0
 42
0.000000001
 43
0.00000001
 40
0.0
 40
0.0
 40
0.0
 40
0.0
 40
1.0
 40
1.0
 40
1.0
 40
1.0
 10
67.97453594513924
 20
33.65818796108977
 30
0.0
 10
68.30189406075037
 20
34.22518884959825
 30
0.0
 10
68.54749403705948
 20
34.79806201601274
 30
0.0
 10
68.66155654004497
 20
35.38038286072572
 30
0.0
  0
LINE
  5
AF
330
1F
100
AcDbEntity
  8
0
  6
Continuous
 62
     7
370
    25
100
AcDbLine
 10
67.9745359451
 20
33.6581879611
 30
0.0
 11
62.878062891
 21
33.6581879611
 31
0.0
  0
LINE
  5
B0
330
1F
100
AcDbEntity
  8
0
  6
Continuous
 62
     7
370
    25
100
AcDbLine
 10
62.878062891
 20
38.5656652492
 30
0.0
 11
62.878062891
 21
36.5185341894
 31
0.0
  0
LINE
  5
B1
330
1F
100
AcDbEntity
  8
0
  6
Continuous
 62
     7
370
    25
100
AcDbLine
 10
73.378062891
 20
51.8041425373
 30
0.0
 11
73.378062891
 21
35.1421425373
 31
0.0
  0
LINE
  5
B2
330
1F
100
AcDbEntity
  8
0
  6
Continuous
 62
     7
370
    25
100
AcDbLine
 10
72.378062891
 20
36.1421425373
 30
0.0
 11
72.378062891
 21
50.8041425373
 31
0.0
  0
LINE
  5
B3
330
1F
100
AcDbEntity
  8
0
  6
Continuous
 62
     7
370
    25
100
AcDbLine
 10
70.378062891
 20
51.5231425373
 30
0.0
 11
70.378062891
 21
35.4231425373
 31
0.0
  0
LINE
  5
B4
330
1F
100
AcDbEntity
  8
0
  6
Continuous
 62
     7
370
    25
100
AcDbLine
 10
70.178062891
 20
35.2231425373
 30
0.0
 11
70.178062891
 21
51.7231425373
 31
0.0
  0
SPLINE
  5
B5
330
1F
100
AcDbEntity
  8
0
  6
Continuous
 62
     7
370
    25
100
AcDbSpline
210
0.0
220
0.0
230
1.0
 70
     8
 71
     3
 72
    10
 73
     6
 74
     0
 42
0.000000001
 43
0.00000001
 40
0.0
 40
0.0
 40
0.0
 40
0.0
 40
0.5
 40
0.5
 40
1.0
 40
1.0
 40
1.0
 40
1.0
 10
69.3110755928833
 20
37.13171696642428
 30
0.0
 10
69.3110755928833
 20
36.83074610433172
 30
0.0
 10
69.29279242497968
 20
36.56367675622937
 30
0.0
 10
69.29269249385092
 20
36.095835349264
 30
0.0
 10
69.3110755928833
 20
35.89503225589171
 30
0.0
 10
69.3110755928833
 20
35.7322419770991
 30
0.0
  0
SPLINE
  5
B6
330
1F
100
AcDbEntity
  8
0
  6
Continuous
 62
     7
370
    25
100
AcDbSpline
210
0.0
220
0.0
230
1.0
 70
     8
 71
     3
 72
    10
 73
     6
 74
     0
 42
0.000000001
 43
0.00000001
 40
0.0
 40
0.0
 40
0.0
 40
0.0
 40
0.4999999999999998
 40
0.4999999999999998
 40
1.0
 40
1.0
 40
1.0
 40
1.0
 10
69.3110755928833
 20
51.21404309752778
 30
0.0
 10
69.3110755928833
 20
51.05131640004246
 30
0.0
 10
69.29279242497967
 20
50.8528354880638
 30
0.0
 10
69.29269249385092
 20
50.38551347302227
 30
0.0
 10
69.3110755928833
 20
50.11565656698433
 30
0.0
 10
69.3110755928833
 20
49.81456810820259
 30
0.0
  0
LINE
  5
B7
330
1F
100
AcDbEntity
  8
0
  6
Continuous
 62
     7
370
    25
100
AcDbLine
 10
49.878062891
 20
43.4731425373
 30
0.0
 11
49.878062891
 21
50.4731425373
 31
0.0
  0
LINE
  5
B8
330
1F
100
AcDbEntity
  8
0
  6
Continuous
 62
     7
370
    25
100
AcDbLine
 10
49.878062891
 20
36.4731425373
 30
0.0
 11
49.878062891
 21
43.4731425373
 31
0.0
  0
ARC
  5
B9
330
1F
100
AcDbEntity
  8
0
  6
Continuous
 62
     7
370
    25
100
AcDbCircle
 10
69.3026120582
 20
34.9724415928
 30
0.0
 40
0.7598475211157328
100
AcDbArc
 50
89.3617997903
 51
147.5290082721
  0
ARC
  5
BA
330
1F
100
AcDbEntity
  8
0
  6
Continuous
 62
     7
370
    25
100
AcDbCircle
 10
69.3026120582
 20
51.9738434818
 30
0.0
 40
0.7598475211167219
100
AcDbArc
 50
212.470991728
 51
270.6382002097
  0
SPLINE
  5
BB
330
1F
100
AcDbEntity
  8
0
  6
Continuous
 62
     7
370
    25
100
AcDbSpline
210
0.0
220
0.0
230
1.0
 70
     8
 71
     3
 72
    13
 73
     9
 74
     0
 42
0.000000001
 43
0.00000001
 40
0.0
 40
0.0
 40
0.0
 40
0.0
 40
0.1365245485709977
 40
0.2730742214951814
 40
0.4115382417990803
 40
0.5499846193303997
 40
0.773937035610281
 40
1.0
 40
1.0
 40
1.0
 40
1.0
 10
89.33772170655672
 20
45.67082464631928
 30
0.0
 10
89.33499211765461
 20
45.47312879775369
 30
0.0
 10
89.32953243752932
 20
45.07770071903127
 30
0.0
 10
89.30069318470537
 20
44.47473307765238
 30
0.0
 10
89.27964018684284
 20
43.86561537070826
 30
0.0
 10
89.27339355405527
 20
43.12551870351493
 30
0.0
 10
89.31509271716727
 20
42.25681393222256
 30
0.0
 10
89.3301551627384
 20
41.60359944330558
 30
0.0
 10
89.33772170655672
 20
41.27546042830755
 30
0.0
  0
ARC
  5
BC
330
1F
100
AcDbEntity
  8
0
  6
Continuous
 62
     7
370
    25
100
AcDbCircle
 10
89.2477129956
 20
38.4509715651
 30
0.0
 40
2.825922664582093
100
AcDbArc
 50
88.1747583904
 51
105.9385646811
  0
SPLINE
  5
BD
330
1F
100
AcDbEntity
  8
0
  6
Continuous
 62
     7
370
    25
100
AcDbSpline
210
0.0
220
0.0
230
1.0
 70
     8
 71
     3
 72
    12
 73
     8
 74
     0
 42
0.000000001
 43
0.00000001
 40
0.0
 40
0.0
 40
0.0
 40
0.0
 40
0.1850710896720203
 40
0.3877424800495117
 40
0.590410823073341
 40
0.7952015463110216
 40
1.0
 40
1.0
 40
1.0
 40
1.0
 10
88.47169630277234
 20
45.77802865163665
 30
0.0
 10
88.50319516421965
 20
45.49464232363589
 30
0.0
 10
88.56918843565907
 20
44.90091956647336
 30
0.0
 10
88.61615997181977
 20
43.99206284093308
 30
0.0
 10
88.61895447719628
 20
43.05195497574593
 30
0.0
 10
88.57494128704255
 20
42.10920498603684
 30
0.0
 10
88.50611173055117
 20
41.48190989045946
 30
0.0
 10
88.4716963027723
 20
41.1682564229902
 30
0.0
  0
ARC
  5
BE
330
1F
100
AcDbEntity
  8
0
  6
Continuous
 62
     7
370
    25
100
AcDbCircle
 10
89.2477129956
 20
48.4953135095
 30
0.0
 40
2.825922664589474
100
AcDbArc
 50
254.061435319
 51
271.8252416096
  0
SPLINE
  5
BF
330
1F
100
AcDbEntity
  8
0
  6
Continuous
 62
     7
370
    25
100
AcDbSpline
210
0.0
220
0.0
230
1.0
 70
     8
 71
     3
 72
    11
 73
     7
 74
     0
 42
0.000000001
 43
0.00000001
 40
0.0
 40
0.0
 40
0.0
 40
0.0
 40
0.2958382525912819
 40
0.5932610319616778
 40
0.796374459846219
 40
1.0
 40
1.0
 40
1.0
 40
1.0
 10
88.4716963027723
 20
53.71885233421166
 30
0.0
 10
88.51879843860318
 20
53.49212490471356
 30
0.0
 10
88.61325499202682
 20
53.03745568050106
 30
0.0
 10
88.62467095228737
 20
52.42331208350331
 30
0.0
 10
88.57461348479012
 20
51.88133302054743
 30
0.0
 10
88.5060308135412
 20
51.56988586455458
 30
0.0
 10
88.4716963027723
 20
51.41396621988844
 30
0.0
  0
SPLINE
  5
C0
330
1F
100
AcDbEntity
  8
0
  6
Continuous
 62
     7
370
    25
100
AcDbSpline
210
0.0
220
0.0
230
1.0
 70
     8
 71
     3
 72
    11
 73
     7
 74
     0
 42
0.000000001
 43
0.00000001
 40
0.0
 40
0.0
 40
0.0
 40
0.0
 40
0.2491624812892783
 40
0.4983406089177418
 40
0.7491635688579431
 40
0.9999999999999999
 40
0.9999999999999999
 40
0.9999999999999999
 40
0.9999999999999999
 10
88.4716963027723
 20
51.41396621988844
 30
0.0
 10
88.42808820678573
 20
51.25580547106855
 30
0.0
 10
88.3408692764105
 20
50.93947404160954
 30
0.0
 10
88.15545617866297
 20
50.46834581655363
 30
0.0
 10
87.93761936991875
 20
49.99968953514037
 30
0.0
 10
87.76468246898797
 20
49.69011285863321
 30
0.0
 10
87.67821169656077
 20
49.5353203638045
 30
0.0
  0
LINE
  5
C1
330
1F
100
AcDbEntity
  8
0
  6
Continuous
 62
     7
370
    25
100
AcDbLine
 10
87.6782116966
 20
49.5353203638
 30
0.0
 11
76.3425311782
 21
49.5353203638
 31
0.0
  0
SPLINE
  5
C2
330
1F
100
AcDbEntity
  8
0
  6
Continuous
 62
     7
370
    25
100
AcDbSpline
210
0.0
220
0.0
230
1.0
 70
     8
 71
     3
 72
    16
 73
    12
 74
     0
 42
0.000000001
 43
0.00000001
 40
0.0
 40
0.0
 40
0.0
 40
0.0
 40
0.1322996825587257
 40
0.2645619585584918
 40
0.3546998975276411
 40
0.4449068940618417
 40
0.5350279613378792
 40
0.6502124383324805
 40
0.7654148828573636
 40
0.8826961023800923
 40
0.9999999999999999
 40
0.9999999999999999
 40
0.9999999999999999
 40
0.9999999999999999
 10
76.34253117817345
 20
49.5353203638045
 30
0.0
 10
76.19974936024501
 20
49.79722619749298
 30
0.0
 10
75.91422609467773
 20
50.32096381332408
 30
0.0
 10
75.64193541356504
 20
51.03662125729599
 30
0.0
 10
75.48159038298715
 20
51.67310498998546
 30
0.0
 10
75.40686968168015
 20
52.22700280063518
 30
0.0
 10
75.39748741547776
 20
52.8335340205492
 30
0.0
 10
75.48075676027668
 20
53.4903890675191
 30
0.0
 10
75.67518378807061
 20
54.19740489237942
 30
0.0
 10
75.96042042016482
 20
54.90124355697305
 30
0.0
 10
76.21515271690731
 20
55.3653983554094
 30
0.0
 10
76.34253117817345
 20
55.5974981902956
 30
0.0
  0
LINE
  5
C3
330
1F
100
AcDbEntity
  8
0
  6
Continuous
 62
     7
370
    25
100
AcDbLine
 10
87.6782116966
 20
55.5974981903
 30
0.0
 11
76.3425311782
 21
55.5974981903
 31
0.0
  0
SPLINE
  5
C4
330
1F
100
AcDbEntity
  8
0
  6
Continuous
 62
     7
370
    25
100
AcDbSpline
210
0.0
220
0.0
230
1.0
 70
     8
 71
     3
 72
    11
 73
     7
 74
     0
 42
0.000000001
 43
0.00000001
 40
0.0
 40
0.0
 40
0.0
 40
0.0
 40
0.2492746065874178
 40
0.4985360879179713
 40
0.7492760649484994
 40
1.0
 40
1.0
 40
1.0
 40
1.0
 10
87.67821169656078
 20
55.5974981902956
 30
0.0
 10
87.76416061711926
 20
55.44367202514966
 30
0.0
 10
87.93605393269837
 20
55.13602779439089
 30
0.0
 10
88.15376840769603
 20
54.66838751869766
 30
0.0
 10
88.33996596396643
 20
54.19631335796592
 30
0.0
 10
88.427787126312
 20
53.87800261451144
 30
0.0
 10
88.4716963027723
 20
53.71885233421166
 30
0.0
  0
SPLINE
  5
C5
330
1F
100
AcDbEntity
  8
0
  6
Continuous
 62
     7
370
    25
100
AcDbSpline
210
0.0
220
0.0
230
1.0
 70
     8
 71
     3
 72
    10
 73
     6
 74
     0
 42
0.000000001
 43
0.00000001
 40
0.0
 40
0.0
 40
0.0
 40
0.0
 40
0.3258684952272098
 40
0.6527960511516884
 40
1.0
 40
1.0
 40
1.0
 40
1.0
 10
88.4716963027723
 20
41.1682564229902
 30
0.0
 10
88.41267934718103
 20
40.75483681583035
 30
0.0
 10
88.2944536330502
 20
39.92665400290007
 30
0.0
 10
88.02498957240903
 20
38.67287470746526
 30
0.0
 10
87.7960991618797
 20
37.83995220202532
 30
0.0
 10
87.67821169656077
 20
37.41096471082233
 30
0.0
  0
LINE
  5
C6
330
1F
100
AcDbEntity
  8
0
  6
Continuous
 62
     7
370
    25
100
AcDbLine
 10
87.6782116966
 20
37.4109647108
 30
0.0
 11
76.3425311782
 21
37.4109647108
 31
0.0
  0
SPLINE
  5
C7
330
1F
100
AcDbEntity
  8
0
  6
Continuous
 62
     7
370
    25
100
AcDbSpline
210
0.0
220
0.0
230
1.0
 70
     8
 71
     3
 72
    16
 73
    12
 74
     0
 42
0.000000001
 43
0.00000001
 40
0.0
 40
0.0
 40
0.0
 40
0.0
 40
0.1151108105905589
 40
0.2406803956034896
 40
0.366217666915262
 40
0.494847722290026
 40
0.6234766707927398
 40
0.7171032364566066
 40
0.810739512423133
 40
0.9053651295077384
 40
1.0
 40
1.0
 40
1.0
 40
1.0
 10
76.34253117817345
 20
37.41096471082233
 30
0.0
 10
76.21740674859505
 20
37.86644181369741
 30
0.0
 10
75.955789294456
 20
38.81877990206544
 30
0.0
 10
75.65924436813845
 20
40.29308879725866
 30
0.0
 10
75.45545527819874
 20
41.83901886359197
 30
0.0
 10
75.3828373636757
 20
43.40981873482603
 30
0.0
 10
75.4396443924274
 20
44.85005949267444
 30
0.0
 10
75.58616501588267
 20
46.1384755613394
 30
0.0
 10
75.78121383175659
 20
47.27885647961871
 30
0.0
 10
76.03138990979144
 20
48.41278057922881
 30
0.0
 10
76.23881404155523
 20
49.16112823943076
 30
0.0
 10
76.34253117817345
 20
49.5353203638045
 30
0.0
  0
SPLINE
  5
C8
330
1F
100
AcDbEntity
  8
0
  6
Continuous
 62
     7
370
    25
100
AcDbSpline
210
0.0
220
0.0
230
1.0
 70
     8
 71
     3
 72
    11
 73
     7
 74
     0
 42
0.000000001
 43
0.00000001
 40
0.0
 40
0.0
 40
0.0
 40
0.0
 40
0.2492746065874184
 40
0.4985360879179724
 40
0.7492760649485002
 40
1.0
 40
1.0
 40
1.0
 40
1.0
 10
87.67821169656077
 20
49.5353203638045
 30
0.0
 10
87.76416061711926
 20
49.22766803351263
 30
0.0
 10
87.93605393269837
 20
48.61237957199508
 30
0.0
 10
88.15376840769603
 20
47.67709902060861
 30
0.0
 10
88.33996596396648
 20
46.73295069914516
 30
0.0
 10
88.42778712631205
 20
46.0963292122362
 30
0.0
 10
88.47169630277234
 20
45.77802865163665
 30
0.0
  0
LINE
  5
C9
330
1F
100
AcDbEntity
  8
0
  6
Continuous
 62
     7
370
    25
100
AcDbLine
 10
88.4716963028
 20
35.5323188547
 30
0.0
 11
88.4716963028
 21
41.168256423
 31
0.0
  0
SPLINE
  5
CA
330
1F
100
AcDbEntity
  8
0
  6
Continuous
 62
     7
370
    25
100
AcDbSpline
210
0.0
220
0.0
230
1.0
 70
     8
 71
     3
 72
    11
 73
     7
 74
     0
 42
0.000000001
 43
0.00000001
 40
0.0
 40
0.0
 40
0.0
 40
0.0
 40
0.2492746065874177
 40
0.4985360879179713
 40
0.7492760649484991
 40
0.9999999999999999
 40
0.9999999999999999
 40
0.9999999999999999
 40
0.9999999999999999
 10
87.67821169656077
 20
37.41096471082232
 30
0.0
 10
87.76416061711924
 20
37.25713854567639
 30
0.0
 10
87.93605393269836
 20
36.94949431491763
 30
0.0
 10
88.15376840769605
 20
36.48185403922438
 30
0.0
 10
88.33996596396643
 20
36.00977987849267
 30
0.0
 10
88.427787126312
 20
35.69146913503818
 30
0.0
 10
88.4716963027723
 20
35.53231885473841
 30
0.0
  0
LINE
  5
CB
330
1F
100
AcDbEntity
  8
0
  6
Continuous
 62
     7
370
    25
100
AcDbLine
 10
88.4716963028
 20
45.7780286516
 30
0.0
 11
88.4716963028
 21
51.4139662199
 31
0.0
  0
SPLINE
  5
CC
330
1F
100
AcDbEntity
  8
0
  6
Continuous
 62
     7
370
    25
100
AcDbSpline
210
0.0
220
0.0
230
1.0
 70
     8
 71
     3
 72
    16
 73
    12
 74
     0
 42
0.000000001
 43
0.00000001
 40
0.0
 40
0.0
 40
0.0
 40
0.0
 40
0.1322996825587258
 40
0.2645619585584918
 40
0.354699897527641
 40
0.4449068940618417
 40
0.5350279613378793
 40
0.6502124383324805
 40
0.7654148828573637
 40
0.8826961023800924
 40
1.0
 40
1.0
 40
1.0
 40
1.0
 10
76.34253117817345
 20
31.3487868843313
 30
0.0
 10
76.19974936024501
 20
31.61069271801978
 30
0.0
 10
75.91422609467773
 20
32.13443033385088
 30
0.0
 10
75.64193541356504
 20
32.85008777782278
 30
0.0
 10
75.48159038298715
 20
33.48657151051223
 30
0.0
 10
75.40686968168015
 20
34.04046932116195
 30
0.0
 10
75.39748741547776
 20
34.64700054107596
 30
0.0
 10
75.48075676027669
 20
35.30385558804585
 30
0.0
 10
75.67518378807061
 20
36.01087141290617
 30
0.0
 10
75.96042042016482
 20
36.71471007749979
 30
0.0
 10
76.21515271690731
 20
37.17886487593613
 30
0.0
 10
76.34253117817345
 20
37.41096471082233
 30
0.0
  0
LINE
  5
CD
330
1F
100
AcDbEntity
  8
0
  6
Continuous
 62
     7
370
    25
100
AcDbLine
 10
75.2603714374
 20
43.4731425373
 30
0.0
 11
75.2603714374
 21
53.7231425373
 31
0.0
  0
LINE
  5
CE
330
1F
100
AcDbEntity
  8
0
  6
Continuous
 62
     7
370
    25
100
AcDbLine
 10
75.2603714374
 20
33.2231425373
 30
0.0
 11
75.2603714374
 21
43.4731425373
 31
0.0
  0
ARC
  5
CF
330
1F
100
AcDbEntity
  8
0
  6
Continuous
 62
     7
370
    25
100
AcDbCircle
 10
89.2948556648
 20
52.1441070152
 30
0.0
 40
1.100316734465891
100
AcDbArc
 50
221.5729649515
 51
272.2326889081
  0
LINE
  5
D0
330
1F
100
AcDbEntity
  8
0
  6
Continuous
 62
     7
370
    25
100
AcDbLine
 10
89.3377217066
 20
51.0446255835
 30
0.0
 11
89.3377217066
 21
45.6708246463
 31
0.0
  0
LINE
  5
D1
330
1F
100
AcDbEntity
  8
0
  6
Continuous
 62
     7
370
    25
100
AcDbLine
 10
89.3377217066
 20
41.2754604283
 30
0.0
 11
89.3377217066
 21
35.9016594911
 31
0.0
  0
ARC
  5
D2
330
1F
100
AcDbEntity
  8
0
  6
Continuous
 62
     7
370
    25
100
AcDbCircle
 10
89.2948556648
 20
34.8021780595
 30
0.0
 40
1.100316734465877
100
AcDbArc
 50
87.7673110919
 51
138.4270350485
  0
SPLINE
  5
D3
330
1F
100
AcDbEntity
  8
0
  6
Continuous
 62
     7
370
    25
100
AcDbSpline
210
0.0
220
0.0
230
1.0
 70
     8
 71
     3
 72
    11
 73
     7
 74
     0
 42
0.000000001
 43
0.00000001
 40
0.0
 40
0.0
 40
0.0
 40
0.0
 40
0.2958382525912817
 40
0.5932610319616779
 40
0.796374459846219
 40
1.0
 40
1.0
 40
1.0
 40
1.0
 10
88.4716963027723
 20
35.53231885473841
 30
0.0
 10
88.51879843860318
 20
35.30559142524032
 30
0.0
 10
88.61325499202682
 20
34.85092220102783
 30
0.0
 10
88.62467095228737
 20
34.23677860403008
 30
0.0
 10
88.57461348479012
 20
33.6947995410742
 30
0.0
 10
88.50603081354119
 20
33.38335238508134
 30
0.0
 10
88.4716963027723
 20
33.22743274041522
 30
0.0
  0
SPLINE
  5
D4
330
1F
100
AcDbEntity
  8
0
  6
Continuous
 62
     7
370
    25
100
AcDbSpline
210
0.0
220
0.0
230
1.0
 70
     8
 71
     3
 72
    11
 73
     7
 74
     0
 42
0.000000001
 43
0.00000001
 40
0.0
 40
0.0
 40
0.0
 40
0.0
 40
0.2491624812892784
 40
0.4983406089177418
 40
0.7491635688579433
 40
0.9999999999999999
 40
0.9999999999999999
 40
0.9999999999999999
 40
0.9999999999999999
 10
88.4716963027723
 20
33.22743274041522
 30
0.0
 10
88.42808820678573
 20
33.06927199159532
 30
0.0
 10
88.34086927641052
 20
32.75294056213632
 30
0.0
 10
88.15545617866297
 20
32.28181233708041
 30
0.0
 10
87.93761936991875
 20
31.81315605566718
 30
0.0
 10
87.76468246898797
 20
31.50357937916001
 30
0.0
 10
87.67821169656077
 20
31.3487868843313
 30
0.0
  0
LINE
  5
D5
330
1F
100
AcDbEntity
  8
0
  6
Continuous
 62
     7
370
    25
100
AcDbLine
 10
87.6782116966
 20
31.3487868843
 30
0.0
 11
76.3425311782
 21
31.3487868843
 31
0.0
  0
LINE
  5
D6
330
1F
100
AcDbEntity
  8
0
  6
Continuous
 62
     7
370
    25
100
AcDbLine
 10
90.2603714374
 20
53.5231425373
 30
0.0
 11
90.2603714374
 21
33.4231425373
 31
0.0
  0
LINE
  5
D7
330
1F
100
AcDbEntity
  8
0
  6
Continuous
 62
     7
370
    25
100
AcDbLine
 10
90.0603714374
 20
33.2231425373
 30
0.0
 11
90.0603714374
 21
53.7231425373
 31
0.0
  0
SPLINE
  5
D8
330
1F
100
AcDbEntity
  8
0
  6
Continuous
 62
     7
370
    25
100
AcDbSpline
210
0.0
220
0.0
230
1.0
 70
     8
 71
     3
 72
    13
 73
     9
 74
     0
 42
0.000000001
 43
0.00000001
 40
0.0
 40
0.0
 40
0.0
 40
0.0
 40
0.1365245485709984
 40
0.2730742214951827
 40
0.411538241799082
 40
0.5499846193304023
 40
0.7739370356102827
 40
1.0
 40
1.0
 40
1.0
 40
1.0
 10
89.33772170655672
 20
35.90165949113725
 30
0.0
 10
89.33499211765461
 20
35.7682831902406
 30
0.0
 10
89.32953243752932
 20
35.50150604346014
 30
0.0
 10
89.30069318470535
 20
35.13480757248331
 30
0.0
 10
89.27964018684283
 20
34.79363530285979
 30
0.0
 10
89.27339355405527
 20
34.41903623773888
 30
0.0
 10
89.31509271716729
 20
34.03301390230486
 30
0.0
 10
89.3301551627384
 20
33.81399861219516
 30
0.0
 10
89.33772170655672
 20
33.70397738213141
 30
0.0
  0
SPLINE
  5
D9
330
1F
100
AcDbEntity
  8
0
  6
Continuous
 62
     7
370
    25
100
AcDbSpline
210
0.0
220
0.0
230
1.0
 70
     8
 71
     3
 72
    13
 73
     9
 74
     0
 42
0.000000001
 43
0.00000001
 40
0.0
 40
0.0
 40
0.0
 40
0.0
 40
0.136524548570992
 40
0.2730742214951701
 40
0.411538241799063
 40
0.5499846193303763
 40
0.773937035610269
 40
1.0
 40
1.0
 40
1.0
 40
1.0
 10
89.33772170655672
 20
53.24230769249547
 30
0.0
 10
89.33499211765461
 20
53.17798814482654
 30
0.0
 10
89.32953243752934
 20
53.04933721288459
 30
0.0
 10
89.30069318470535
 20
52.81306804248253
 30
0.0
 10
89.27964018684284
 20
52.54512260516194
 30
0.0
 10
89.27339355405527
 20
52.17962500308953
 30
0.0
 10
89.31509271716727
 20
51.69694256723119
 30
0.0
 10
89.3301551627384
 20
51.26274336842391
 30
0.0
 10
89.33772170655672
 20
51.0446255834896
 30
0.0
  0
ARC
  5
DA
330
1F
100
AcDbEntity
  8
0
  6
Continuous
 62
     7
370
    25
100
AcDbCircle
 10
89.3290776612
 20
54.2517859088
 30
0.0
 40
1.009515224607419
100
AcDbArc
 50
211.8643766323
 51
270.4906051505
  0
ARC
  5
DB
330
1F
100
AcDbEntity
  8
0
  6
Continuous
 62
     7
370
    25
100
AcDbCircle
 10
89.3290776612
 20
32.6944991658
 30
0.0
 40
1.009515224613989
100
AcDbArc
 50
89.5093948497
 51
148.1356233675
  0
LINE
  5
DC
330
1F
100
AcDbEntity
  8
0
  6
Continuous
 62
     1
370
    25
100
AcDbLine
 10
69.3110755929
 20
35.7322419771
 30
0.0
 11
69.3110755929
 21
35.2231425373
 31
0.0
  0
LINE
  5
DD
330
1F
100
AcDbEntity
  8
0
  6
Continuous
 62
     1
370
    25
100
AcDbLine
 10
69.3110755929
 20
51.7231425373
 30
0.0
 11
69.3110755929
 21
51.2140430975
 31
0.0
  0
LINE
  5
DE
330
1F
100
AcDbEntity
  8
0
  6
Continuous
 62
     1
370
    25
100
AcDbLine
 10
68.66155654
 20
34.8481425373
 30
0.0
 11
68.66155654
 21
35.3803828607
 31
0.0
  0
LINE
  5
DF
330
1F
100
AcDbEntity
  8
0
  6
Continuous
 62
     1
370
    25
100
AcDbLine
 10
68.66155654
 20
51.5659022139
 30
0.0
 11
68.66155654
 21
52.0981425373
 31
0.0
  0
LINE
  5
E0
330
1F
100
AcDbEntity
  8
0
  6
Continuous
 62
     1
370
    25
100
AcDbLine
 10
89.3377217066
 20
33.7039773821
 30
0.0
 11
89.3377217066
 21
33.2231425373
 31
0.0
  0
LINE
  5
E1
330
1F
100
AcDbEntity
  8
0
  6
Continuous
 62
     1
370
    25
100
AcDbLine
 10
89.3377217066
 20
53.7231425373
 30
0.0
 11
89.3377217066
 21
53.2423076925
 31
0.0
  0
LINE
  5
E2
330
1F
100
AcDbEntity
  8
0
  6
Continuous
 62
     1
370
    25
100
AcDbLine
 10
88.4716963028
 20
53.7188523342
 30
0.0
 11
88.4716963028
 21
54.2231425373
 31
0.0
  0
LINE
  5
E3
330
1F
100
AcDbEntity
  8
0
  6
Continuous
 62
     1
370
    25
100
AcDbLine
 10
88.4716963028
 20
32.7231425373
 30
0.0
 11
88.4716963028
 21
33.2274327404
 31
0.0
  0
LINE
  5
E4
330
1F
100
AcDbEntity
  8
0
  6
Continuous
 62
     7
370
    25
100
AcDbLine
 10
61.636062891
 20
93.2229320896
 30
0.0
 11
51.9519723247
 21
92.9203042594
 31
0.0
  0
LINE
  5
E5
330
1F
100
AcDbEntity
  8
0
  6
Continuous
 62
     7
370
    25
100
AcDbLine
 10
51.9519723247
 20
76.5255599198
 30
0.0
 11
61.636062891
 21
76.2229320896
 31
0.0
  0
LINE
  5
E6
330
1F
100
AcDbEntity
  8
0
  6
Continuous
 62
     7
370
    25
100
AcDbLine
 10
73.378062891
 20
93.0539320896
 30
0.0
 11
72.378062891
 21
92.0539320896
 31
0.0
  0
LINE
  5
E7
330
1F
100
AcDbEntity
  8
0
  6
Continuous
 62
     7
370
    25
100
AcDbLine
 10
72.378062891
 20
77.3919320896
 30
0.0
 11
73.378062891
 21
76.3919320896
 31
0.0
  0
LINE
  5
E8
330
1F
100
AcDbEntity
  8
0
  6
Continuous
 62
     7
370
    25
100
AcDbLine
 10
73.378062891
 20
76.3919320896
 30
0.0
 11
75.2603714374
 21
76.3919320896
 31
0.0
  0
LINE
  5
E9
330
1F
100
AcDbEntity
  8
0
  6
Continuous
 62
     7
370
    25
100
AcDbLine
 10
75.2603714374
 20
93.0539320896
 30
0.0
 11
73.378062891
 21
93.0539320896
 31
0.0
  0
LINE
  5
EA
330
1F
100
AcDbEntity
  8
0
  6
Continuous
 62
     7
370
    25
100
AcDbLine
 10
70.178062891
 20
76.4729320896
 30
0.0
 11
70.378062891
 21
76.6729320896
 31
0.0
  0
LINE
  5
EB
330
1F
100
AcDbEntity
  8
0
  6
Continuous
 62
     7
370
    25
100
AcDbLine
 10
70.378062891
 20
92.7729320896
 30
0.0
 11
70.178062891
 21
92.9729320896
 31
0.0
  0
LINE
  5
EC
330
1F
100
AcDbEntity
  8
0
  6
Continuous
 62
     7
370
    25
100
AcDbLine
 10
70.178062891
 20
92.9729320896
 30
0.0
 11
69.2972746868
 21
92.9729320896
 31
0.0
  0
LINE
  5
ED
330
1F
100
AcDbEntity
  8
0
  6
Continuous
 62
     7
370
    25
100
AcDbLine
 10
69.2972746868
 20
76.4729320896
 30
0.0
 11
70.178062891
 21
76.4729320896
 31
0.0
  0
LINE
  5
EE
330
1F
100
AcDbEntity
  8
0
  6
Continuous
 62
     7
370
    25
100
AcDbLine
 10
51.9519723247
 20
92.9203042594
 30
0.0
 11
49.878062891
 21
91.7229320896
 31
0.0
  0
LINE
  5
EF
330
1F
100
AcDbEntity
  8
0
  6
Continuous
 62
     7
370
    25
100
AcDbLine
 10
49.878062891
 20
77.7229320896
 30
0.0
 11
51.9519723247
 21
76.5255599198
 31
0.0
  0
LINE
  5
F0
330
1F
100
AcDbEntity
  8
0
  6
Continuous
 62
     7
370
    25
100
AcDbLine
 10
70.378062891
 20
77.4729320896
 30
0.0
 11
72.378062891
 21
77.4729320896
 31
0.0
  0
LINE
  5
F1
330
1F
100
AcDbEntity
  8
0
  6
Continuous
 62
     7
370
    25
100
AcDbLine
 10
72.378062891
 20
91.9729320896
 30
0.0
 11
70.378062891
 21
91.9729320896
 31
0.0
  0
SPLINE
  5
F2
330
1F
100
AcDbEntity
  8
0
  6
Continuous
 62
     7
370
    25
100
AcDbSpline
210
0.0
220
0.0
230
1.0
 70
     8
 71
     3
 72
    14
 73
    10
 74
     0
 42
0.000000001
 43
0.00000001
 40
0.0
 40
0.0
 40
0.0
 40
0.0
 40
0.1049082710551107
 40
0.3084912187861509
 40
0.4993779770237606
 40
0.6779532117710827
 40
0.843682301988767
 40
0.9947395890712047
 40
1.0
 40
1.0
 40
1.0
 40
1.0
 10
69.29710564633051
 20
92.97628789627535
 30
0.0
 10
69.2746027479415
 20
92.97550979112059
 30
0.0
 10
69.20843116318059
 20
92.97322171025597
 30
0.0
 10
69.10256415888429
 20
92.9948738594275
 30
0.0
 10
68.9868090391595
 20
93.03521746237834
 30
0.0
 10
68.8860770052393
 20
93.09029163711725
 30
0.0
 10
68.8035724941005
 20
93.15352611328758
 30
0.0
 10
68.75334328259179
 20
93.200361669309
 30
0.0
 10
68.73448029318449
 20
93.22387450691312
 30
0.0
 10
68.73384551492911
 20
93.22466576209071
 30
0.0
  0
SPLINE
  5
F3
330
1F
100
AcDbEntity
  8
0
  6
Continuous
 62
     7
370
    25
100
AcDbSpline
210
0.0
220
0.0
230
1.0
 70
     8
 71
     3
 72
    14
 73
    10
 74
     0
 42
0.000000001
 43
0.00000001
 40
0.0
 40
0.0
 40
0.0
 40
0.0
 40
0.000945993868441
 40
0.1680704768127599
 40
0.3528554088518908
 40
0.5518786624049424
 40
0.76349127450507
 40
0.9831833916727687
 40
1.0
 40
1.0
 40
1.0
 40
1.0
 10
68.73085713789466
 20
76.21799881227479
 30
0.0
 10
68.73096908407376
 20
76.21814147569549
 30
0.0
 10
68.75085805833399
 20
76.24348784414508
 30
0.0
 10
68.80656851800333
 20
76.29548411515475
 30
0.0
 10
68.89970947834267
 20
76.36494645346254
 30
0.0
 10
69.01453012707736
 20
76.42346691149476
 30
0.0
 10
69.14470839868329
 20
76.46052438518844
 30
0.0
 10
69.24154060270682
 20
76.47684392835035
 30
0.0
 10
69.29228276386222
 20
76.47220658652448
 30
0.0
 10
69.29589071129858
 20
76.47187685509067
 30
0.0
  0
LINE
  5
F4
330
1F
100
AcDbEntity
  8
0
  6
Continuous
 62
     7
370
    25
100
AcDbLine
 10
75.4047090047
 20
95.2229320896
 30
0.0
 11
75.2603714374
 21
94.9729320896
 31
0.0
  0
LINE
  5
F5
330
1F
100
AcDbEntity
  8
0
  6
Continuous
 62
     7
370
    25
100
AcDbLine
 10
75.2603714374
 20
74.4729320896
 30
0.0
 11
75.4047090047
 21
74.2229320896
 31
0.0
  0
LINE
  5
F6
330
1F
100
AcDbEntity
  8
0
  6
Continuous
 62
     7
370
    25
100
AcDbLine
 10
90.0603714374
 20
74.4729320896
 30
0.0
 11
90.2603714374
 21
74.6729320896
 31
0.0
  0
LINE
  5
F7
330
1F
100
AcDbEntity
  8
0
  6
Continuous
 62
     7
370
    25
100
AcDbLine
 10
90.2603714374
 20
94.7729320896
 30
0.0
 11
90.0603714374
 21
94.9729320896
 31
0.0
  0
LINE
  5
F8
330
1F
100
AcDbEntity
  8
0
  6
Continuous
 62
     7
370
    25
100
AcDbLine
 10
90.0603714374
 20
94.9729320896
 30
0.0
 11
89.2799275686
 21
94.9729320896
 31
0.0
  0
LINE
  5
F9
330
1F
100
AcDbEntity
  8
0
  6
Continuous
 62
     7
370
    25
100
AcDbLine
 10
89.2799275686
 20
74.4729320896
 30
0.0
 11
90.0603714374
 21
74.4729320896
 31
0.0
  0
SPLINE
  5
FA
330
1F
100
AcDbEntity
  8
0
  6
Continuous
 62
     7
370
    25
100
AcDbSpline
210
0.0
220
0.0
230
1.0
 70
     8
 71
     3
 72
    14
 73
    10
 74
     0
 42
0.000000001
 43
0.00000001
 40
0.0
 40
0.0
 40
0.0
 40
0.0
 40
0.073673360357926
 40
0.2695947564058199
 40
0.4552424329145776
 40
0.630072688951102
 40
0.7926093066337785
 40
0.9400619550546145
 40
0.9999999999999999
 40
0.9999999999999999
 40
0.9999999999999999
 40
0.9999999999999999
 10
89.27979480487444
 20
94.9757306672125
 30
0.0
 10
89.26154407654771
 20
94.97498601020393
 30
0.0
 10
89.19475873333043
 20
94.9722610683273
 30
0.0
 10
89.08259914963774
 20
94.98995341510891
 30
0.0
 10
88.94981378783605
 20
95.02543754611112
 30
0.0
 10
88.83101865832765
 20
95.07614043590411
 30
0.0
 10
88.72950232840755
 20
95.13547137830611
 30
0.0
 10
88.65720383824409
 20
95.1878768838331
 30
0.0
 10
88.62392549319779
 20
95.21861597797707
 30
0.0
 10
88.61430770896305
 20
95.2274998925659
 30
0.0
  0
SPLINE
  5
FB
330
1F
100
AcDbEntity
  8
0
  6
Continuous
 62
     7
370
    25
100
AcDbSpline
210
0.0
220
0.0
230
1.0
 70
     8
 71
     3
 72
    13
 73
     9
 74
     0
 42
0.000000001
 43
0.00000001
 40
0.0
 40
0.0
 40
0.0
 40
0.0
 40
0.1525458381027188
 40
0.3305414508706611
 40
0.5229942467298225
 40
0.7275546659079931
 40
0.941854281732113
 40
1.0
 40
1.0
 40
1.0
 40
1.0
 10
88.61321802215167
 20
74.2185481653196
 30
0.0
 10
88.63983714224109
 20
74.24103975933686
 30
0.0
 10
88.69751634663429
 20
74.28977530146193
 30
0.0
 10
88.8060102897954
 20
74.35710888008194
 30
0.0
 10
88.93464346917322
 20
74.41581578512013
 30
0.0
 10
89.08028133202801
 20
74.45579672441558
 30
0.0
 10
89.19789814185872
 20
74.47471654868656
 30
0.0
 10
89.26529522462828
 20
74.47101558781637
 30
0.0
 10
89.27967921765885
 20
74.47022572283741
 30
0.0
  0
LINE
  5
FC
330
1F
100
AcDbEntity
  8
0
  6
Continuous
 62
     7
370
    25
100
AcDbLine
 10
62.878062891
 20
88.2686670949
 30
0.0
 11
62.878062891
 21
84.7229320896
 31
0.0
  0
SPLINE
  5
FD
330
1F
100
AcDbEntity
  8
0
  6
Continuous
 62
     7
370
    25
100
AcDbSpline
210
0.0
220
0.0
230
1.0
 70
     8
 71
     3
 72
    22
 73
    18
 74
     0
 42
0.000000001
 43
0.00000001
 40
0.0
 40
0.0
 40
0.0
 40
0.0
 40
0.2500000000000002
 40
0.2500000000000002
 40
0.3750000000000003
 40
0.3750000000000003
 40
0.4375000000000003
 40
0.4375000000000003
 40
0.5000000000000002
 40
0.5000000000000002
 40
0.5625000000000001
 40
0.5625000000000001
 40
0.6250000000000001
 40
0.6250000000000001
 40
0.7500000000000001
 40
0.7500000000000001
 40
1.0
 40
1.0
 40
1.0
 40
1.0
 10
62.87806289099085
 20
88.26866709494888
 30
0.0
 10
62.63254023391166
 20
88.33843637400331
 30
0.0
 10
62.39013874904317
 20
88.41519370395207
 30
0.0
 10
62.04291670663608
 20
88.56700360149316
 30
0.0
 10
61.93016245828518
 20
88.62307999758922
 30
0.0
 10
61.77989785350392
 20
88.73083168592969
 30
0.0
 10
61.73281962073548
 20
88.77111774116499
 30
0.0
 10
61.66022140608537
 20
88.86431924179941
 30
0.0
 10
61.63536608933261
 20
88.91869951686448
 30
0.0
 10
61.63679111367164
 20
89.03216852351153
 30
0.0
 10
61.66307144087831
 20
89.0864884722283
 30
0.0
 10
61.7371478321666
 20
89.17888551616723
 30
0.0
 10
61.78427492079678
 20
89.21854581218683
 30
0.0
 10
61.9343357361289
 20
89.32497664992952
 30
0.0
 10
62.04766977614395
 20
89.38110619943225
 30
0.0
 10
62.39137138409885
 20
89.53086637073673
 30
0.0
 10
62.63331985312888
 20
89.6076493466496
 30
0.0
 10
62.87806289099075
 20
89.67719708415149
 30
0.0
  0
LINE
  5
FE
330
1F
100
AcDbEntity
  8
0
  6
Continuous
 62
     7
370
    25
100
AcDbLine
 10
62.878062891
 20
93.2229320896
 30
0.0
 11
62.878062891
 21
89.6771970842
 31
0.0
  0
LINE
  5
FF
330
1F
100
AcDbEntity
  8
0
  6
Continuous
 62
     7
370
    25
100
AcDbLine
 10
67.9745359451
 20
93.2229320896
 30
0.0
 11
62.878062891
 21
93.2229320896
 31
0.0
  0
SPLINE
  5
100
330
1F
100
AcDbEntity
  8
0
  6
Continuous
 62
     7
370
    25
100
AcDbSpline
210
0.0
220
0.0
230
1.0
 70
     8
 71
     3
 72
     8
 73
     4
 74
     0
 42
0.000000001
 43
0.00000001
 40
0.0
 40
0.0
 40
0.0
 40
0.0
 40
1.0
 40
1.0
 40
1.0
 40
1.0
 10
68.66155654004497
 20
90.24000302284666
 30
0.0
 10
68.54725040772223
 20
91.25076662940168
 30
0.0
 10
68.30129814607712
 20
92.24264548673791
 30
0.0
 10
67.97453594513902
 20
93.22293208955222
 30
0.0
  0
SPLINE
  5
101
330
1F
100
AcDbEntity
  8
0
  6
Continuous
 62
     7
370
    25
100
AcDbSpline
210
0.0
220
0.0
230
1.0
 70
     8
 71
     3
 72
    10
 73
     6
 74
     0
 42
0.000000001
 43
0.00000001
 40
0.0
 40
0.0
 40
0.0
 40
0.0
 40
0.5000000000000002
 40
0.5000000000000002
 40
1.0
 40
1.0
 40
1.0
 40
1.0
 10
68.66155654004497
 20
87.70586115625778
 30
0.0
 10
68.70886430334278
 20
88.12418486713229
 30
0.0
 10
68.73359333245915
 20
88.5453174750404
 30
0.0
 10
68.73385625443376
 20
89.39370278913997
 30
0.0
 10
68.70911101277409
 20
89.81949775872125
 30
0.0
 10
68.66155654004497
 20
90.24000302284666
 30
0.0
  0
SPLINE
  5
102
330
1F
100
AcDbEntity
  8
0
  6
Continuous
 62
     7
370
    25
100
AcDbSpline
210
0.0
220
0.0
230
1.0
 70
     8
 71
     3
 72
     8
 73
     4
 74
     0
 42
0.000000001
 43
0.00000001
 40
0.0
 40
0.0
 40
0.0
 40
0.0
 40
1.0
 40
1.0
 40
1.0
 40
1.0
 10
67.97453594513924
 20
84.72293208955219
 30
0.0
 10
68.30189406075039
 20
85.70500643638562
 30
0.0
 10
68.54749403705948
 20
86.69725186690842
 30
0.0
 10
68.66155654004497
 20
87.70586115625778
 30
0.0
  0
LINE
  5
103
330
1F
100
AcDbEntity
  8
0
  6
Continuous
 62
     7
370
    25
100
AcDbLine
 10
67.9745359451
 20
84.7229320896
 30
0.0
 11
62.878062891
 21
84.7229320896
 31
0.0
  0
LINE
  5
104
330
1F
100
AcDbEntity
  8
0
  6
Continuous
 62
     7
370
    25
100
AcDbLine
 10
68.66155654
 20
81.7400030228
 30
0.0
 11
68.66155654
 21
87.7058611563
 31
0.0
  0
SPLINE
  5
105
330
1F
100
AcDbEntity
  8
0
  6
Continuous
 62
     7
370
    25
100
AcDbSpline
210
0.0
220
0.0
230
1.0
 70
     8
 71
     3
 72
     8
 73
     4
 74
     0
 42
0.000000001
 43
0.00000001
 40
0.0
 40
0.0
 40
0.0
 40
0.0
 40
1.0
 40
1.0
 40
1.0
 40
1.0
 10
68.66155654004497
 20
81.74000302284684
 30
0.0
 10
68.54725040772222
 20
82.75076662940181
 30
0.0
 10
68.30129814607712
 20
83.742645486738
 30
0.0
 10
67.97453594513902
 20
84.72293208955227
 30
0.0
  0
LINE
  5
106
330
1F
100
AcDbEntity
  8
0
  6
Continuous
 62
     7
370
    25
100
AcDbLine
 10
62.878062891
 20
79.768667095
 30
0.0
 11
62.878062891
 21
76.2229320896
 31
0.0
  0
SPLINE
  5
107
330
1F
100
AcDbEntity
  8
0
  6
Continuous
 62
     7
370
    25
100
AcDbSpline
210
0.0
220
0.0
230
1.0
 70
     8
 71
     3
 72
    22
 73
    18
 74
     0
 42
0.000000001
 43
0.00000001
 40
0.0
 40
0.0
 40
0.0
 40
0.0
 40
0.249999999999999
 40
0.249999999999999
 40
0.3749999999999986
 40
0.3749999999999986
 40
0.4374999999999987
 40
0.4374999999999987
 40
0.4999999999999988
 40
0.4999999999999988
 40
0.5624999999999989
 40
0.5624999999999989
 40
0.6249999999999989
 40
0.6249999999999989
 40
0.7499999999999992
 40
0.7499999999999992
 40
1.0
 40
1.0
 40
1.0
 40
1.0
 10
62.87806289098936
 20
79.76866709494963
 30
0.0
 10
62.6325402339105
 20
79.83843637400403
 30
0.0
 10
62.39013874904235
 20
79.91519370395277
 30
0.0
 10
62.04291670663578
 20
80.06700360149385
 30
0.0
 10
61.93016245828506
 20
80.12307999758988
 30
0.0
 10
61.7798978535041
 20
80.2308316859304
 30
0.0
 10
61.73281962073582
 20
80.27111774116575
 30
0.0
 10
61.66022140608604
 20
80.36431924180016
 30
0.0
 10
61.63536608933351
 20
80.41869951686525
 30
0.0
 10
61.63679111367294
 20
80.5321685235122
 30
0.0
 10
61.66307144087972
 20
80.58648847222882
 30
0.0
 10
61.73714783216806
 20
80.67888551616755
 30
0.0
 10
61.78427492079818
 20
80.71854581218713
 30
0.0
 10
61.93433573613017
 20
80.82497664992964
 30
0.0
 10
62.04766977614511
 20
80.88110619943231
 30
0.0
 10
62.39137138409964
 20
81.03086637073665
 30
0.0
 10
62.63331985312936
 20
81.10764934664941
 30
0.0
 10
62.87806289099096
 20
81.17719708415126
 30
0.0
  0
SPLINE
  5
108
330
1F
100
AcDbEntity
  8
0
  6
Continuous
 62
     7
370
    25
100
AcDbSpline
210
0.0
220
0.0
230
1.0
 70
     8
 71
     3
 72
    10
 73
     6
 74
     0
 42
0.000000001
 43
0.00000001
 40
0.0
 40
0.0
 40
0.0
 40
0.0
 40
0.5
 40
0.5
 40
1.0
 40
1.0
 40
1.0
 40
1.0
 10
68.66155654004497
 20
79.20586115625764
 30
0.0
 10
68.70886430334279
 20
79.62418486713219
 30
0.0
 10
68.73359333245918
 20
80.04531747504036
 30
0.0
 10
68.73385625443379
 20
80.89370278914004
 30
0.0
 10
68.7091110127741
 20
81.31949775872138
 30
0.0
 10
68.66155654004497
 20
81.74000302284684
 30
0.0
  0
SPLINE
  5
109
330
1F
100
AcDbEntity
  8
0
  6
Continuous
 62
     7
370
    25
100
AcDbSpline
210
0.0
220
0.0
230
1.0
 70
     8
 71
     3
 72
     8
 73
     4
 74
     0
 42
0.000000001
 43
0.00000001
 40
0.0
 40
0.0
 40
0.0
 40
0.0
 40
1.0
 40
1.0
 40
1.0
 40
1.0
 10
67.97453594513924
 20
76.22293208955216
 30
0.0
 10
68.30189406075037
 20
77.20500643638556
 30
0.0
 10
68.54749403705948
 20
78.19725186690832
 30
0.0
 10
68.66155654004497
 20
79.20586115625764
 30
0.0
  0
LINE
  5
10A
330
1F
100
AcDbEntity
  8
0
  6
Continuous
 62
     7
370
    25
100
AcDbLine
 10
67.9745359451
 20
76.2229320896
 30
0.0
 11
62.878062891
 21
76.2229320896
 31
0.0
  0
LINE
  5
10B
330
1F
100
AcDbEntity
  8
0
  6
Continuous
 62
     7
370
    25
100
AcDbLine
 10
62.878062891
 20
84.7229320896
 30
0.0
 11
62.878062891
 21
81.1771970842
 31
0.0
  0
ARC
  5
10C
330
1F
100
AcDbEntity
  8
0
  6
Continuous
 62
     7
370
    25
100
AcDbCircle
 10
69.2487797285
 20
88.9554706785
 30
0.0
 40
1.38070816295665
100
AcDbArc
 50
244.8299789717
 51
272.5859934179
  0
LINE
  5
10D
330
1F
100
AcDbEntity
  8
0
  6
Continuous
 62
     7
370
    25
100
AcDbLine
 10
69.3110755929
 20
87.5761685881
 30
0.0
 11
69.3110755929
 21
81.869695591
 31
0.0
  0
ARC
  5
10E
330
1F
100
AcDbEntity
  8
0
  6
Continuous
 62
     7
370
    25
100
AcDbCircle
 10
69.2487797285
 20
80.4903935006
 30
0.0
 40
1.380708162955035
100
AcDbArc
 50
87.4140065821
 51
115.1700210283
  0
LINE
  5
10F
330
1F
100
AcDbEntity
  8
0
  6
Continuous
 62
     7
370
    25
100
AcDbLine
 10
51.9519723247
 20
76.5255599198
 30
0.0
 11
51.9519723247
 21
92.9203042594
 31
0.0
  0
SPLINE
  5
110
330
1F
100
AcDbEntity
  8
0
  6
Continuous
 62
     7
370
    25
100
AcDbSpline
210
0.0
220
0.0
230
1.0
 70
    24
 71
     3
 72
    14
 73
    10
 74
     0
 42
0.000000001
 43
0.00000001
 40
0.0
 40
0.0
 40
0.0
 40
0.0
 40
0.0378040665135083
 40
0.09631890369858
 40
0.2019164923206701
 40
0.3457144795881386
 40
0.4933995559681497
 40
0.7458437909092656
 40
1.0
 40
1.0
 40
1.0
 40
1.0
 10
61.64124759622781
 20
76.22293208955223
 30
0.0
 10
61.64047239939872
 20
76.22293208955223
 30
0.0
 10
61.63849731799573
 20
76.22293208955223
 30
0.0
 10
61.68256736994373
 20
76.22293208955223
 30
0.0
 10
61.78382321513114
 20
76.22293208955223
 30
0.0
 10
61.95030675175045
 20
76.22293208955223
 30
0.0
 10
62.19548874971824
 20
76.22293208955224
 30
0.0
 10
62.50634454932197
 20
76.22293208955224
 30
0.0
 10
62.75387794409598
 20
76.22293208955223
 30
0.0
 10
62.87806289099107
 20
76.22293208955223
 30
0.0
  0
SPLINE
  5
111
330
1F
100
AcDbEntity
  8
0
  6
Continuous
 62
     7
370
    25
100
AcDbSpline
210
0.0
220
0.0
230
1.0
 70
    24
 71
     3
 72
    14
 73
    10
 74
     0
 42
0.000000001
 43
0.00000001
 40
0.0
 40
0.0
 40
0.0
 40
0.0
 40
0.252717209528797
 40
0.5066036052780308
 40
0.6511005237794586
 40
0.7980819597047647
 40
0.9036803578812608
 40
0.9621956436650697
 40
1.0
 40
1.0
 40
1.0
 40
1.0
 10
62.87806289099107
 20
93.22293208955223
 30
0.0
 10
62.75458239977331
 20
93.22293208955223
 30
0.0
 10
62.50705013970659
 20
93.22293208955223
 30
0.0
 10
62.19763873297925
 20
93.22293208955223
 30
0.0
 10
61.95175067346423
 20
93.22293208955223
 30
0.0
 10
61.78488078006814
 20
93.22293208955223
 30
0.0
 10
61.68256604270879
 20
93.22293208955223
 30
0.0
 10
61.63849746544069
 20
93.22293208955223
 30
0.0
 10
61.64047244095774
 20
93.22293208955223
 30
0.0
 10
61.64124759622781
 20
93.22293208955223
 30
0.0
  0
LINE
  5
112
330
1F
100
AcDbEntity
  8
0
  6
Continuous
 62
     7
370
    25
100
AcDbLine
 10
73.378062891
 20
93.0539320896
 30
0.0
 11
73.378062891
 21
76.3919320896
 31
0.0
  0
LINE
  5
113
330
1F
100
AcDbEntity
  8
0
  6
Continuous
 62
     7
370
    25
100
AcDbLine
 10
72.378062891
 20
77.3919320896
 30
0.0
 11
72.378062891
 21
92.0539320896
 31
0.0
  0
LINE
  5
114
330
1F
100
AcDbEntity
  8
0
  6
Continuous
 62
     7
370
    25
100
AcDbLine
 10
70.378062891
 20
92.7729320896
 30
0.0
 11
70.378062891
 21
76.6729320896
 31
0.0
  0
LINE
  5
115
330
1F
100
AcDbEntity
  8
0
  6
Continuous
 62
     7
370
    25
100
AcDbLine
 10
70.178062891
 20
76.4729320896
 30
0.0
 11
70.178062891
 21
92.9729320896
 31
0.0
  0
LINE
  5
116
330
1F
100
AcDbEntity
  8
0
  6
Continuous
 62
     7
370
    25
100
AcDbLine
 10
69.3110755929
 20
79.4457338055
 30
0.0
 11
69.3110755929
 21
76.5924973069
 31
0.0
  0
SPLINE
  5
117
330
1F
100
AcDbEntity
  8
0
  6
Continuous
 62
     7
370
    25
100
AcDbSpline
210
0.0
220
0.0
230
1.0
 70
     8
 71
     3
 72
    10
 73
     6
 74
     0
 42
0.000000001
 43
0.00000001
 40
0.0
 40
0.0
 40
0.0
 40
0.0
 40
0.4999999999999998
 40
0.4999999999999998
 40
1.0
 40
1.0
 40
1.0
 40
1.0
 10
69.3110755928833
 20
81.86969559096445
 30
0.0
 10
69.3110755928833
 20
81.42821407187222
 30
0.0
 10
69.29279242497967
 20
81.00523594387394
 30
0.0
 10
69.29269249385092
 20
80.19521072819246
 30
0.0
 10
69.3110755928833
 20
79.80754133082355
 30
0.0
 10
69.3110755928833
 20
79.44573380553132
 30
0.0
  0
SPLINE
  5
118
330
1F
100
AcDbEntity
  8
0
  6
Continuous
 62
     7
370
    25
100
AcDbSpline
210
0.0
220
0.0
230
1.0
 70
     8
 71
     3
 72
    10
 73
     6
 74
     0
 42
0.000000001
 43
0.00000001
 40
0.0
 40
0.0
 40
0.0
 40
0.0
 40
0.5
 40
0.5
 40
1.0
 40
1.0
 40
1.0
 40
1.0
 10
69.3110755928833
 20
90.00013037357296
 30
0.0
 10
69.3110755928833
 20
89.63846416013067
 30
0.0
 10
69.29279242497968
 20
89.25508558419175
 30
0.0
 10
69.29269249385095
 20
88.44536023957741
 30
0.0
 10
69.3110755928833
 20
88.01782260487751
 30
0.0
 10
69.3110755928833
 20
87.57616858814015
 30
0.0
  0
LINE
  5
119
330
1F
100
AcDbEntity
  8
0
  6
Continuous
 62
     7
370
    25
100
AcDbLine
 10
69.3110755929
 20
92.8533668722
 30
0.0
 11
69.3110755929
 21
90.0001303736
 31
0.0
  0
LINE
  5
11A
330
1F
100
AcDbEntity
  8
0
  6
Continuous
 62
     7
370
    25
100
AcDbLine
 10
49.878062891
 20
77.7229320896
 30
0.0
 11
49.878062891
 21
91.7229320896
 31
0.0
  0
ARC
  5
11B
330
1F
100
AcDbEntity
  8
0
  6
Continuous
 62
     7
370
    25
100
AcDbCircle
 10
69.2692684934
 20
78.5596284621
 30
0.0
 40
0.8870910400316732
100
AcDbArc
 50
87.2987462948
 51
133.2404470554
  0
ARC
  5
11C
330
1F
100
AcDbEntity
  8
0
  6
Continuous
 62
     7
370
    25
100
AcDbCircle
 10
69.2692684934
 20
90.8862357171
 30
0.0
 40
0.887091040033237
100
AcDbArc
 50
226.7595529447
 51
272.7012537052
  0
SPLINE
  5
11D
330
1F
100
AcDbEntity
  8
0
  6
Continuous
 62
     7
370
    25
100
AcDbSpline
210
0.0
220
0.0
230
1.0
 70
    24
 71
     3
 72
     8
 73
     4
 74
     0
 42
0.000000001
 43
0.00000001
 40
0.0
 40
0.0
 40
0.0
 40
0.0
 40
1.0
 40
1.0
 40
1.0
 40
1.0
 10
68.66155654004498
 20
93.22293208955222
 30
0.0
 10
68.54618804469729
 20
93.2229320895522
 30
0.0
 10
68.29875367941214
 20
93.22293208955219
 30
0.0
 10
67.97453594513881
 20
93.22293208955217
 30
0.0
  0
LINE
  5
11E
330
1F
100
AcDbEntity
  8
0
  6
Continuous
 62
     7
370
    25
100
AcDbLine
 10
68.66155654
 20
90.2400030228
 30
0.0
 11
68.66155654
 21
93.2229320896
 31
0.0
  0
ARC
  5
11F
330
1F
100
AcDbEntity
  8
0
  6
Continuous
 62
     7
370
    25
100
AcDbCircle
 10
69.3090394581
 20
93.6053429877
 30
0.0
 40
0.7519788721912392
100
AcDbArc
 50
210.566590009
 51
270.1551400925
  0
LINE
  5
120
330
1F
100
AcDbEntity
  8
0
  6
Continuous
 62
     7
370
    25
100
AcDbLine
 10
68.66155654
 20
76.2229320896
 30
0.0
 11
68.66155654
 21
79.2058611563
 31
0.0
  0
ARC
  5
121
330
1F
100
AcDbEntity
  8
0
  6
Continuous
 62
     7
370
    25
100
AcDbCircle
 10
69.3090394581
 20
75.8405211914
 30
0.0
 40
0.7519788721845877
100
AcDbArc
 50
89.8448599072
 51
149.4334099913
  0
SPLINE
  5
122
330
1F
100
AcDbEntity
  8
0
  6
Continuous
 62
     7
370
    25
100
AcDbSpline
210
0.0
220
0.0
230
1.0
 70
    24
 71
     3
 72
     8
 73
     4
 74
     0
 42
0.000000001
 43
0.00000001
 40
0.0
 40
0.0
 40
0.0
 40
0.0
 40
1.0
 40
1.0
 40
1.0
 40
1.0
 10
68.66155654004498
 20
76.22293208955223
 30
0.0
 10
68.54618804469783
 20
76.22293208955222
 30
0.0
 10
68.29875367941338
 20
76.22293208955222
 30
0.0
 10
67.97453594513881
 20
76.22293208955222
 30
0.0
  0
SPLINE
  5
123
330
1F
100
AcDbEntity
  8
0
  6
Continuous
 62
     7
370
    25
100
AcDbSpline
210
0.0
220
0.0
230
1.0
 70
    24
 71
     3
 72
     9
 73
     5
 74
     0
 42
0.000000001
 43
0.00000001
 40
0.0
 40
0.0
 40
0.0
 40
0.0
 40
0.1811601438108943
 40
0.9999999999999999
 40
0.9999999999999999
 40
0.9999999999999999
 40
0.9999999999999999
 10
68.66155654004497
 20
93.22293208955222
 30
0.0
 10
68.67035294188916
 20
93.22293208955222
 30
0.0
 10
68.71890888614466
 20
93.22293208955222
 30
0.0
 10
68.72596885084697
 20
93.22293208955222
 30
0.0
 10
68.73174983132853
 20
93.22293208955223
 30
0.0
  0
SPLINE
  5
124
330
1F
100
AcDbEntity
  8
0
  6
Continuous
 62
     7
370
    25
100
AcDbSpline
210
0.0
220
0.0
230
1.0
 70
    24
 71
     3
 72
     9
 73
     5
 74
     0
 42
0.000000001
 43
0.00000001
 40
0.0
 40
0.0
 40
0.0
 40
0.0
 40
0.7925831381468298
 40
1.0
 40
1.0
 40
1.0
 40
1.0
 10
68.72438510339921
 20
76.22293208955223
 30
0.0
 10
68.71942434314704
 20
76.22293208955223
 30
0.0
 10
68.71316536536489
 20
76.22293208955223
 30
0.0
 10
68.67042219442664
 20
76.22293208955223
 30
0.0
 10
68.66155654004497
 20
76.22293208955223
 30
0.0
  0
SPLINE
  5
125
330
1F
100
AcDbEntity
  8
0
  6
Continuous
 62
     7
370
    25
100
AcDbSpline
210
0.0
220
0.0
230
1.0
 70
     8
 71
     3
 72
    11
 73
     7
 74
     0
 42
0.000000001
 43
0.00000001
 40
0.0
 40
0.0
 40
0.0
 40
0.0
 40
0.2958382525912941
 40
0.5932610319617025
 40
0.7963744598462312
 40
1.0
 40
1.0
 40
1.0
 40
1.0
 10
88.4716963027723
 20
91.96902201738595
 30
0.0
 10
88.51879843860318
 20
91.57631859002576
 30
0.0
 10
88.61325499202681
 20
90.78880839305182
 30
0.0
 10
88.62467095228735
 20
89.7250804799087
 30
0.0
 10
88.5746134847901
 20
88.78634520623062
 30
0.0
 10
88.50603081354119
 20
88.24690290817824
 30
0.0
 10
88.4716963027723
 20
87.97684216171845
 30
0.0
  0
SPLINE
  5
126
330
1F
100
AcDbEntity
  8
0
  6
Continuous
 62
     7
370
    25
100
AcDbSpline
210
0.0
220
0.0
230
1.0
 70
     8
 71
     3
 72
    11
 73
     7
 74
     0
 42
0.000000001
 43
0.00000001
 40
0.0
 40
0.0
 40
0.0
 40
0.0
 40
0.24892233030968
 40
0.4983408013471691
 40
0.7490095813176884
 40
1.0
 40
1.0
 40
1.0
 40
1.0
 10
88.4716963027723
 20
87.97684216171845
 30
0.0
 10
88.42815009619606
 20
87.70316112166361
 30
0.0
 10
88.34097088871461
 20
87.1552535528859
 30
0.0
 10
88.15555240097594
 20
86.33940908063039
 30
0.0
 10
87.93766660273415
 20
85.52740952015728
 30
0.0
 10
87.76473362393544
 20
84.99120582872312
 30
0.0
 10
87.67821169656077
 20
84.72293208955223
 30
0.0
  0
LINE
  5
127
330
1F
100
AcDbEntity
  8
0
  6
Continuous
 62
     7
370
    25
100
AcDbLine
 10
87.6782116966
 20
84.7229320896
 30
0.0
 11
76.3425311782
 21
84.7229320896
 31
0.0
  0
SPLINE
  5
128
330
1F
100
AcDbEntity
  8
0
  6
Continuous
 62
     7
370
    25
100
AcDbSpline
210
0.0
220
0.0
230
1.0
 70
     8
 71
     3
 72
    16
 73
    12
 74
     0
 42
0.000000001
 43
0.00000001
 40
0.0
 40
0.0
 40
0.0
 40
0.0
 40
0.1322996825587275
 40
0.2645619585584952
 40
0.3546998975276455
 40
0.4449068940618474
 40
0.5350279613378861
 40
0.6502124383324858
 40
0.7654148828573671
 40
0.8826961023800941
 40
0.9999999999999999
 40
0.9999999999999999
 40
0.9999999999999999
 40
0.9999999999999999
 10
76.34253117817345
 20
84.72293208955223
 30
0.0
 10
76.19974936024502
 20
85.17656630029937
 30
0.0
 10
75.91422609467774
 20
86.08370646075383
 30
0.0
 10
75.64193541356505
 20
87.32326151452806
 30
0.0
 10
75.48159038298718
 20
88.4256836777373
 30
0.0
 10
75.40686968168016
 20
89.38506282798377
 30
0.0
 10
75.39748741547777
 20
90.43560571725159
 30
0.0
 10
75.48075676027672
 20
91.57331203181148
 30
0.0
 10
75.67518378807064
 20
92.79789936222474
 30
0.0
 10
75.96042042016484
 20
94.01698368963231
 30
0.0
 10
76.21515271690733
 20
94.82092338310095
 30
0.0
 10
76.34253117817345
 20
95.22293208955217
 30
0.0
  0
LINE
  5
129
330
1F
100
AcDbEntity
  8
0
  6
Continuous
 62
     7
370
    25
100
AcDbLine
 10
87.6782116966
 20
95.2229320896
 30
0.0
 11
76.3425311782
 21
95.2229320896
 31
0.0
  0
SPLINE
  5
12A
330
1F
100
AcDbEntity
  8
0
  6
Continuous
 62
     7
370
    25
100
AcDbSpline
210
0.0
220
0.0
230
1.0
 70
     8
 71
     3
 72
    11
 73
     7
 74
     0
 42
0.000000001
 43
0.00000001
 40
0.0
 40
0.0
 40
0.0
 40
0.0
 40
0.2491235585399947
 40
0.498535895604102
 40
0.749031553460586
 40
1.0
 40
1.0
 40
1.0
 40
1.0
 10
87.67821169656077
 20
95.22293208955217
 30
0.0
 10
87.76410946272216
 20
94.95665891706348
 30
0.0
 10
87.9360045658374
 20
94.42380391410846
 30
0.0
 10
88.1536479766057
 20
93.61409166361406
 30
0.0
 10
88.33996140513035
 20
92.7962837814239
 30
0.0
 10
88.4277570784855
 20
92.24494920786167
 30
0.0
 10
88.4716963027723
 20
91.96902201738595
 30
0.0
  0
SPLINE
  5
12B
330
1F
100
AcDbEntity
  8
0
  6
Continuous
 62
     7
370
    25
100
AcDbSpline
210
0.0
220
0.0
230
1.0
 70
     8
 71
     3
 72
    16
 73
    12
 74
     0
 42
0.000000001
 43
0.00000001
 40
0.0
 40
0.0
 40
0.0
 40
0.0
 40
0.1322996825587257
 40
0.2645619585584918
 40
0.3546998975276411
 40
0.4449068940618417
 40
0.5350279613378792
 40
0.6502124383324805
 40
0.7654148828573636
 40
0.8826961023800923
 40
0.9999999999999999
 40
0.9999999999999999
 40
0.9999999999999999
 40
0.9999999999999999
 10
76.34253117817345
 20
74.22293208955222
 30
0.0
 10
76.19974936024501
 20
74.67656630029934
 30
0.0
 10
75.91422609467773
 20
75.5837064607538
 30
0.0
 10
75.64193541356504
 20
76.82326151452804
 30
0.0
 10
75.48159038298715
 20
77.92568367773725
 30
0.0
 10
75.40686968168015
 20
78.88506282798375
 30
0.0
 10
75.39748741547776
 20
79.93560571725156
 30
0.0
 10
75.48075676027668
 20
81.07331203181147
 30
0.0
 10
75.67518378807061
 20
82.29789936222475
 30
0.0
 10
75.96042042016482
 20
83.51698368963234
 30
0.0
 10
76.21515271690731
 20
84.32092338310099
 30
0.0
 10
76.34253117817345
 20
84.72293208955223
 30
0.0
  0
SPLINE
  5
12C
330
1F
100
AcDbEntity
  8
0
  6
Continuous
 62
     7
370
    25
100
AcDbSpline
210
0.0
220
0.0
230
1.0
 70
    24
 71
     3
 72
    12
 73
     8
 74
     0
 42
0.000000001
 43
0.00000001
 40
0.0
 40
0.0
 40
0.0
 40
0.0
 40
0.2470023070936623
 40
0.4339513990207144
 40
0.6215040708204094
 40
0.810563604948897
 40
1.0
 40
1.0
 40
1.0
 40
1.0
 10
75.4075703250154
 20
74.22293208955223
 30
0.0
 10
75.41843268058535
 20
74.22293208955223
 30
0.0
 10
75.43751644725826
 20
74.22293208955223
 30
0.0
 10
75.58699336179906
 20
74.22293208955223
 30
0.0
 10
75.78077563961344
 20
74.22293208955222
 30
0.0
 10
76.03136455168546
 20
74.22293208955222
 30
0.0
 10
76.23874014275043
 20
74.22293208955222
 30
0.0
 10
76.34253117817345
 20
74.22293208955222
 30
0.0
  0
SPLINE
  5
12D
330
1F
100
AcDbEntity
  8
0
  6
Continuous
 62
     7
370
    25
100
AcDbSpline
210
0.0
220
0.0
230
1.0
 70
    24
 71
     3
 72
    12
 73
     8
 74
     0
 42
0.000000001
 43
0.00000001
 40
0.0
 40
0.0
 40
0.0
 40
0.0
 40
0.187216232602735
 40
0.3747613901318426
 40
0.5635882240401939
 40
0.7529950605045389
 40
1.0
 40
1.0
 40
1.0
 40
1.0
 10
76.34253117817345
 20
95.22293208955217
 30
0.0
 10
76.23990962928514
 20
95.22293208955219
 30
0.0
 10
76.03448623311803
 20
95.22293208955219
 30
0.0
 10
75.78417835303792
 20
95.2229320895522
 30
0.0
 10
75.5884996638637
 20
95.2229320895522
 30
0.0
 10
75.43807833814463
 20
95.22293208955222
 30
0.0
 10
75.41724556727317
 20
95.22293208955223
 30
0.0
 10
75.40545441590629
 20
95.22293208955223
 30
0.0
  0
LINE
  5
12E
330
1F
100
AcDbEntity
  8
0
  6
Continuous
 62
     7
370
    25
100
AcDbLine
 10
75.2603714374
 20
74.4729320896
 30
0.0
 11
75.2603714374
 21
94.9729320896
 31
0.0
  0
LINE
  5
12F
330
1F
100
AcDbEntity
  8
0
  6
Continuous
 62
     7
370
    25
100
AcDbLine
 10
88.4716963028
 20
81.4690220174
 30
0.0
 11
88.4716963028
 21
87.9768421617
 31
0.0
  0
SPLINE
  5
130
330
1F
100
AcDbEntity
  8
0
  6
Continuous
 62
     7
370
    25
100
AcDbSpline
210
0.0
220
0.0
230
1.0
 70
     8
 71
     3
 72
    11
 73
     7
 74
     0
 42
0.000000001
 43
0.00000001
 40
0.0
 40
0.0
 40
0.0
 40
0.0
 40
0.2491235585399946
 40
0.4985358956041022
 40
0.7490315534605863
 40
1.0
 40
1.0
 40
1.0
 40
1.0
 10
87.67821169656077
 20
84.72293208955223
 30
0.0
 10
87.76410946272216
 20
84.45665891706355
 30
0.0
 10
87.9360045658374
 20
83.92380391410855
 30
0.0
 10
88.1536479766057
 20
83.11409166361419
 30
0.0
 10
88.33996140513034
 20
82.29628378142404
 30
0.0
 10
88.4277570784855
 20
81.74494920786184
 30
0.0
 10
88.4716963027723
 20
81.46902201738614
 30
0.0
  0
SPLINE
  5
131
330
1F
100
AcDbEntity
  8
0
  6
Continuous
 62
     7
370
    25
100
AcDbSpline
210
0.0
220
0.0
230
1.0
 70
     8
 71
     3
 72
    11
 73
     7
 74
     0
 42
0.000000001
 43
0.00000001
 40
0.0
 40
0.0
 40
0.0
 40
0.0
 40
0.2958382525912818
 40
0.5932610319616777
 40
0.7963744598462188
 40
1.0
 40
1.0
 40
1.0
 40
1.0
 10
88.4716963027723
 20
81.46902201738614
 30
0.0
 10
88.51879843860318
 20
81.07631859002593
 30
0.0
 10
88.61325499202682
 20
80.28880839305197
 30
0.0
 10
88.62467095228737
 20
79.22508047990875
 30
0.0
 10
88.57461348479012
 20
78.28634520623059
 30
0.0
 10
88.5060308135412
 20
77.74690290817814
 30
0.0
 10
88.4716963027723
 20
77.47684216171832
 30
0.0
  0
SPLINE
  5
132
330
1F
100
AcDbEntity
  8
0
  6
Continuous
 62
     7
370
    25
100
AcDbSpline
210
0.0
220
0.0
230
1.0
 70
     8
 71
     3
 72
    11
 73
     7
 74
     0
 42
0.000000001
 43
0.00000001
 40
0.0
 40
0.0
 40
0.0
 40
0.0
 40
0.2489223303096803
 40
0.4983408013471693
 40
0.7490095813176887
 40
1.0
 40
1.0
 40
1.0
 40
1.0
 10
88.4716963027723
 20
77.47684216171832
 30
0.0
 10
88.42815009619605
 20
77.20316112166347
 30
0.0
 10
88.34097088871461
 20
76.65525355288577
 30
0.0
 10
88.15555240097592
 20
75.83940908063029
 30
0.0
 10
87.93766660273414
 20
75.02740952015722
 30
0.0
 10
87.76473362393541
 20
74.49120582872308
 30
0.0
 10
87.67821169656077
 20
74.22293208955222
 30
0.0
  0
LINE
  5
133
330
1F
100
AcDbEntity
  8
0
  6
Continuous
 62
     7
370
    25
100
AcDbLine
 10
87.6782116966
 20
74.2229320896
 30
0.0
 11
76.3425311782
 21
74.2229320896
 31
0.0
  0
ARC
  5
134
330
1F
100
AcDbEntity
  8
0
  6
Continuous
 62
     7
370
    25
100
AcDbCircle
 10
89.2520198865
 20
89.888554507
 30
0.0
 40
2.064836309838682
100
AcDbArc
 50
247.7956780275
 51
272.378766539
  0
LINE
  5
135
330
1F
100
AcDbEntity
  8
0
  6
Continuous
 62
     7
370
    25
100
AcDbLine
 10
89.3377217066
 20
87.8254975072
 30
0.0
 11
89.3377217066
 21
81.6203666719
 31
0.0
  0
ARC
  5
136
330
1F
100
AcDbEntity
  8
0
  6
Continuous
 62
     7
370
    25
100
AcDbCircle
 10
89.2520198865
 20
79.5573096721
 30
0.0
 40
2.064836309822711
100
AcDbArc
 50
87.6212334609
 51
112.2043219726
  0
LINE
  5
137
330
1F
100
AcDbEntity
  8
0
  6
Continuous
 62
     7
370
    25
100
AcDbLine
 10
90.2603714374
 20
94.7729320896
 30
0.0
 11
90.2603714374
 21
74.6729320896
 31
0.0
  0
LINE
  5
138
330
1F
100
AcDbEntity
  8
0
  6
Continuous
 62
     7
370
    25
100
AcDbLine
 10
90.0603714374
 20
74.4729320896
 30
0.0
 11
90.0603714374
 21
94.9729320896
 31
0.0
  0
LINE
  5
139
330
1F
100
AcDbEntity
  8
0
  6
Continuous
 62
     7
370
    25
100
AcDbLine
 10
89.3377217066
 20
77.8138696002
 30
0.0
 11
89.3377217066
 21
74.7113041826
 31
0.0
  0
SPLINE
  5
13A
330
1F
100
AcDbEntity
  8
0
  6
Continuous
 62
     7
370
    25
100
AcDbSpline
210
0.0
220
0.0
230
1.0
 70
     8
 71
     3
 72
    13
 73
     9
 74
     0
 42
0.000000001
 43
0.00000001
 40
0.0
 40
0.0
 40
0.0
 40
0.0
 40
0.136524548570992
 40
0.2730742214951701
 40
0.411538241799063
 40
0.5499846193303763
 40
0.773937035610269
 40
1.0
 40
1.0
 40
1.0
 40
1.0
 10
89.33772170655672
 20
81.62036667190549
 30
0.0
 10
89.33499211765461
 20
81.42922207729228
 30
0.0
 10
89.32953243752934
 20
81.04689771208943
 30
0.0
 10
89.30069318470535
 20
80.48706072109682
 30
0.0
 10
89.27964018684284
 20
79.93841054731732
 30
0.0
 10
89.27339355405527
 20
79.29484066620117
 30
0.0
 10
89.31509271716727
 20
78.57042363337312
 30
0.0
 10
89.3301551627384
 20
78.06684153565683
 30
0.0
 10
89.33772170655672
 20
77.81386960022222
 30
0.0
  0
SPLINE
  5
13B
330
1F
100
AcDbEntity
  8
0
  6
Continuous
 62
     7
370
    25
100
AcDbSpline
210
0.0
220
0.0
230
1.0
 70
     8
 71
     3
 72
    13
 73
     9
 74
     0
 42
0.000000001
 43
0.00000001
 40
0.0
 40
0.0
 40
0.0
 40
0.0
 40
0.1365245485710107
 40
0.2730742214952072
 40
0.4115382417991188
 40
0.5499846193304512
 40
0.7739370356103075
 40
1.0
 40
1.0
 40
1.0
 40
1.0
 10
89.33772170655672
 20
91.63199457888204
 30
0.0
 10
89.33499211765461
 20
91.48071991933423
 30
0.0
 10
89.32953243752934
 20
91.1781427614505
 30
0.0
 10
89.30069318470537
 20
90.69360916225492
 30
0.0
 10
89.27964018684285
 20
90.18723651981736
 30
0.0
 10
89.2733935540553
 20
89.54892137084234
 30
0.0
 10
89.3150927171673
 20
88.76869760301456
 30
0.0
 10
89.33015516273841
 20
88.14087901768661
 30
0.0
 10
89.33772170655672
 20
87.8254975071991
 30
0.0
  0
LINE
  5
13C
330
1F
100
AcDbEntity
  8
0
  6
Continuous
 62
     7
370
    25
100
AcDbLine
 10
89.3377217066
 20
94.7345599965
 30
0.0
 11
89.3377217066
 21
91.6319945789
 31
0.0
  0
ARC
  5
13D
330
1F
100
AcDbEntity
  8
0
  6
Continuous
 62
     7
370
    25
100
AcDbCircle
 10
89.2862418829
 20
76.6649693391
 30
0.0
 40
1.150053034581328
100
AcDbArc
 50
87.4344117638
 51
135.0941563294
  0
ARC
  5
13E
330
1F
100
AcDbEntity
  8
0
  6
Continuous
 62
     7
370
    25
100
AcDbCircle
 10
89.2862418829
 20
92.78089484
 30
0.0
 40
1.150053034573236
100
AcDbArc
 50
224.9058436705
 51
272.5655882364
  0
SPLINE
  5
13F
330
1F
100
AcDbEntity
  8
0
  6
Continuous
 62
     7
370
    25
100
AcDbSpline
210
0.0
220
0.0
230
1.0
 70
    24
 71
     3
 72
    11
 73
     7
 74
     0
 42
0.000000001
 43
0.00000001
 40
0.0
 40
0.0
 40
0.0
 40
0.0
 40
0.2489223303096799
 40
0.4983408013471693
 40
0.7490095813176887
 40
1.0
 40
1.0
 40
1.0
 40
1.0
 10
88.4716963027723
 20
95.2229320895522
 30
0.0
 10
88.42815009619606
 20
95.2229320895522
 30
0.0
 10
88.34097088871462
 20
95.2229320895522
 30
0.0
 10
88.15555240097595
 20
95.2229320895522
 30
0.0
 10
87.93766660273414
 20
95.22293208955219
 30
0.0
 10
87.76473362393541
 20
95.22293208955219
 30
0.0
 10
87.67821169656077
 20
95.22293208955217
 30
0.0
  0
LINE
  5
140
330
1F
100
AcDbEntity
  8
0
  6
Continuous
 62
     7
370
    25
100
AcDbLine
 10
88.4716963028
 20
91.9690220174
 30
0.0
 11
88.4716963028
 21
95.2229320896
 31
0.0
  0
ARC
  5
141
330
1F
100
AcDbEntity
  8
0
  6
Continuous
 62
     7
370
    25
100
AcDbCircle
 10
89.3333845521
 20
95.7389121528
 30
0.0
 40
1.004361520936628
100
AcDbArc
 50
210.9132304404
 51
270.2474222794
  0
LINE
  5
142
330
1F
100
AcDbEntity
  8
0
  6
Continuous
 62
     7
370
    25
100
AcDbLine
 10
88.4716963028
 20
74.2229320896
 30
0.0
 11
88.4716963028
 21
77.4768421617
 31
0.0
  0
ARC
  5
143
330
1F
100
AcDbEntity
  8
0
  6
Continuous
 62
     7
370
    25
100
AcDbCircle
 10
89.3333845521
 20
73.7069520263
 30
0.0
 40
1.004361520936826
100
AcDbArc
 50
89.7525777206
 51
149.0867695596
  0
SPLINE
  5
144
330
1F
100
AcDbEntity
  8
0
  6
Continuous
 62
     7
370
    25
100
AcDbSpline
210
0.0
220
0.0
230
1.0
 70
    24
 71
     3
 72
    11
 73
     7
 74
     0
 42
0.000000001
 43
0.00000001
 40
0.0
 40
0.0
 40
0.0
 40
0.0
 40
0.2491235585399952
 40
0.4985358956041036
 40
0.7490315534605874
 40
1.0
 40
1.0
 40
1.0
 40
1.0
 10
87.67821169656077
 20
74.22293208955222
 30
0.0
 10
87.76410946272217
 20
74.22293208955222
 30
0.0
 10
87.9360045658374
 20
74.22293208955222
 30
0.0
 10
88.1536479766057
 20
74.22293208955222
 30
0.0
 10
88.33996140513034
 20
74.22293208955222
 30
0.0
 10
88.42775707848553
 20
74.22293208955222
 30
0.0
 10
88.47169630277234
 20
74.22293208955222
 30
0.0
  0
SPLINE
  5
145
330
1F
100
AcDbEntity
  8
0
  6
Continuous
 62
     7
370
    25
100
AcDbSpline
210
0.0
220
0.0
230
1.0
 70
    24
 71
     3
 72
    10
 73
     6
 74
     0
 42
0.000000001
 43
0.00000001
 40
0.0
 40
0.0
 40
0.0
 40
0.0
 40
0.2635700899915737
 40
0.650644865460778
 40
1.0
 40
1.0
 40
1.0
 40
1.0
 10
88.61019836785431
 20
95.22293208955223
 30
0.0
 10
88.61163168883546
 20
95.22293208955223
 30
0.0
 10
88.61516996185031
 20
95.22293208955222
 30
0.0
 10
88.56863933392218
 20
95.22293208955222
 30
0.0
 10
88.50288806200685
 20
95.2229320895522
 30
0.0
 10
88.4716963027723
 20
95.2229320895522
 30
0.0
  0
SPLINE
  5
146
330
1F
100
AcDbEntity
  8
0
  6
Continuous
 62
     7
370
    25
100
AcDbSpline
210
0.0
220
0.0
230
1.0
 70
    24
 71
     3
 72
    10
 73
     6
 74
     0
 42
0.000000001
 43
0.00000001
 40
0.0
 40
0.0
 40
0.0
 40
0.0
 40
0.3932043967353148
 40
0.8232420788300773
 40
1.0
 40
1.0
 40
1.0
 40
1.0
 10
88.47169630277234
 20
74.22293208955222
 30
0.0
 10
88.50271093789539
 20
74.22293208955223
 30
0.0
 10
88.56764549331959
 20
74.22293208955223
 30
0.0
 10
88.61162362673423
 20
74.22293208955223
 30
0.0
 10
88.61012121493714
 20
74.22293208955223
 30
0.0
 10
88.60968356643644
 20
74.22293208955223
 30
0.0
  0
SPLINE
  5
147
330
1F
100
AcDbEntity
  8
0
  6
Continuous
 62
     1
370
    25
100
AcDbSpline
210
0.0
220
0.0
230
1.0
 70
     8
 71
     3
 72
     9
 73
     5
 74
     0
 42
0.000000001
 43
0.00000001
 40
0.0
 40
0.0
 40
0.0
 40
0.0
 40
0.7089199715473478
 40
1.0
 40
1.0
 40
1.0
 40
1.0
 10
69.3110755928833
 20
76.59249730694354
 30
0.0
 10
69.30386165895014
 20
76.54172418320528
 30
0.0
 10
69.29368570930464
 20
76.4701037947608
 30
0.0
 10
69.29646553502646
 20
76.4838669678373
 30
0.0
 10
69.29727468677666
 20
76.48787315264802
 30
0.0
  0
SPLINE
  5
148
330
1F
100
AcDbEntity
  8
0
  6
Continuous
 62
     1
370
    25
100
AcDbSpline
210
0.0
220
0.0
230
1.0
 70
     8
 71
     3
 72
     9
 73
     5
 74
     0
 42
0.000000001
 43
0.00000001
 40
0.0
 40
0.0
 40
0.0
 40
0.0
 40
0.4282927988935002
 40
1.0
 40
1.0
 40
1.0
 40
1.0
 10
69.2972746867768
 20
92.95799102645549
 30
0.0
 10
69.29743332256714
 20
92.96035987370435
 30
0.0
 10
69.29780371354909
 20
92.96589077979237
 30
0.0
 10
69.30624795769639
 20
92.89429735097036
 30
0.0
 10
69.3110755928833
 20
92.85336687216092
 30
0.0
  0
SPLINE
  5
149
330
1F
100
AcDbEntity
  8
0
  6
Continuous
 62
     1
370
    25
100
AcDbSpline
210
0.0
220
0.0
230
1.0
 70
     8
 71
     3
 72
    11
 73
     7
 74
     0
 42
0.000000001
 43
0.00000001
 40
0.0
 40
0.0
 40
0.0
 40
0.0
 40
0.2724800674223386
 40
0.5460771155089241
 40
0.8223721001552683
 40
1.0
 40
1.0
 40
1.0
 40
1.0
 10
89.33772170655672
 20
74.71130418257549
 30
0.0
 10
89.33496816990954
 20
74.67142433850177
 30
0.0
 10
89.32944980901084
 20
74.59150117045233
 30
0.0
 10
89.3014930433222
 20
74.51736854893574
 30
0.0
 10
89.27965457121978
 20
74.4763463691441
 30
0.0
 10
89.27985078622348
 20
74.47694463132694
 30
0.0
 10
89.27992756855858
 20
74.47717874169838
 30
0.0
  0
SPLINE
  5
14A
330
1F
100
AcDbEntity
  8
0
  6
Continuous
 62
     1
370
    25
100
AcDbSpline
210
0.0
220
0.0
230
1.0
 70
     8
 71
     3
 72
    10
 73
     6
 74
     0
 42
0.000000001
 43
0.00000001
 40
0.0
 40
0.0
 40
0.0
 40
0.0
 40
0.0998571812571933
 40
0.5478177797475345
 40
1.0
 40
1.0
 40
1.0
 40
1.0
 10
89.27992756855977
 20
94.96868543740409
 30
0.0
 10
89.27928800390862
 20
94.96971129768309
 30
0.0
 10
89.27577934401275
 20
94.97533918035799
 30
0.0
 10
89.31654496992466
 20
94.91869485374835
 30
0.0
 10
89.33064075818125
 20
94.7961298899809
 30
0.0
 10
89.33772170655672
 20
94.73455999652896
 30
0.0
  0
CIRCLE
  5
14B
330
1F
100
AcDbEntity
  8
0
  6
Continuous
 62
     7
370
    25
100
AcDbCircle
 10
121.8368813433
 20
43.4731425373
 30
0.0
 40
4.0
  0
CIRCLE
  5
14C
330
1F
100
AcDbEntity
  8
0
  6
Continuous
 62
     7
370
    25
100
AcDbCircle
 10
121.8368813433
 20
43.4731425373
 30
0.0
 40
10.05000000000001
  0
CIRCLE
  5
14D
330
1F
100
AcDbEntity
  8
0
  6
Continuous
 62
     7
370
    25
100
AcDbCircle
 10
121.8368813433
 20
43.4731425373
 30
0.0
 40
10.25
  0
CIRCLE
  5
14E
330
1F
100
AcDbEntity
  8
0
  6
Continuous
 62
     7
370
    25
100
AcDbCircle
 10
121.8368813433
 20
43.4731425373
 30
0.0
 40
5.175000000000011
  0
CIRCLE
  5
14F
330
1F
100
AcDbEntity
  8
0
  6
Continuous
 62
     7
370
    25
100
AcDbCircle
 10
121.8368813433
 20
43.4731425373
 30
0.0
 40
5.074999999999989
  0
LINE
  5
150
330
1F
100
AcDbEntity
  8
0
  6
Continuous
 62
     7
370
    25
100
AcDbLine
 10
132.3368813433
 20
45.7780286516
 30
0.0
 11
131.8485092503
 21
45.6708246463
 31
0.0
  0
SPLINE
  5
151
330
1F
100
AcDbEntity
  8
0
  6
Continuous
 62
     7
370
    25
100
AcDbSpline
210
0.0
220
0.0
230
1.0
 70
    24
 71
     3
 72
    12
 73
     8
 74
     0
 42
0.000000001
 43
0.00000001
 40
0.0
 40
0.0
 40
0.0
 40
0.0
 40
0.2024401144251292
 40
0.4053721074661994
 40
0.6098764258919307
 40
0.8149291984652183
 40
1.0
 40
1.0
 40
1.0
 40
1.0
 10
132.3368813432836
 20
41.16825642299035
 30
0.0
 10
132.3368813432836
 20
41.47828858114065
 30
0.0
 10
132.3368813432835
 20
42.09910619769146
 30
0.0
 10
132.3368813432835
 20
43.03814733172764
 30
0.0
 10
132.3368813432835
 20
43.98190110399275
 30
0.0
 10
132.3368813432835
 20
44.89727087232527
 30
0.0
 10
132.3368813432835
 20
45.49464175656674
 30
0.0
 10
132.3368813432835
 20
45.77802865163678
 30
0.0
  0
LINE
  5
152
330
1F
100
AcDbEntity
  8
0
  6
Continuous
 62
     7
370
    25
100
AcDbLine
 10
131.8485092503
 20
41.2754604283
 30
0.0
 11
132.3368813433
 21
41.168256423
 31
0.0
  0
LINE
  5
153
330
1F
100
AcDbEntity
  8
0
  6
Continuous
 62
     7
370
    25
100
AcDbLine
 10
118.7343159256
 20
33.7039773821
 30
0.0
 11
118.5829712711
 21
33.2274327404
 31
0.0
  0
SPLINE
  5
154
330
1F
100
AcDbEntity
  8
0
  6
Continuous
 62
     7
370
    25
100
AcDbSpline
210
0.0
220
0.0
230
1.0
 70
    24
 71
     3
 72
    11
 73
     7
 74
     0
 42
0.000000001
 43
0.00000001
 40
0.0
 40
0.0
 40
0.0
 40
0.0
 40
0.2958382525912816
 40
0.5932610319616778
 40
0.796374459846219
 40
1.0
 40
1.0
 40
1.0
 40
1.0
 10
114.5907914154497
 20
35.53231885473841
 30
0.0
 10
114.9834948428099
 20
35.30559142524032
 30
0.0
 10
115.7710050397838
 20
34.85092220102783
 30
0.0
 10
116.834732952927
 20
34.23677860403009
 30
0.0
 10
117.7734682266052
 20
33.6947995410742
 30
0.0
 10
118.3129105246577
 20
33.38335238508134
 30
0.0
 10
118.5829712711175
 20
33.22743274041522
 30
0.0
  0
LINE
  5
155
330
1F
100
AcDbEntity
  8
0
  6
Continuous
 62
     7
370
    25
100
AcDbLine
 10
114.927818854
 20
35.9016594911
 30
0.0
 11
114.5907914154
 21
35.5323188547
 31
0.0
  0
SPLINE
  5
156
330
1F
100
AcDbEntity
  8
0
  6
Continuous
 62
     7
370
    25
100
AcDbSpline
210
0.0
220
0.0
230
1.0
 70
    24
 71
     3
 72
    11
 73
     7
 74
     0
 42
0.000000001
 43
0.00000001
 40
0.0
 40
0.0
 40
0.0
 40
0.0
 40
0.2958382525912941
 40
0.5932610319617025
 40
0.7963744598462312
 40
1.0
 40
1.0
 40
1.0
 40
1.0
 10
129.0829712711172
 20
51.41396621988863
 30
0.0
 10
128.6902678437571
 20
51.64069364938671
 30
0.0
 10
127.9027576467831
 20
52.09536287359919
 30
0.0
 10
126.83902973364
 20
52.70950647059689
 30
0.0
 10
125.9002944599619
 20
53.25148553355271
 30
0.0
 10
125.3608521619095
 20
53.56293268954551
 30
0.0
 10
125.0907914154498
 20
53.71885233421162
 30
0.0
  0
LINE
  5
157
330
1F
100
AcDbEntity
  8
0
  6
Continuous
 62
     7
370
    25
100
AcDbLine
 10
129.0829712711
 20
51.4139662199
 30
0.0
 11
128.7459438326
 21
51.0446255835
 31
0.0
  0
LINE
  5
158
330
1F
100
AcDbEntity
  8
0
  6
Continuous
 62
     7
370
    25
100
AcDbLine
 10
125.0907914154
 20
53.7188523342
 30
0.0
 11
124.9394467609
 21
53.2423076925
 31
0.0
  0
LINE
  5
159
330
1F
100
AcDbEntity
  8
0
  6
Continuous
 62
     7
370
    25
100
AcDbLine
 10
111.8252534363
 20
41.2754604283
 30
0.0
 11
111.3368813433
 21
41.168256423
 31
0.0
  0
SPLINE
  5
15A
330
1F
100
AcDbEntity
  8
0
  6
Continuous
 62
     7
370
    25
100
AcDbSpline
210
0.0
220
0.0
230
1.0
 70
    24
 71
     3
 72
    12
 73
     8
 74
     0
 42
0.000000001
 43
0.00000001
 40
0.0
 40
0.0
 40
0.0
 40
0.0
 40
0.1850707909523943
 40
0.387478023998128
 40
0.5904107204321916
 40
0.7949436929440947
 40
0.9999999999999999
 40
0.9999999999999999
 40
0.9999999999999999
 40
0.9999999999999999
 10
111.3368813432835
 20
45.77802865163665
 30
0.0
 10
111.3368813432835
 20
45.49464193953109
 30
0.0
 10
111.3368813432835
 20
44.90132236344395
 30
0.0
 10
111.3368813432835
 20
43.99247406768368
 30
0.0
 10
111.3368813432835
 20
43.05276017753296
 30
0.0
 10
111.3368813432835
 20
42.10959399470082
 30
0.0
 10
111.3368813432835
 20
41.4823027780747
 30
0.0
 10
111.3368813432835
 20
41.1682564229902
 30
0.0
  0
LINE
  5
15B
330
1F
100
AcDbEntity
  8
0
  6
Continuous
 62
     7
370
    25
100
AcDbLine
 10
111.3368813433
 20
45.7780286516
 30
0.0
 11
111.8252534363
 21
45.6708246463
 31
0.0
  0
LINE
  5
15C
330
1F
100
AcDbEntity
  8
0
  6
Continuous
 62
     7
370
    25
100
AcDbLine
 10
128.7459438326
 20
35.9016594911
 30
0.0
 11
129.0829712711
 21
35.5323188547
 31
0.0
  0
SPLINE
  5
15D
330
1F
100
AcDbEntity
  8
0
  6
Continuous
 62
     7
370
    25
100
AcDbSpline
210
0.0
220
0.0
230
1.0
 70
    24
 71
     3
 72
    11
 73
     7
 74
     0
 42
0.000000001
 43
0.00000001
 40
0.0
 40
0.0
 40
0.0
 40
0.0
 40
0.2958382525912818
 40
0.5932610319616775
 40
0.7963744598462185
 40
1.0
 40
1.0
 40
1.0
 40
1.0
 10
125.0907914154497
 20
33.22743274041527
 30
0.0
 10
125.4834948428099
 20
33.45416016991336
 30
0.0
 10
126.2710050397839
 20
33.90882939412587
 30
0.0
 10
127.3347329529271
 20
34.52297299112362
 30
0.0
 10
128.2734682266052
 20
35.06495205407951
 30
0.0
 10
128.8129105246577
 20
35.37639921007238
 30
0.0
 10
129.0829712711175
 20
35.53231885473851
 30
0.0
  0
LINE
  5
15E
330
1F
100
AcDbEntity
  8
0
  6
Continuous
 62
     7
370
    25
100
AcDbLine
 10
124.9394467609
 20
33.7039773821
 30
0.0
 11
125.0907914154
 21
33.2274327404
 31
0.0
  0
SPLINE
  5
15F
330
1F
100
AcDbEntity
  8
0
  6
Continuous
 62
     7
370
    25
100
AcDbSpline
210
0.0
220
0.0
230
1.0
 70
    24
 71
     3
 72
    11
 73
     7
 74
     0
 42
0.000000001
 43
0.00000001
 40
0.0
 40
0.0
 40
0.0
 40
0.0
 40
0.2958382525912818
 40
0.5932610319616777
 40
0.7963744598462188
 40
1.0
 40
1.0
 40
1.0
 40
1.0
 10
118.5829712711174
 20
53.71885233421166
 30
0.0
 10
118.1902678437572
 20
53.49212490471356
 30
0.0
 10
117.4027576467833
 20
53.03745568050106
 30
0.0
 10
116.33902973364
 20
52.42331208350331
 30
0.0
 10
115.4002944599619
 20
51.88133302054743
 30
0.0
 10
114.8608521619094
 20
51.56988586455457
 30
0.0
 10
114.5907914154496
 20
51.41396621988844
 30
0.0
  0
LINE
  5
160
330
1F
100
AcDbEntity
  8
0
  6
Continuous
 62
     7
370
    25
100
AcDbLine
 10
118.5829712711
 20
53.7188523342
 30
0.0
 11
118.7343159256
 21
53.2423076925
 31
0.0
  0
LINE
  5
161
330
1F
100
AcDbEntity
  8
0
  6
Continuous
 62
     7
370
    25
100
AcDbLine
 10
114.5907914154
 20
51.4139662199
 30
0.0
 11
114.927818854
 21
51.0446255835
 31
0.0
  0
ARC
  5
162
330
1F
100
AcDbEntity
  8
0
  6
Continuous
 62
     7
370
    25
100
AcDbCircle
 10
121.8368813433
 20
43.4731425373
 30
0.0
 40
10.75
100
AcDbArc
 50
72.3807989171
 51
107.6192010829
  0
ARC
  5
163
330
1F
100
AcDbEntity
  8
0
  6
Continuous
 62
     7
370
    25
100
AcDbCircle
 10
121.8368813433
 20
43.4731425373
 30
0.0
 40
10.75
100
AcDbArc
 50
252.3807989171
 51
287.6192010829
  0
ARC
  5
164
330
1F
100
AcDbEntity
  8
0
  6
Continuous
 62
     7
370
    25
100
AcDbCircle
 10
121.8368813433
 20
43.4731425373
 30
0.0
 40
10.75000000000001
100
AcDbArc
 50
132.3807989171
 51
167.6192010829
  0
ARC
  5
165
330
1F
100
AcDbEntity
  8
0
  6
Continuous
 62
     7
370
    25
100
AcDbCircle
 10
121.8368813433
 20
43.4731425373
 30
0.0
 40
10.75
100
AcDbArc
 50
192.3807989171
 51
227.6192010829
  0
ARC
  5
166
330
1F
100
AcDbEntity
  8
0
  6
Continuous
 62
     7
370
    25
100
AcDbCircle
 10
121.8368813433
 20
43.4731425373
 30
0.0
 40
10.75000000000002
100
AcDbArc
 50
312.3807989171
 51
347.6192010829
  0
ARC
  5
167
330
1F
100
AcDbEntity
  8
0
  6
Continuous
 62
     7
370
    25
100
AcDbCircle
 10
121.8368813433
 20
43.4731425373
 30
0.0
 40
10.75
100
AcDbArc
 50
12.3807989171
 51
47.6192010829
  0
SPLINE
  5
168
330
1F
100
AcDbEntity
  8
0
  6
Continuous
 62
     7
370
    25
100
AcDbSpline
210
0.0
220
0.0
230
1.0
 70
    24
 71
     3
 72
    11
 73
     7
 74
     0
 42
0.000000001
 43
0.00000001
 40
0.0
 40
0.0
 40
0.0
 40
0.0
 40
0.2491235585399952
 40
0.4985358956041036
 40
0.7490315534605874
 40
1.0
 40
1.0
 40
1.0
 40
1.0
 10
111.3368813432835
 20
49.5353203638045
 30
0.0
 10
111.3368813432835
 20
49.22785458817587
 30
0.0
 10
111.3368813432835
 20
48.61256662938565
 30
0.0
 10
111.3368813432835
 20
47.67759145780754
 30
0.0
 10
111.3368813432835
 20
46.73326825595178
 30
0.0
 10
111.3368813432835
 20
46.09664192703242
 30
0.0
 10
111.3368813432835
 20
45.77802865163665
 30
0.0
  0
SPLINE
  5
169
330
1F
100
AcDbEntity
  8
0
  6
Continuous
 62
     7
370
    25
100
AcDbSpline
210
0.0
220
0.0
230
1.0
 70
    24
 71
     3
 72
    11
 73
     7
 74
     0
 42
0.000000001
 43
0.00000001
 40
0.0
 40
0.0
 40
0.0
 40
0.0
 40
0.2489223333931555
 40
0.4987626195644933
 40
0.7490095782085955
 40
1.0
 40
1.0
 40
1.0
 40
1.0
 10
114.5907914154496
 20
51.41396621988844
 30
0.0
 10
114.3171104465199
 20
51.2559564388048
 30
0.0
 10
113.7687392532742
 20
50.93935418276853
 30
0.0
 10
112.9529002093732
 20
50.4683292911569
 30
0.0
 10
112.1409077774858
 20
49.99952524202676
 30
0.0
 10
111.6051550407651
 20
49.690208255262
 30
0.0
 10
111.3368813432835
 20
49.5353203638045
 30
0.0
  0
SPLINE
  5
16A
330
1F
100
AcDbEntity
  8
0
  6
Continuous
 62
     7
370
    25
100
AcDbSpline
210
0.0
220
0.0
230
1.0
 70
    24
 71
     3
 72
    11
 73
     7
 74
     0
 42
0.000000001
 43
0.00000001
 40
0.0
 40
0.0
 40
0.0
 40
0.0
 40
0.2491235585399947
 40
0.498535895604102
 40
0.749031553460586
 40
1.0
 40
1.0
 40
1.0
 40
1.0
 10
132.3368813432835
 20
49.53532036380464
 30
0.0
 10
132.0706081707948
 20
49.68905325161897
 30
0.0
 10
131.5377531678398
 20
49.99669723101408
 30
0.0
 10
130.7280409173454
 20
50.46418481680315
 30
0.0
 10
129.9102330351552
 20
50.93634641773104
 30
0.0
 10
129.358898461593
 20
51.25465958219073
 30
0.0
 10
129.0829712711172
 20
51.41396621988863
 30
0.0
  0
SPLINE
  5
16B
330
1F
100
AcDbEntity
  8
0
  6
Continuous
 62
     7
370
    25
100
AcDbSpline
210
0.0
220
0.0
230
1.0
 70
    24
 71
     3
 72
    11
 73
     7
 74
     0
 42
0.000000001
 43
0.00000001
 40
0.0
 40
0.0
 40
0.0
 40
0.0
 40
0.2489223303096799
 40
0.4983408013471693
 40
0.7490095813176887
 40
1.0
 40
1.0
 40
1.0
 40
1.0
 10
132.3368813432835
 20
45.77802865163678
 30
0.0
 10
132.3368813432835
 20
46.0940482959323
 30
0.0
 10
132.3368813432835
 20
46.72671746058197
 30
0.0
 10
132.3368813432835
 20
47.66877351192912
 30
0.0
 10
132.3368813432835
 20
48.60638984157109
 30
0.0
 10
132.3368813432835
 20
49.22554453275103
 30
0.0
 10
132.3368813432835
 20
49.53532036380464
 30
0.0
  0
SPLINE
  5
16C
330
1F
100
AcDbEntity
  8
0
  6
Continuous
 62
     7
370
    25
100
AcDbSpline
210
0.0
220
0.0
230
1.0
 70
    24
 71
     3
 72
    11
 73
     7
 74
     0
 42
0.000000001
 43
0.00000001
 40
0.0
 40
0.0
 40
0.0
 40
0.0
 40
0.2489223333931552
 40
0.498762619564493
 40
0.749009578208595
 40
0.9999999999999999
 40
0.9999999999999999
 40
0.9999999999999999
 40
0.9999999999999999
 10
125.0907914154498
 20
53.71885233421162
 30
0.0
 10
124.81711044652
 20
53.87686211529526
 30
0.0
 10
124.2687392532743
 20
54.19346437133154
 30
0.0
 10
123.4529002093733
 20
54.66448926294319
 30
0.0
 10
122.6409077774858
 20
55.13329331207334
 30
0.0
 10
122.1051550407651
 20
55.4426102988381
 30
0.0
 10
121.8368813432835
 20
55.5974981902956
 30
0.0
  0
SPLINE
  5
16D
330
1F
100
AcDbEntity
  8
0
  6
Continuous
 62
     7
370
    25
100
AcDbSpline
210
0.0
220
0.0
230
1.0
 70
    24
 71
     3
 72
    11
 73
     7
 74
     0
 42
0.000000001
 43
0.00000001
 40
0.0
 40
0.0
 40
0.0
 40
0.0
 40
0.2491235585399946
 40
0.4985358956041022
 40
0.7490315534605863
 40
1.0
 40
1.0
 40
1.0
 40
1.0
 10
121.8368813432835
 20
55.5974981902956
 30
0.0
 10
121.5706081707948
 20
55.44376530248128
 30
0.0
 10
121.0377531678398
 20
55.13612132308617
 30
0.0
 10
120.2280409173455
 20
54.66863373729711
 30
0.0
 10
119.4102330351553
 20
54.19647213636924
 30
0.0
 10
118.8588984615931
 20
53.87815897190955
 30
0.0
 10
118.5829712711174
 20
53.71885233421166
 30
0.0
  0
SPLINE
  5
16E
330
1F
100
AcDbEntity
  8
0
  6
Continuous
 62
     7
370
    25
100
AcDbSpline
210
0.0
220
0.0
230
1.0
 70
    24
 71
     3
 72
    10
 73
     6
 74
     0
 42
0.000000001
 43
0.00000001
 40
0.0
 40
0.0
 40
0.0
 40
0.0
 40
0.3258684952272098
 40
0.6527960511516884
 40
1.0
 40
1.0
 40
1.0
 40
1.0
 10
111.3368813432835
 20
41.1682564229902
 30
0.0
 10
111.3368813432835
 20
40.75483681583035
 30
0.0
 10
111.3368813432835
 20
39.92665400290007
 30
0.0
 10
111.3368813432835
 20
38.67287470746526
 30
0.0
 10
111.3368813432835
 20
37.83995220202532
 30
0.0
 10
111.3368813432836
 20
37.41096471082233
 30
0.0
  0
SPLINE
  5
16F
330
1F
100
AcDbEntity
  8
0
  6
Continuous
 62
     7
370
    25
100
AcDbSpline
210
0.0
220
0.0
230
1.0
 70
    24
 71
     3
 72
    11
 73
     7
 74
     0
 42
0.000000001
 43
0.00000001
 40
0.0
 40
0.0
 40
0.0
 40
0.0
 40
0.2491235585399949
 40
0.4985358956041023
 40
0.749031553460586
 40
1.0
 40
1.0
 40
1.0
 40
1.0
 10
111.3368813432836
 20
37.41096471082233
 30
0.0
 10
111.6031545157722
 20
37.25723182300801
 30
0.0
 10
112.1360095187272
 20
36.94958784361291
 30
0.0
 10
112.9457217692216
 20
36.48210025782385
 30
0.0
 10
113.7635296514117
 20
36.00993865689598
 30
0.0
 10
114.314864224974
 20
35.69162549243629
 30
0.0
 10
114.5907914154497
 20
35.53231885473841
 30
0.0
  0
SPLINE
  5
170
330
1F
100
AcDbEntity
  8
0
  6
Continuous
 62
     7
370
    25
100
AcDbSpline
210
0.0
220
0.0
230
1.0
 70
    24
 71
     3
 72
    11
 73
     7
 74
     0
 42
0.000000001
 43
0.00000001
 40
0.0
 40
0.0
 40
0.0
 40
0.0
 40
0.2489223333931553
 40
0.4987626195644934
 40
0.7490095782085955
 40
1.0
 40
1.0
 40
1.0
 40
1.0
 10
129.0829712711175
 20
35.53231885473851
 30
0.0
 10
129.3566522400472
 20
35.69032863582215
 30
0.0
 10
129.9050234332929
 20
36.00693089185842
 30
0.0
 10
130.7208624771939
 20
36.47795578347007
 30
0.0
 10
131.5328549090813
 20
36.94675983260021
 30
0.0
 10
132.068607645802
 20
37.25607681936498
 30
0.0
 10
132.3368813432836
 20
37.41096471082248
 30
0.0
  0
SPLINE
  5
171
330
1F
100
AcDbEntity
  8
0
  6
Continuous
 62
     7
370
    25
100
AcDbSpline
210
0.0
220
0.0
230
1.0
 70
    24
 71
     3
 72
    10
 73
     6
 74
     0
 42
0.000000001
 43
0.00000001
 40
0.0
 40
0.0
 40
0.0
 40
0.0
 40
0.3472039737939142
 40
0.6731184750787441
 40
1.0
 40
1.0
 40
1.0
 40
1.0
 10
132.3368813432836
 20
37.41096471082248
 30
0.0
 10
132.3368813432836
 20
37.83995213967215
 30
0.0
 10
132.3368813432836
 20
38.67162281665193
 30
0.0
 10
132.3368813432836
 20
39.9253754920304
 30
0.0
 10
132.3368813432836
 20
40.753553836879
 30
0.0
 10
132.3368813432836
 20
41.16825642299035
 30
0.0
  0
SPLINE
  5
172
330
1F
100
AcDbEntity
  8
0
  6
Continuous
 62
     7
370
    25
100
AcDbSpline
210
0.0
220
0.0
230
1.0
 70
    24
 71
     3
 72
    11
 73
     7
 74
     0
 42
0.000000001
 43
0.00000001
 40
0.0
 40
0.0
 40
0.0
 40
0.0
 40
0.2491235585399947
 40
0.4985358956041024
 40
0.7490315534605864
 40
1.0
 40
1.0
 40
1.0
 40
1.0
 10
121.8368813432836
 20
31.3487868843313
 30
0.0
 10
122.1031545157723
 20
31.50251977214562
 30
0.0
 10
122.6360095187273
 20
31.81016375154073
 30
0.0
 10
123.4457217692216
 20
32.2776513373298
 30
0.0
 10
124.2635296514118
 20
32.74981293825768
 30
0.0
 10
124.814864224974
 20
33.06812610271737
 30
0.0
 10
125.0907914154497
 20
33.22743274041527
 30
0.0
  0
SPLINE
  5
173
330
1F
100
AcDbEntity
  8
0
  6
Continuous
 62
     7
370
    25
100
AcDbSpline
210
0.0
220
0.0
230
1.0
 70
    24
 71
     3
 72
    11
 73
     7
 74
     0
 42
0.000000001
 43
0.00000001
 40
0.0
 40
0.0
 40
0.0
 40
0.0
 40
0.2489223333931554
 40
0.4987626195644936
 40
0.7490095782085954
 40
1.0
 40
1.0
 40
1.0
 40
1.0
 10
118.5829712711175
 20
33.22743274041522
 30
0.0
 10
118.8566522400472
 20
33.06942295933159
 30
0.0
 10
119.405023433293
 20
32.75282070329531
 30
0.0
 10
120.2208624771939
 20
32.28179581168369
 30
0.0
 10
121.0328549090814
 20
31.81299176255355
 30
0.0
 10
121.568607645802
 20
31.50367477578879
 30
0.0
 10
121.8368813432836
 20
31.3487868843313
 30
0.0
  0
CIRCLE
  5
174
330
1F
100
AcDbEntity
  8
0
  6
Continuous
 62
     7
370
    25
100
AcDbCircle
 10
121.8368813433
 20
43.4731425373
 30
0.0
 40
5.050000000000029
  0
ENDSEC
  0
SECTION
  2
OBJECTS
  0
DICTIONARY
  5
C
330
0
100
AcDbDictionary
281
     1
  3
ACAD_GROUP
350
D
  3
ACAD_LAYOUT
350
1A
  3
ACAD_MLINESTYLE
350
17
  3
ACAD_PLOTSETTINGS
350
19
  3
ACAD_PLOTSTYLENAME
350
E
  3
ACAD_SCALELIST
350
47
  0
DICTIONARY
  5
D
102
{ACAD_REACTORS
330
C
102
}
330
C
100
AcDbDictionary
281
     1
  0
DICTIONARY
  5
1A
102
{ACAD_REACTORS
330
C
102
}
330
C
100
AcDbDictionary
281
     1
  3
Layout1
350
1E
  3
Layout2
350
26
  3
Model
350
22
  0
DICTIONARY
  5
17
102
{ACAD_REACTORS
330
C
102
}
330
C
100
AcDbDictionary
281
     1
  3
Standard
350
18
  0
DICTIONARY
  5
19
102
{ACAD_REACTORS
330
C
102
}
330
C
100
AcDbDictionary
281
     1
  0
ACDBDICTIONARYWDFLT
  5
E
102
{ACAD_REACTORS
330
C
102
}
330
C
100
AcDbDictionary
281
     1
  3
Normal
350
F
100
AcDbDictionaryWithDefault
340
F
  0
DICTIONARY
  5
47
102
{ACAD_REACTORS
330
C
102
}
330
C
100
AcDbDictionary
281
     1
  3
A0
350
48
  3
A1
350
49
  3
A2
350
4A
  3
A3
350
4B
  3
A4
350
4C
  3
A5
350
4D
  3
A6
350
4E
  3
A7
350
4F
  3
A8
350
50
  3
A9
350
51
  3
B0
350
52
  3
B1
350
53
  3
B2
350
54
  3
B3
350
55
  3
B4
350
56
  3
B5
350
57
  3
B6
350
58
  3
B7
350
59
  3
B8
350
5A
  3
B9
350
5B
  3
C0
350
5C
  3
C1
350
5D
  3
C2
350
5E
  3
C3
350
5F
  3
C4
350
60
  3
C5
350
61
  3
C6
350
62
  3
C7
350
63
  3
C8
350
64
  3
C9
350
65
  3
D0
350
66
  3
D1
350
67
  3
D2
350
68
  0
LAYOUT
  5
1E
102
{ACAD_REACTORS
330
1A
102
}
330
1A
100
AcDbPlotSettings
  1

  2
none_device
  4

  6

 40
0.0
 41
0.0
 42
0.0
 43
0.0
 44
0.0
 45
0.0
 46
0.0
 47
0.0
 48
0.0
 49
0.0
140
0.0
141
0.0
142
1.0
143
1.0
 70
   688
 72
     1
 73
     0
 74
     5
  7

 75
    16
147
1.0
148
0.0
149
0.0
100
AcDbLayout
  1
Layout1
 70
     1
 71
     1
 10
0.0
 20
0.0
 11
420.0
 21
297.0
 12
0.0
 22
0.0
 32
0.0
 14
1.0000000000E+20
 24
1.0000000000E+20
 34
1.0000000000E+20
 15
-1.0000000000E+20
 25
-1.0000000000E+20
 35
-1.0000000000E+20
146
0.0
 13
0.0
 23
0.0
 33
0.0
 16
1.0
 26
0.0
 36
0.0
 17
0.0
 27
1.0
 37
0.0
 76
     0
330
1B
  0
LAYOUT
  5
26
102
{ACAD_REACTORS
330
1A
102
}
330
1A
100
AcDbPlotSettings
  1

  2
none_device
  4

  6

 40
0.0
 41
0.0
 42
0.0
 43
0.0
 44
0.0
 45
0.0
 46
0.0
 47
0.0
 48
0.0
 49
0.0
140
0.0
141
0.0
142
1.0
143
1.0
 70
   688
 72
     1
 73
     0
 74
     5
  7

 75
    16
147
1.0
148
0.0
149
0.0
100
AcDbLayout
  1
Layout2
 70
     1
 71
     2
 10
0.0
 20
0.0
 11
0.0
 21
0.0
 12
0.0
 22
0.0
 32
0.0
 14
0.0
 24
0.0
 34
0.0
 15
0.0
 25
0.0
 35
0.0
146
0.0
 13
0.0
 23
0.0
 33
0.0
 16
1.0
 26
0.0
 36
0.0
 17
0.0
 27
1.0
 37
0.0
 76
     0
330
23
  0
LAYOUT
  5
22
102
{ACAD_REACTORS
330
1A
102
}
330
1A
100
AcDbPlotSettings
  1

  2
none_device
  4
Letter_(8.50_x_11.00_Inches)
  6

 40
6.35
 41
6.35
 42
6.35000508
 43
6.35000508
 44
215.9
 45
279.4
 46
0.0
 47
0.0
 48
0.0
 49
0.0
140
0.0
141
0.0
142
1.0
143
1.0
 70
  1712
 72
     1
 73
     0
 74
     0
  7

 75
     0
147
1.0
148
0.0
149
0.0
100
AcDbLayout
  1
Model
 70
     1
 71
     0
 10
0.0
 20
0.0
 11
215.9
 21
139.7
 12
0.0
 22
0.0
 32
0.0
 14
0.0
 24
0.0
 34
0.0
 15
215.9
 25
139.7
 35
0.0
146
0.0
 13
0.0
 23
0.0
 33
0.0
 16
1.0
 26
0.0
 36
0.0
 17
0.0
 27
1.0
 37
0.0
 76
     0
330
1F
331
29
  0
MLINESTYLE
  5
18
102
{ACAD_REACTORS
330
17
102
}
330
17
100
AcDbMlineStyle
  2
Standard
 70
     0
  3

 62
   256
 51
90.0
 52
90.0
 71
     2
 49
0.5
 62
   256
  6
BYLAYER
 49
-0.5
 62
   256
  6
BYLAYER
  0
ACDBPLACEHOLDER
  5
F
102
{ACAD_REACTORS
330
E
102
}
330
E
  0
SCALE
  5
48
102
{ACAD_REACTORS
330
47
102
}
330
47
100
AcDbScale
 70
     0
300
1:1
140
1.0
141
1.0
290
     1
  0
SCALE
  5
49
102
{ACAD_REACTORS
330
47
102
}
330
47
100
AcDbScale
 70
     0
300
1:2
140
1.0
141
2.0
290
     0
  0
SCALE
  5
4A
102
{ACAD_REACTORS
330
47
102
}
330
47
100
AcDbScale
 70
     0
300
1:4
140
1.0
141
4.0
290
     0
  0
SCALE
  5
4B
102
{ACAD_REACTORS
330
47
102
}
330
47
100
AcDbScale
 70
     0
300
1:5
140
1.0
141
5.0
290
     0
  0
SCALE
  5
4C
102
{ACAD_REACTORS
330
47
102
}
330
47
100
AcDbScale
 70
     0
300
1:8
140
1.0
141
8.0
290
     0
  0
SCALE
  5
4D
102
{ACAD_REACTORS
330
47
102
}
330
47
100
AcDbScale
 70
     0
300
1:10
140
1.0
141
10.0
290
     0
  0
SCALE
  5
4E
102
{ACAD_REACTORS
330
47
102
}
330
47
100
AcDbScale
 70
     0
300
1:16
140
1.0
141
16.0
290
     0
  0
SCALE
  5
4F
102
{ACAD_REACTORS
330
47
102
}
330
47
100
AcDbScale
 70
     0
300
1:20
140
1.0
141
20.0
290
     0
  0
SCALE
  5
50
102
{ACAD_REACTORS
330
47
102
}
330
47
100
AcDbScale
 70
     0
300
1:30
140
1.0
141
30.0
290
     0
  0
SCALE
  5
51
102
{ACAD_REACTORS
330
47
102
}
330
47
100
AcDbScale
 70
     0
300
1:40
140
1.0
141
40.0
290
     0
  0
SCALE
  5
52
102
{ACAD_REACTORS
330
47
102
}
330
47
100
AcDbScale
 70
     0
300
1:50
140
1.0
141
50.0
290
     0
  0
SCALE
  5
53
102
{ACAD_REACTORS
330
47
102
}
330
47
100
AcDbScale
 70
     0
300
1:100
140
1.0
141
100.0
290
     0
  0
SCALE
  5
54
102
{ACAD_REACTORS
330
47
102
}
330
47
100
AcDbScale
 70
     0
300
2:1
140
2.0
141
1.0
290
     0
  0
SCALE
  5
55
102
{ACAD_REACTORS
330
47
102
}
330
47
100
AcDbScale
 70
     0
300
4:1
140
4.0
141
1.0
290
     0
  0
SCALE
  5
56
102
{ACAD_REACTORS
330
47
102
}
330
47
100
AcDbScale
 70
     0
300
8:1
140
8.0
141
1.0
290
     0
  0
SCALE
  5
57
102
{ACAD_REACTORS
330
47
102
}
330
47
100
AcDbScale
 70
     0
300
10:1
140
10.0
141
1.0
290
     0
  0
SCALE
  5
58
102
{ACAD_REACTORS
330
47
102
}
330
47
100
AcDbScale
 70
     0
300
100:1
140
100.0
141
1.0
290
     0
  0
SCALE
  5
59
102
{ACAD_REACTORS
330
47
102
}
330
47
100
AcDbScale
 70
     0
300
1/128" = 1'-0"
140
0.0078125
141
12.0
290
     0
  0
SCALE
  5
5A
102
{ACAD_REACTORS
330
47
102
}
330
47
100
AcDbScale
 70
     0
300
1/64" = 1'-0"
140
0.015625
141
12.0
290
     0
  0
SCALE
  5
5B
102
{ACAD_REACTORS
330
47
102
}
330
47
100
AcDbScale
 70
     0
300
1/32" = 1'-0"
140
0.03125
141
12.0
290
     0
  0
SCALE
  5
5C
102
{ACAD_REACTORS
330
47
102
}
330
47
100
AcDbScale
 70
     0
300
1/16" = 1'-0"
140
0.0625
141
12.0
290
     0
  0
SCALE
  5
5D
102
{ACAD_REACTORS
330
47
102
}
330
47
100
AcDbScale
 70
     0
300
3/32" = 1'-0"
140
0.09375
141
12.0
290
     0
  0
SCALE
  5
5E
102
{ACAD_REACTORS
330
47
102
}
330
47
100
AcDbScale
 70
     0
300
1/8" = 1'-0"
140
0.125
141
12.0
290
     0
  0
SCALE
  5
5F
102
{ACAD_REACTORS
330
47
102
}
330
47
100
AcDbScale
 70
     0
300
3/16" = 1'-0"
140
0.1875
141
12.0
290
     0
  0
SCALE
  5
60
102
{ACAD_REACTORS
330
47
102
}
330
47
100
AcDbScale
 70
     0
300
1/4" = 1'-0"
140
0.25
141
12.0
290
     0
  0
SCALE
  5
61
102
{ACAD_REACTORS
330
47
102
}
330
47
100
AcDbScale
 70
     0
300
3/8" = 1'-0"
140
0.375
141
12.0
290
     0
  0
SCALE
  5
62
102
{ACAD_REACTORS
330
47
102
}
330
47
100
AcDbScale
 70
     0
300
1/2" = 1'-0"
140
0.5
141
12.0
290
     0
  0
SCALE
  5
63
102
{ACAD_REACTORS
330
47
102
}
330
47
100
AcDbScale
 70
     0
300
3/4" = 1'-0"
140
0.75
141
12.0
290
     0
  0
SCALE
  5
64
102
{ACAD_REACTORS
330
47
102
}
330
47
100
AcDbScale
 70
     0
300
1" = 1'-0"
140
1.0
141
12.0
290
     0
  0
SCALE
  5
65
102
{ACAD_REACTORS
330
47
102
}
330
47
100
AcDbScale
 70
     0
300
1-1/2" = 1'-0"
140
1.5
141
12.0
290
     0
  0
SCALE
  5
66
102
{ACAD_REACTORS
330
47
102
}
330
47
100
AcDbScale
 70
     0
300
3" = 1'-0"
140
3.0
141
12.0
290
     0
  0
SCALE
  5
67
102
{ACAD_REACTORS
330
47
102
}
330
47
100
AcDbScale
 70
     0
300
6" = 1'-0"
140
6.0
141
12.0
290
     0
  0
SCALE
  5
68
102
{ACAD_REACTORS
330
47
102
}
330
47
100
AcDbScale
 70
     0
300
1'-0" = 1'-0"
140
12.0
141
12.0
290
     0
  0
ENDSEC
  0
EOF
