  0
SECTION
  2
HEADER
  9
$ACADVER
  1
AC1015
  9
$ACADMAINTVER
 70
     6
  9
$DWGCODEPAGE
  3
DOS932
  9
$INSBASE
 10
0.0
 20
0.0
 30
0.0
  9
$EXTMIN
 10
0.0
 20
0.0
 30
0.0
  9
$EXTMAX
 10
215.9
 20
139.7
 30
0.0
  9
$LIMMIN
 10
0.0
 20
0.0
  9
$LIMMAX
 10
215.9
 20
139.7
  9
$ORTHOMODE
 70
     0
  9
$REGENMODE
 70
     1
  9
$FILLMODE
 70
     1
  9
$QTEXTMODE
 70
     0
  9
$MIRRTEXT
 70
     1
  9
$LTSCALE
 40
0.5
  9
$ATTMODE
 70
     1
  9
$TEXTSIZE
 40
1.75
  9
$TRACEWID
 40
1.0
  9
$TEXTSTYLE
  7
Standard
  9
$CLAYER
  8
0
  9
$CELTYPE
  6
ByLayer
  9
$CECOLOR
 62
   256
  9
$CELTSCALE
 40
1.0
  9
$DISPSILH
 70
     0
  9
$DIMSCALE
 40
1.0
  9
$DIMASZ
 40
1.778
  9
$DIMEXO
 40
0.5
  9
$DIMDLI
 40
3.75
  9
$DIMRND
 40
0.0
  9
$DIMDLE
 40
0.0
  9
$DIMEXE
 40
0.5
  9
$DIMTP
 40
0.0
  9
$DIMTM
 40
0.0
  9
$DIMTXT
 40
1.75
  9
$DIMCEN
 40
2.5
  9
$DIMTSZ
 40
0.0
  9
$DIMTOL
 70
     0
  9
$DIMLIM
 70
     0
  9
$DIMTIH
 70
     1
  9
$DIMTOH
 70
     1
  9
$DIMSE1
 70
     0
  9
$DIMSE2
 70
     0
  9
$DIMTAD
 70
     1
  9
$DIMZIN
 70
     1
  9
$DIMBLK
  1

  9
$DIMASO
 70
     1
  9
$DIMSHO
 70
     1
  9
$DIMPOST
  1

  9
$DIMAPOST
  1

  9
$DIMALT
 70
     0
  9
$DIMALTD
 70
     3
  9
$DIMALTF
 40
0.0393700787
  9
$DIMLFAC
 40
1.0
  9
$DIMTOFL
 70
     1
  9
$DIMTVP
 40
0.0
  9
$DIMTIX
 70
     0
  9
$DIMSOXD
 70
     0
  9
$DIMSAH
 70
     0
  9
$DIMBLK1
  1

  9
$DIMBLK2
  1

  9
$DIMSTYLE
  2
ISO-25
  9
$DIMCLRD
 70
     0
  9
$DIMCLRE
 70
     0
  9
$DIMCLRT
 70
     0
  9
$DIMTFAC
 40
1.0
  9
$DIMGAP
 40
0.762
  9
$DIMJUST
 70
     0
  9
$DIMSD1
 70
     0
  9
$DIMSD2
 70
     0
  9
$DIMTOLJ
 70
     0
  9
$DIMTZIN
 70
     1
  9
$DIMALTZ
 70
     0
  9
$DIMALTTZ
 70
     0
  9
$DIMUPT
 70
     0
  9
$DIMDEC
 70
     2
  9
$DIMTDEC
 70
     2
  9
$DIMALTU
 70
     2
  9
$DIMALTTD
 70
     3
  9
$DIMTXSTY
  7
Standard
  9
$DIMAUNIT
 70
     0
  9
$DIMADEC
 70
     2
  9
$DIMALTRND
 40
0.0
  9
$DIMAZIN
 70
     0
  9
$DIMDSEP
 70
    44
  9
$DIMATFIT
 70
     3
  9
$DIMFRAC
 70
     0
  9
$DIMLDRBLK
  1

  9
$DIMLUNIT
 70
     2
  9
$DIMLWD
 70
    -2
  9
$DIMLWE
 70
    -2
  9
$DIMTMOVE
 70
     0
  9
$LUNITS
 70
     2
  9
$LUPREC
 70
     2
  9
$SKETCHINC
 40
1.0
  9
$FILLETRAD
 40
10.0
  9
$AUNITS
 70
     0
  9
$AUPREC
 70
     2
  9
$MENU
  1
.
  9
$ELEVATION
 40
0.0
  9
$PELEVATION
 40
0.0
  9
$THICKNESS
 40
0.0
  9
$LIMCHECK
 70
     0
  9
$CHAMFERA
 40
0.0
  9
$CHAMFERB
 40
0.0
  9
$CHAMFERC
 40
0.0
  9
$CHAMFERD
 40
0.0
  9
$SKPOLY
 70
     0
  9
$TDCREATE
 40
2459388.562280498
  9
$TDUCREATE
 40
2459388.187280498
  9
$TDUPDATE
 40
2459388.562281042
  9
$TDUUPDATE
 40
2459388.187281042
  9
$TDINDWG
 40
0.0000000116
  9
$TDUSRTIMER
 40
0.0000000116
  9
$USRTIMER
 70
     1
  9
$ANGBASE
 50
0.0
  9
$ANGDIR
 70
     0
  9
$PDMODE
 70
     0
  9
$PDSIZE
 40
-1.0
  9
$PLINEWID
 40
0.0
  9
$SPLFRAME
 70
     0
  9
$SPLINETYPE
 70
     6
  9
$SPLINESEGS
 70
     8
  9
$HANDSEED
  5
173
  9
$SURFTAB1
 70
     6
  9
$SURFTAB2
 70
     6
  9
$SURFTYPE
 70
     6
  9
$SURFU
 70
     6
  9
$SURFV
 70
     6
  9
$UCSBASE
  2

  9
$UCSNAME
  2

  9
$UCSORG
 10
0.0
 20
0.0
 30
0.0
  9
$UCSXDIR
 10
1.0
 20
0.0
 30
0.0
  9
$UCSYDIR
 10
0.0
 20
1.0
 30
0.0
  9
$UCSORTHOREF
  2

  9
$UCSORTHOVIEW
 70
     0
  9
$UCSORGTOP
 10
0.0
 20
0.0
 30
0.0
  9
$UCSORGBOTTOM
 10
0.0
 20
0.0
 30
0.0
  9
$UCSORGLEFT
 10
0.0
 20
0.0
 30
0.0
  9
$UCSORGRIGHT
 10
0.0
 20
0.0
 30
0.0
  9
$UCSORGFRONT
 10
0.0
 20
0.0
 30
0.0
  9
$UCSORGBACK
 10
0.0
 20
0.0
 30
0.0
  9
$PUCSBASE
  2

  9
$PUCSNAME
  2

  9
$PUCSORG
 10
0.0
 20
0.0
 30
0.0
  9
$PUCSXDIR
 10
1.0
 20
0.0
 30
0.0
  9
$PUCSYDIR
 10
0.0
 20
1.0
 30
0.0
  9
$PUCSORTHOREF
  2

  9
$PUCSORTHOVIEW
 70
     0
  9
$PUCSORGTOP
 10
0.0
 20
0.0
 30
0.0
  9
$PUCSORGBOTTOM
 10
0.0
 20
0.0
 30
0.0
  9
$PUCSORGLEFT
 10
0.0
 20
0.0
 30
0.0
  9
$PUCSORGRIGHT
 10
0.0
 20
0.0
 30
0.0
  9
$PUCSORGFRONT
 10
0.0
 20
0.0
 30
0.0
  9
$PUCSORGBACK
 10
0.0
 20
0.0
 30
0.0
  9
$USERI1
 70
     0
  9
$USERI2
 70
     0
  9
$USERI3
 70
     0
  9
$USERI4
 70
     0
  9
$USERI5
 70
     0
  9
$USERR1
 40
0.0
  9
$USERR2
 40
0.0
  9
$USERR3
 40
0.0
  9
$USERR4
 40
0.0
  9
$USERR5
 40
0.0
  9
$WORLDVIEW
 70
     1
  9
$SHADEDGE
 70
     3
  9
$SHADEDIF
 70
    70
  9
$TILEMODE
 70
     1
  9
$MAXACTVP
 70
    64
  9
$PINSBASE
 10
0.0
 20
0.0
 30
0.0
  9
$PLIMCHECK
 70
     0
  9
$PEXTMIN
 10
1.0000000000E+20
 20
1.0000000000E+20
 30
1.0000000000E+20
  9
$PEXTMAX
 10
-1.0000000000E+20
 20
-1.0000000000E+20
 30
-1.0000000000E+20
  9
$PLIMMIN
 10
0.0
 20
0.0
  9
$PLIMMAX
 10
420.0
 20
297.0
  9
$UNITMODE
 70
     0
  9
$VISRETAIN
 70
     1
  9
$PLINEGEN
 70
     0
  9
$PSLTSCALE
 70
     1
  9
$TREEDEPTH
 70
  3020
  9
$CMLSTYLE
  2
Standard
  9
$CMLJUST
 70
     0
  9
$CMLSCALE
 40
20.0
  9
$PROXYGRAPHICS
 70
     1
  9
$MEASUREMENT
 70
     1
  9
$CELWEIGHT
370
    -1
  9
$ENDCAPS
280
     0
  9
$JOINSTYLE
280
     0
  9
$LWDISPLAY
290
     1
  9
$INSUNITS
 70
     4
  9
$HYPERLINKBASE
  1

  9
$STYLESHEET
  1

  9
$XEDIT
290
     1
  9
$CEPSNTYPE
380
     0
  9
$PSTYLEMODE
290
     1
  9
$FINGERPRINTGUID
  2
{496D8CD9-8105-44D7-A3EE-85B9812643F9}
  9
$VERSIONGUID
  2
{FAEB1C32-E019-11D5-929B-00C0DF256EC4}
  9
$EXTNAMES
290
     1
  9
$PSVPSCALE
 40
0.0
  9
$OLESTARTUP
290
     0
  0
ENDSEC
  0
SECTION
  2
CLASSES
  0
CLASS
  1
ACDBDICTIONARYWDFLT
  2
AcDbDictionaryWithDefault
  3
ObjectDBX Classes
 90
        0
280
     0
281
     0
  0
CLASS
  1
VISUALSTYLE
  2
AcDbVisualStyle
  3
ObjectDBX Classes
 90
     4095
280
     0
281
     0
  0
CLASS
  1
MATERIAL
  2
AcDbMaterial
  3
ObjectDBX Classes
 90
     1153
280
     0
281
     0
  0
CLASS
  1
SCALE
  2
AcDbScale
  3
ObjectDBX Classes
 90
     1153
280
     0
281
     0
  0
CLASS
  1
TABLESTYLE
  2
AcDbTableStyle
  3
ObjectDBX Classes
 90
     4095
280
     0
281
     0
  0
CLASS
  1
MLEADERSTYLE
  2
AcDbMLeaderStyle
  3
ACDB_MLEADERSTYLE_CLASS
 90
     4095
280
     0
281
     0
  0
CLASS
  1
SUN
  2
AcDbSun
  3
SCENEOE
 90
     1153
280
     0
281
     0
  0
CLASS
  1
ACDBPLACEHOLDER
  2
AcDbPlaceHolder
  3
ObjectDBX Classes
 90
        0
280
     0
281
     0
  0
CLASS
  1
LAYOUT
  2
AcDbLayout
  3
ObjectDBX Classes
 90
        0
280
     0
281
     0
  0
ENDSEC
  0
SECTION
  2
TABLES
  0
TABLE
  2
VPORT
  5
8
330
0
100
AcDbSymbolTable
 70
     1
  0
VPORT
  5
29
330
8
100
AcDbSymbolTableRecord
100
AcDbViewportTableRecord
  2
*Active
 70
     0
 10
0.0
 20
0.0
 11
1.0
 21
1.0
 12
107.95
 22
69.85
 13
0.0
 23
0.0
 14
10.0
 24
10.0
 15
10.0
 25
10.0
 16
0.0
 26
0.0
 36
1.0
 17
0.0
 27
0.0
 37
0.0
 40
139.7
 41
1.5454545455
 42
50.0
 43
0.0
 44
0.0
 50
0.0
 51
0.0
 71
     0
 72
  2000
 73
     1
 74
     3
 75
     0
 76
     0
 77
     0
 78
     0
281
     0
 65
     1
110
0.0
120
0.0
130
0.0
111
1.0
121
0.0
131
0.0
112
0.0
122
1.0
132
0.0
 79
     0
146
0.0
  0
ENDTAB
  0
TABLE
  2
LTYPE
  5
5
330
0
100
AcDbSymbolTable
 70
     6
  0
LTYPE
  5
14
330
5
100
AcDbSymbolTableRecord
100
AcDbLinetypeTableRecord
  2
ByBlock
 70
     0
  3

 72
    65
 73
     0
 40
0.0
  0
LTYPE
  5
15
330
5
100
AcDbSymbolTableRecord
100
AcDbLinetypeTableRecord
  2
ByLayer
 70
     0
  3

 72
    65
 73
     0
 40
0.0
  0
LTYPE
  5
16
330
5
100
AcDbSymbolTableRecord
100
AcDbLinetypeTableRecord
  2
Continuous
 70
     0
  3
Solid line
 72
    65
 73
     0
 40
0.0
  0
LTYPE
  5
6E
330
5
100
AcDbSymbolTableRecord
100
AcDbLinetypeTableRecord
  2
HIDDEN
 70
     0
  3
Hidden __ __ __ __ __ __ __ __ __ __ __ __ __ __
 72
    65
 73
     2
 40
1.905
 49
1.27
 74
     0
 49
-0.635
 74
     0
  0
LTYPE
  5
6F
330
5
100
AcDbSymbolTableRecord
100
AcDbLinetypeTableRecord
  2
PHANTOM
 70
     0
  3
Phantom ______  __  __  ______  __  __  ______
 72
    65
 73
     6
 40
12.7
 49
6.35
 74
     0
 49
-1.27
 74
     0
 49
1.27
 74
     0
 49
-1.27
 74
     0
 49
1.27
 74
     0
 49
-1.27
 74
     0
  0
LTYPE
  5
70
330
5
100
AcDbSymbolTableRecord
100
AcDbLinetypeTableRecord
  2
CENTER
 70
     0
  3
Center ____ _ ____ _ ____ _ ____ _ ____ _ ____
 72
    65
 73
     4
 40
10.16
 49
6.35
 74
     0
 49
-1.27
 74
     0
 49
1.27
 74
     0
 49
-1.27
 74
     0
  0
LTYPE
  5
71
330
5
100
AcDbSymbolTableRecord
100
AcDbLinetypeTableRecord
  2
CENTERX2
 70
     0
  3
Center (2x) ________  __  ________  __  _____
 72
    65
 73
     4
 40
20.32
 49
12.7
 74
     0
 49
-2.54
 74
     0
 49
2.54
 74
     0
 49
-2.54
 74
     0
  0
LTYPE
  5
72
330
5
100
AcDbSymbolTableRecord
100
AcDbLinetypeTableRecord
  2
DOT2
 70
     0
  3
Dot (.5x) ........................................
 72
    65
 73
     2
 40
0.635
 49
0.0
 74
     0
 49
-0.635
 74
     0
  0
ENDTAB
  0
TABLE
  2
LAYER
  5
2
330
0
100
AcDbSymbolTable
 70
     1
  0
LAYER
  5
10
330
2
100
AcDbSymbolTableRecord
100
AcDbLayerTableRecord
  2
0
 70
     0
 62
     7
  6
Continuous
370
    -3
390
F
  0
ENDTAB
  0
TABLE
  2
STYLE
  5
3
330
0
100
AcDbSymbolTable
 70
     2
  0
STYLE
  5
11
330
3
100
AcDbSymbolTableRecord
100
AcDbTextStyleTableRecord
  2
Standard
 70
     0
 40
0.0
 41
1.0
 50
0.0
 71
     0
 42
1.75
  3
txt
  4
bigfont
  0
STYLE
  5
73
330
3
100
AcDbSymbolTableRecord
100
AcDbTextStyleTableRecord
  2
SLDTEXTSTYLE0
 70
     0
 40
0.0
 41
0.75
 50
0.0
 71
     0
 42
1.75
  3
TXT
  4
bigfont
  0
ENDTAB
  0
TABLE
  2
VIEW
  5
6
330
0
100
AcDbSymbolTable
 70
     0
  0
ENDTAB
  0
TABLE
  2
UCS
  5
7
330
0
100
AcDbSymbolTable
 70
     0
  0
ENDTAB
  0
TABLE
  2
APPID
  5
9
330
0
100
AcDbSymbolTable
 70
     1
  0
APPID
  5
12
330
9
100
AcDbSymbolTableRecord
100
AcDbRegAppTableRecord
  2
ACAD
 70
     0
  0
ENDTAB
  0
TABLE
  2
DIMSTYLE
  5
A
330
0
100
AcDbSymbolTable
 70
     1
100
AcDbDimStyleTable
  0
DIMSTYLE
105
27
330
A
100
AcDbSymbolTableRecord
100
AcDbDimStyleTableRecord
  2
ISO-25
 70
     0
 41
2.5
 42
0.625
 43
3.75
 44
1.25
 73
     0
 74
     0
 77
     1
 78
     8
140
2.5
141
2.5
143
0.0393700787
147
0.625
171
     3
172
     1
178
     0
271
     2
272
     2
274
     3
278
    44
283
     0
284
     8
340
11
  0
ENDTAB
  0
TABLE
  2
BLOCK_RECORD
  5
1
330
0
100
AcDbSymbolTable
 70
     1
  0
BLOCK_RECORD
  5
1F
330
1
100
AcDbSymbolTableRecord
100
AcDbBlockTableRecord
  2
*Model_Space
340
22
  0
BLOCK_RECORD
  5
1B
330
1
100
AcDbSymbolTableRecord
100
AcDbBlockTableRecord
  2
*Paper_Space
340
1E
  0
BLOCK_RECORD
  5
23
330
1
100
AcDbSymbolTableRecord
100
AcDbBlockTableRecord
  2
*Paper_Space0
340
26
  0
ENDTAB
  0
ENDSEC
  0
SECTION
  2
BLOCKS
  0
BLOCK
  5
20
330
1F
100
AcDbEntity
  8
0
100
AcDbBlockBegin
  2
*Model_Space
 70
     0
 10
0.0
 20
0.0
 30
0.0
  3
*Model_Space
  1

  0
ENDBLK
  5
21
330
1F
100
AcDbEntity
  8
0
100
AcDbBlockEnd
  0
BLOCK
  5
1C
330
1B
100
AcDbEntity
 67
     1
  8
0
100
AcDbBlockBegin
  2
*Paper_Space
 70
     0
 10
0.0
 20
0.0
 30
0.0
  3
*Paper_Space
  1

  0
ENDBLK
  5
1D
330
1B
100
AcDbEntity
 67
     1
  8
0
100
AcDbBlockEnd
  0
BLOCK
  5
24
330
23
100
AcDbEntity
  8
0
100
AcDbBlockBegin
  2
*Paper_Space0
 70
     0
 10
0.0
 20
0.0
 30
0.0
  3
*Paper_Space0
  1

  0
ENDBLK
  5
25
330
23
100
AcDbEntity
  8
0
100
AcDbBlockEnd
  0
ENDSEC
  0
SECTION
  2
ENTITIES
  0
MTEXT
  5
74
330
1F
100
AcDbEntity
  8
0
  6
Continuous
 62
     7
370
     0
100
AcDbMText
 10
89.1328649254
 20
70.8011022433
 30
0.0
 40
2.6458333333
 41
0.0
 71
     1
 72
     1
  1
5R-RS1210
  7
SLDTEXTSTYLE0
 73
     1
 44
1.0
  0
LINE
  5
75
330
1F
100
AcDbEntity
  8
0
  6
Continuous
 62
     7
370
    25
100
AcDbLine
 10
73.8704296856
 20
60.1990683395
 30
0.0
 11
72.7882699448
 21
58.3247126866
 31
0.0
  0
LINE
  5
76
330
1F
100
AcDbEntity
  8
0
  6
Continuous
 62
     7
370
    25
100
AcDbLine
 10
72.7882699448
 20
37.8247126866
 30
0.0
 11
73.8704296856
 21
35.9503570336
 31
0.0
  0
LINE
  5
77
330
1F
100
AcDbEntity
  8
0
  6
Continuous
 62
     7
370
    25
100
AcDbLine
 10
87.5882699448
 20
37.8247126866
 30
0.0
 11
87.7882699448
 21
38.0247126866
 31
0.0
  0
LINE
  5
78
330
1F
100
AcDbEntity
  8
0
  6
Continuous
 62
     7
370
    25
100
AcDbLine
 10
87.7882699448
 20
58.1247126866
 30
0.0
 11
87.5882699448
 21
58.3247126866
 31
0.0
  0
LINE
  5
79
330
1F
100
AcDbEntity
  8
0
  6
Continuous
 62
     7
370
    25
100
AcDbLine
 10
87.5882699448
 20
58.3247126866
 30
0.0
 11
86.865620214
 21
58.3247126866
 31
0.0
  0
LINE
  5
7A
330
1F
100
AcDbEntity
  8
0
  6
Continuous
 62
     7
370
    25
100
AcDbLine
 10
86.865620214
 20
37.8247126866
 30
0.0
 11
87.5882699448
 21
37.8247126866
 31
0.0
  0
ARC
  5
7B
330
1F
100
AcDbEntity
  8
0
  6
Continuous
 62
     7
370
    25
100
AcDbCircle
 10
86.865620214
 20
59.3247126866
 30
0.0
 40
1.0
100
AcDbArc
 50
210.0
 51
270.0
  0
LINE
  5
7C
330
1F
100
AcDbEntity
  8
0
  6
Continuous
 62
     7
370
    25
100
AcDbLine
 10
85.9995948102
 20
58.8247126866
 30
0.0
 11
85.206110204
 21
60.1990683395
 31
0.0
  0
ARC
  5
7D
330
1F
100
AcDbEntity
  8
0
  6
Continuous
 62
     7
370
    25
100
AcDbCircle
 10
86.865620214
 20
36.8247126866
 30
0.0
 40
1.0
100
AcDbArc
 50
90.0
 51
150.0
  0
LINE
  5
7E
330
1F
100
AcDbEntity
  8
0
  6
Continuous
 62
     7
370
    25
100
AcDbLine
 10
85.206110204
 20
35.9503570336
 30
0.0
 11
85.9995948102
 21
37.3247126866
 31
0.0
  0
LINE
  5
7F
330
1F
100
AcDbEntity
  8
0
  6
Continuous
 62
     7
370
    25
100
AcDbLine
 10
70.9059613985
 20
39.7437126866
 30
0.0
 11
72.7882699448
 21
39.7437126866
 31
0.0
  0
LINE
  5
80
330
1F
100
AcDbEntity
  8
0
  6
Continuous
 62
     7
370
    25
100
AcDbLine
 10
72.7882699448
 20
56.4057126866
 30
0.0
 11
70.9059613985
 21
56.4057126866
 31
0.0
  0
LINE
  5
81
330
1F
100
AcDbEntity
  8
0
  6
Continuous
 62
     7
370
    25
100
AcDbLine
 10
70.9059613985
 20
56.4057126866
 30
0.0
 11
69.9059613985
 21
55.4057126866
 31
0.0
  0
LINE
  5
82
330
1F
100
AcDbEntity
  8
0
  6
Continuous
 62
     7
370
    25
100
AcDbLine
 10
69.9059613985
 20
40.7437126866
 30
0.0
 11
70.9059613985
 21
39.7437126866
 31
0.0
  0
LINE
  5
83
330
1F
100
AcDbEntity
  8
0
  6
Continuous
 62
     7
370
    25
100
AcDbLine
 10
67.7059613985
 20
39.8247126866
 30
0.0
 11
67.9059613985
 21
40.0247126866
 31
0.0
  0
LINE
  5
84
330
1F
100
AcDbEntity
  8
0
  6
Continuous
 62
     7
370
    25
100
AcDbLine
 10
67.9059613985
 20
56.1247126866
 30
0.0
 11
67.7059613985
 21
56.3247126866
 31
0.0
  0
LINE
  5
85
330
1F
100
AcDbEntity
  8
0
  6
Continuous
 62
     7
370
    25
100
AcDbLine
 10
67.7059613985
 20
56.3247126866
 30
0.0
 11
66.8389741003
 21
56.3247126866
 31
0.0
  0
LINE
  5
86
330
1F
100
AcDbEntity
  8
0
  6
Continuous
 62
     7
370
    25
100
AcDbLine
 10
66.8389741003
 20
39.8247126866
 30
0.0
 11
67.7059613985
 21
39.8247126866
 31
0.0
  0
LINE
  5
87
330
1F
100
AcDbEntity
  8
0
  6
Continuous
 62
     7
370
    25
100
AcDbLine
 10
67.9059613985
 20
40.8247126866
 30
0.0
 11
69.9059613985
 21
40.8247126866
 31
0.0
  0
LINE
  5
88
330
1F
100
AcDbEntity
  8
0
  6
Continuous
 62
     7
370
    25
100
AcDbLine
 10
69.9059613985
 20
55.3247126866
 30
0.0
 11
67.9059613985
 21
55.3247126866
 31
0.0
  0
LINE
  5
89
330
1F
100
AcDbEntity
  8
0
  6
Continuous
 62
     7
370
    25
100
AcDbLine
 10
60.4059613985
 20
54.8404001866
 30
0.0
 11
50.4947490522
 21
54.5306748007
 31
0.0
  0
LINE
  5
8A
330
1F
100
AcDbEntity
  8
0
  6
Continuous
 62
     7
370
    25
100
AcDbLine
 10
50.4947490522
 20
41.6187505724
 30
0.0
 11
60.4059613985
 21
41.3090251866
 31
0.0
  0
LINE
  5
8B
330
1F
100
AcDbEntity
  8
0
  6
Continuous
 62
     7
370
    25
100
AcDbLine
 10
50.4947490522
 20
54.5306748007
 30
0.0
 11
48.4059613985
 21
53.3247126866
 31
0.0
  0
LINE
  5
8C
330
1F
100
AcDbEntity
  8
0
  6
Continuous
 62
     7
370
    25
100
AcDbLine
 10
48.4059613985
 20
42.8247126866
 30
0.0
 11
50.4947490522
 21
41.6187505724
 31
0.0
  0
LINE
  5
8D
330
1F
100
AcDbEntity
  8
0
  6
Continuous
 62
     7
370
    25
100
AcDbLine
 10
65.5024344526
 20
38.2597581103
 30
0.0
 11
66.1894550475
 21
39.4497126866
 31
0.0
  0
ARC
  5
8E
330
1F
100
AcDbEntity
  8
0
  6
Continuous
 62
     7
370
    25
100
AcDbCircle
 10
66.8389741003
 20
39.0747126866
 30
0.0
 40
0.75
100
AcDbArc
 50
90.0
 51
150.0
  0
ARC
  5
8F
330
1F
100
AcDbEntity
  8
0
  6
Continuous
 62
     7
370
    25
100
AcDbCircle
 10
66.8389741003
 20
57.0747126866
 30
0.0
 40
0.75
100
AcDbArc
 50
210.0
 51
270.0
  0
LINE
  5
90
330
1F
100
AcDbEntity
  8
0
  6
Continuous
 62
     7
370
    25
100
AcDbLine
 10
66.1894550475
 20
56.6997126866
 30
0.0
 11
65.5024344526
 21
57.8896672628
 31
0.0
  0
SPLINE
  5
91
330
1F
100
AcDbEntity
  8
0
  6
Continuous
 62
     7
370
    25
100
AcDbSpline
210
0.0
220
0.0
230
1.0
 70
     8
 71
     3
 72
    16
 73
    12
 74
     0
 42
0.000000001
 43
0.00000001
 40
0.0
 40
0.0
 40
0.0
 40
0.0
 40
0.1322996825587257
 40
0.2645619585584918
 40
0.3546998975276411
 40
0.4449068940618417
 40
0.5350279613378792
 40
0.6502124383324805
 40
0.7654148828573636
 40
0.8826961023800923
 40
0.9999999999999999
 40
0.9999999999999999
 40
0.9999999999999999
 40
0.9999999999999999
 10
73.87042968563614
 20
54.13689051305823
 30
0.0
 10
73.72764786770772
 20
54.39879634674671
 30
0.0
 10
73.44212460214042
 20
54.92253396257782
 30
0.0
 10
73.16983392102773
 20
55.63819140654973
 30
0.0
 10
73.00948889044986
 20
56.27467513923919
 30
0.0
 10
72.93476818914284
 20
56.82857294988891
 30
0.0
 10
72.92538592294044
 20
57.43510416980293
 30
0.0
 10
73.00865526773937
 20
58.09195921677284
 30
0.0
 10
73.20308229553332
 20
58.79897504163316
 30
0.0
 10
73.48831892762753
 20
59.50281370622679
 30
0.0
 10
73.74305122436999
 20
59.96696850466314
 30
0.0
 10
73.87042968563614
 20
60.19906833954933
 30
0.0
  0
SPLINE
  5
92
330
1F
100
AcDbEntity
  8
0
  6
Continuous
 62
     7
370
    25
100
AcDbSpline
210
0.0
220
0.0
230
1.0
 70
     8
 71
     3
 72
    16
 73
    12
 74
     0
 42
0.000000001
 43
0.00000001
 40
0.0
 40
0.0
 40
0.0
 40
0.0
 40
0.1151108105905589
 40
0.2406803956034897
 40
0.366217666915262
 40
0.494847722290026
 40
0.6234766707927398
 40
0.7171032364566066
 40
0.810739512423133
 40
0.9053651295077384
 40
1.0
 40
1.0
 40
1.0
 40
1.0
 10
73.87042968563614
 20
42.01253486007607
 30
0.0
 10
73.74530525605776
 20
42.46801196295115
 30
0.0
 10
73.48368780191869
 20
43.42035005131917
 30
0.0
 10
73.18714287560115
 20
44.89465894651239
 30
0.0
 10
72.98335378566144
 20
46.44058901284571
 30
0.0
 10
72.9107358711384
 20
48.01138888407976
 30
0.0
 10
72.96754289989009
 20
49.45162964192817
 30
0.0
 10
73.11406352334537
 20
50.74004571059313
 30
0.0
 10
73.30911233921928
 20
51.88042662887244
 30
0.0
 10
73.55928841725415
 20
53.01435072848255
 30
0.0
 10
73.76671254901794
 20
53.76269838868449
 30
0.0
 10
73.87042968563614
 20
54.13689051305823
 30
0.0
  0
SPLINE
  5
93
330
1F
100
AcDbEntity
  8
0
  6
Continuous
 62
     7
370
    25
100
AcDbSpline
210
0.0
220
0.0
230
1.0
 70
     8
 71
     3
 72
    16
 73
    12
 74
     0
 42
0.000000001
 43
0.00000001
 40
0.0
 40
0.0
 40
0.0
 40
0.0
 40
0.1322996825587258
 40
0.2645619585584918
 40
0.354699897527641
 40
0.4449068940618417
 40
0.5350279613378793
 40
0.6502124383324805
 40
0.7654148828573637
 40
0.8826961023800924
 40
1.0
 40
1.0
 40
1.0
 40
1.0
 10
73.87042968563614
 20
35.95035703358504
 30
0.0
 10
73.72764786770772
 20
36.21226286727351
 30
0.0
 10
73.44212460214042
 20
36.73600048310461
 30
0.0
 10
73.16983392102773
 20
37.45165792707651
 30
0.0
 10
73.00948889044984
 20
38.08814165976597
 30
0.0
 10
72.93476818914284
 20
38.64203947041568
 30
0.0
 10
72.92538592294044
 20
39.24857069032969
 30
0.0
 10
73.00865526773937
 20
39.90542573729958
 30
0.0
 10
73.2030822955333
 20
40.6124415621599
 30
0.0
 10
73.48831892762753
 20
41.31628022675352
 30
0.0
 10
73.74305122436999
 20
41.78043502518986
 30
0.0
 10
73.87042968563614
 20
42.01253486007607
 30
0.0
  0
LINE
  5
94
330
1F
100
AcDbEntity
  8
0
  6
Continuous
 62
     7
370
    25
100
AcDbLine
 10
72.7882699448
 20
48.0747126866
 30
0.0
 11
72.7882699448
 21
58.3247126866
 31
0.0
  0
LINE
  5
95
330
1F
100
AcDbEntity
  8
0
  6
Continuous
 62
     7
370
    25
100
AcDbLine
 10
72.7882699448
 20
37.8247126866
 30
0.0
 11
72.7882699448
 21
48.0747126866
 31
0.0
  0
SPLINE
  5
96
330
1F
100
AcDbEntity
  8
0
  6
Continuous
 62
     7
370
    25
100
AcDbSpline
210
0.0
220
0.0
230
1.0
 70
     8
 71
     3
 72
    10
 73
     6
 74
     0
 42
0.000000001
 43
0.00000001
 40
0.0
 40
0.0
 40
0.0
 40
0.0
 40
0.3258684952272098
 40
0.6527960511516884
 40
1.0
 40
1.0
 40
1.0
 40
1.0
 10
85.999594810235
 20
45.76982657224393
 30
0.0
 10
85.94057785464372
 20
45.35640696508408
 30
0.0
 10
85.82235214051289
 20
44.5282241521538
 30
0.0
 10
85.55288807987172
 20
43.27444485671899
 30
0.0
 10
85.3239976693424
 20
42.44152235127905
 30
0.0
 10
85.20611020402346
 20
42.01253486007607
 30
0.0
  0
LINE
  5
97
330
1F
100
AcDbEntity
  8
0
  6
Continuous
 62
     7
370
    25
100
AcDbLine
 10
85.9995948102
 20
40.133889004
 30
0.0
 11
85.9995948102
 21
45.7698265722
 31
0.0
  0
SPLINE
  5
98
330
1F
100
AcDbEntity
  8
0
  6
Continuous
 62
     7
370
    25
100
AcDbSpline
210
0.0
220
0.0
230
1.0
 70
     8
 71
     3
 72
    11
 73
     7
 74
     0
 42
0.000000001
 43
0.00000001
 40
0.0
 40
0.0
 40
0.0
 40
0.0
 40
0.2492746065874177
 40
0.4985360879179711
 40
0.749276064948499
 40
0.9999999999999999
 40
0.9999999999999999
 40
0.9999999999999999
 40
0.9999999999999999
 10
85.20611020402346
 20
42.01253486007607
 30
0.0
 10
85.29205912458194
 20
41.85870869493012
 30
0.0
 10
85.46395244016107
 20
41.55106446417135
 30
0.0
 10
85.68166691515873
 20
41.08342418847812
 30
0.0
 10
85.86786447142913
 20
40.6113500277464
 30
0.0
 10
85.9556856337747
 20
40.29303928429192
 30
0.0
 10
85.999594810235
 20
40.13388900399215
 30
0.0
  0
SPLINE
  5
99
330
1F
100
AcDbEntity
  8
0
  6
Continuous
 62
     7
370
    25
100
AcDbSpline
210
0.0
220
0.0
230
1.0
 70
     8
 71
     3
 72
    11
 73
     7
 74
     0
 42
0.000000001
 43
0.00000001
 40
0.0
 40
0.0
 40
0.0
 40
0.0
 40
0.2491624812892783
 40
0.4983406089177417
 40
0.7491635688579431
 40
0.9999999999999999
 40
0.9999999999999999
 40
0.9999999999999999
 40
0.9999999999999999
 10
85.999594810235
 20
56.01553636914218
 30
0.0
 10
85.95598671424843
 20
55.85737562032228
 30
0.0
 10
85.8687677838732
 20
55.54104419086327
 30
0.0
 10
85.68335468612564
 20
55.06991596580736
 30
0.0
 10
85.46551787738144
 20
54.60125968439411
 30
0.0
 10
85.29258097645067
 20
54.29168300788695
 30
0.0
 10
85.20611020402346
 20
54.13689051305823
 30
0.0
  0
LINE
  5
9A
330
1F
100
AcDbEntity
  8
0
  6
Continuous
 62
     7
370
    25
100
AcDbLine
 10
85.9995948102
 20
50.3795988009
 30
0.0
 11
85.9995948102
 21
56.0155363691
 31
0.0
  0
SPLINE
  5
9B
330
1F
100
AcDbEntity
  8
0
  6
Continuous
 62
     7
370
    25
100
AcDbSpline
210
0.0
220
0.0
230
1.0
 70
     8
 71
     3
 72
    11
 73
     7
 74
     0
 42
0.000000001
 43
0.00000001
 40
0.0
 40
0.0
 40
0.0
 40
0.0
 40
0.2492746065874185
 40
0.4985360879179722
 40
0.7492760649485001
 40
0.9999999999999999
 40
0.9999999999999999
 40
0.9999999999999999
 40
0.9999999999999999
 10
85.20611020402346
 20
54.13689051305823
 30
0.0
 10
85.29205912458194
 20
53.82923818276636
 30
0.0
 10
85.46395244016108
 20
53.21394972124882
 30
0.0
 10
85.68166691515871
 20
52.27866916986234
 30
0.0
 10
85.86786447142916
 20
51.3345208483989
 30
0.0
 10
85.95568563377473
 20
50.69789936148993
 30
0.0
 10
85.99959481023502
 20
50.37959880089038
 30
0.0
  0
SPLINE
  5
9C
330
1F
100
AcDbEntity
  8
0
  6
Continuous
 62
     7
370
    25
100
AcDbSpline
210
0.0
220
0.0
230
1.0
 70
     8
 71
     3
 72
    11
 73
     7
 74
     0
 42
0.000000001
 43
0.00000001
 40
0.0
 40
0.0
 40
0.0
 40
0.0
 40
0.2958382525912819
 40
0.5932610319616778
 40
0.7963744598462189
 40
1.0
 40
1.0
 40
1.0
 40
1.0
 10
85.999594810235
 20
58.3204224834654
 30
0.0
 10
86.0466969460659
 20
58.09369505396729
 30
0.0
 10
86.14115349948952
 20
57.63902582975479
 30
0.0
 10
86.15256945975007
 20
57.02488223275705
 30
0.0
 10
86.10251199225281
 20
56.48290316980116
 30
0.0
 10
86.0339293210039
 20
56.17145601380831
 30
0.0
 10
85.999594810235
 20
56.01553636914218
 30
0.0
  0
LINE
  5
9D
330
1F
100
AcDbEntity
  8
0
  6
Continuous
 62
     7
370
    25
100
AcDbLine
 10
85.206110204
 20
54.1368905131
 30
0.0
 11
73.8704296856
 21
54.1368905131
 31
0.0
  0
LINE
  5
9E
330
1F
100
AcDbEntity
  8
0
  6
Continuous
 62
     7
370
    25
100
AcDbLine
 10
85.206110204
 20
60.1990683395
 30
0.0
 11
73.8704296856
 21
60.1990683395
 31
0.0
  0
SPLINE
  5
9F
330
1F
100
AcDbEntity
  8
0
  6
Continuous
 62
     7
370
    25
100
AcDbSpline
210
0.0
220
0.0
230
1.0
 70
     8
 71
     3
 72
    11
 73
     7
 74
     0
 42
0.000000001
 43
0.00000001
 40
0.0
 40
0.0
 40
0.0
 40
0.0
 40
0.2492746065874178
 40
0.4985360879179713
 40
0.7492760649484994
 40
0.9999999999999999
 40
0.9999999999999999
 40
0.9999999999999999
 40
0.9999999999999999
 10
85.20611020402346
 20
60.19906833954933
 30
0.0
 10
85.29205912458193
 20
60.04524217440339
 30
0.0
 10
85.46395244016107
 20
59.73759794364462
 30
0.0
 10
85.68166691515874
 20
59.26995766795139
 30
0.0
 10
85.86786447142913
 20
58.79788350721965
 30
0.0
 10
85.9556856337747
 20
58.47957276376517
 30
0.0
 10
85.999594810235
 20
58.3204224834654
 30
0.0
  0
SPLINE
  5
A0
330
1F
100
AcDbEntity
  8
0
  6
Continuous
 62
     7
370
    25
100
AcDbSpline
210
0.0
220
0.0
230
1.0
 70
     8
 71
     3
 72
    12
 73
     8
 74
     0
 42
0.000000001
 43
0.00000001
 40
0.0
 40
0.0
 40
0.0
 40
0.0
 40
0.1850710896720204
 40
0.3877424800495118
 40
0.5904108230733411
 40
0.7952015463110217
 40
1.0
 40
1.0
 40
1.0
 40
1.0
 10
85.99959481023502
 20
50.37959880089038
 30
0.0
 10
86.03109367168234
 20
50.09621247288962
 30
0.0
 10
86.09708694312177
 20
49.5024897157271
 30
0.0
 10
86.14405847928246
 20
48.59363299018681
 30
0.0
 10
86.14685298465896
 20
47.65352512499967
 30
0.0
 10
86.10283979450526
 20
46.71077513529058
 30
0.0
 10
86.03401023801386
 20
46.08348003971319
 30
0.0
 10
85.999594810235
 20
45.76982657224393
 30
0.0
  0
LINE
  5
A1
330
1F
100
AcDbEntity
  8
0
  6
Continuous
 62
     7
370
    25
100
AcDbLine
 10
85.206110204
 20
42.0125348601
 30
0.0
 11
73.8704296856
 21
42.0125348601
 31
0.0
  0
SPLINE
  5
A2
330
1F
100
AcDbEntity
  8
0
  6
Continuous
 62
     7
370
    25
100
AcDbSpline
210
0.0
220
0.0
230
1.0
 70
     8
 71
     3
 72
    13
 73
     9
 74
     0
 42
0.000000001
 43
0.00000001
 40
0.0
 40
0.0
 40
0.0
 40
0.0
 40
0.1365245485709977
 40
0.2730742214951815
 40
0.4115382417990804
 40
0.5499846193303997
 40
0.773937035610281
 40
1.0
 40
1.0
 40
1.0
 40
1.0
 10
86.86562021401942
 20
50.27239479557301
 30
0.0
 10
86.8628906251173
 20
50.07469894700743
 30
0.0
 10
86.85743094499202
 20
49.679270868285
 30
0.0
 10
86.82859169216806
 20
49.07630322690611
 30
0.0
 10
86.80753869430552
 20
48.46718551996199
 30
0.0
 10
86.80129206151798
 20
47.72708885276867
 30
0.0
 10
86.84299122462996
 20
46.85838408147629
 30
0.0
 10
86.85805367020107
 20
46.20516959255932
 30
0.0
 10
86.86562021401942
 20
45.87703057756129
 30
0.0
  0
ARC
  5
A3
330
1F
100
AcDbEntity
  8
0
  6
Continuous
 62
     7
370
    25
100
AcDbCircle
 10
86.775611503
 20
43.0525417144
 30
0.0
 40
2.825922664582057
100
AcDbArc
 50
88.1747583904
 51
105.9385646811
  0
ARC
  5
A4
330
1F
100
AcDbEntity
  8
0
  6
Continuous
 62
     7
370
    25
100
AcDbCircle
 10
86.775611503
 20
53.0968836587
 30
0.0
 40
2.825922664590119
100
AcDbArc
 50
254.061435319
 51
271.8252416096
  0
ARC
  5
A5
330
1F
100
AcDbEntity
  8
0
  6
Continuous
 62
     7
370
    25
100
AcDbCircle
 10
86.8227541722
 20
56.7456771644
 30
0.0
 40
1.100316734465835
100
AcDbArc
 50
221.5729649515
 51
272.2326889081
  0
LINE
  5
A6
330
1F
100
AcDbEntity
  8
0
  6
Continuous
 62
     7
370
    25
100
AcDbLine
 10
86.865620214
 20
55.6461957327
 30
0.0
 11
86.865620214
 21
50.2723947956
 31
0.0
  0
LINE
  5
A7
330
1F
100
AcDbEntity
  8
0
  6
Continuous
 62
     7
370
    25
100
AcDbLine
 10
86.865620214
 20
45.8770305776
 30
0.0
 11
86.865620214
 21
40.5032296404
 31
0.0
  0
ARC
  5
A8
330
1F
100
AcDbEntity
  8
0
  6
Continuous
 62
     7
370
    25
100
AcDbCircle
 10
86.8227541722
 20
39.4037482087
 30
0.0
 40
1.100316734465926
100
AcDbArc
 50
87.7673110919
 51
138.4270350485
  0
SPLINE
  5
A9
330
1F
100
AcDbEntity
  8
0
  6
Continuous
 62
     7
370
    25
100
AcDbSpline
210
0.0
220
0.0
230
1.0
 70
     8
 71
     3
 72
    11
 73
     7
 74
     0
 42
0.000000001
 43
0.00000001
 40
0.0
 40
0.0
 40
0.0
 40
0.0
 40
0.2958382525912817
 40
0.5932610319616778
 40
0.796374459846219
 40
1.0
 40
1.0
 40
1.0
 40
1.0
 10
85.999594810235
 20
40.13388900399215
 30
0.0
 10
86.0466969460659
 20
39.90716157449405
 30
0.0
 10
86.14115349948953
 20
39.45249235028155
 30
0.0
 10
86.15256945975005
 20
38.83834875328382
 30
0.0
 10
86.10251199225283
 20
38.29636969032793
 30
0.0
 10
86.0339293210039
 20
37.98492253433508
 30
0.0
 10
85.999594810235
 20
37.82900288966895
 30
0.0
  0
SPLINE
  5
AA
330
1F
100
AcDbEntity
  8
0
  6
Continuous
 62
     7
370
    25
100
AcDbSpline
210
0.0
220
0.0
230
1.0
 70
     8
 71
     3
 72
    11
 73
     7
 74
     0
 42
0.000000001
 43
0.00000001
 40
0.0
 40
0.0
 40
0.0
 40
0.0
 40
0.2491624812892784
 40
0.4983406089177418
 40
0.7491635688579431
 40
0.9999999999999999
 40
0.9999999999999999
 40
0.9999999999999999
 40
0.9999999999999999
 10
85.999594810235
 20
37.82900288966895
 30
0.0
 10
85.95598671424843
 20
37.67084214084906
 30
0.0
 10
85.86876778387321
 20
37.35451071139005
 30
0.0
 10
85.68335468612565
 20
36.88338248633415
 30
0.0
 10
85.46551787738144
 20
36.41472620492091
 30
0.0
 10
85.29258097645067
 20
36.10514952841375
 30
0.0
 10
85.20611020402346
 20
35.95035703358504
 30
0.0
  0
LINE
  5
AB
330
1F
100
AcDbEntity
  8
0
  6
Continuous
 62
     7
370
    25
100
AcDbLine
 10
85.206110204
 20
35.9503570336
 30
0.0
 11
73.8704296856
 21
35.9503570336
 31
0.0
  0
LINE
  5
AC
330
1F
100
AcDbEntity
  8
0
  6
Continuous
 62
     7
370
    25
100
AcDbLine
 10
87.7882699448
 20
58.1247126866
 30
0.0
 11
87.7882699448
 21
38.0247126866
 31
0.0
  0
LINE
  5
AD
330
1F
100
AcDbEntity
  8
0
  6
Continuous
 62
     7
370
    25
100
AcDbLine
 10
87.5882699448
 20
37.8247126866
 30
0.0
 11
87.5882699448
 21
58.3247126866
 31
0.0
  0
SPLINE
  5
AE
330
1F
100
AcDbEntity
  8
0
  6
Continuous
 62
     7
370
    25
100
AcDbSpline
210
0.0
220
0.0
230
1.0
 70
     8
 71
     3
 72
    13
 73
     9
 74
     0
 42
0.000000001
 43
0.00000001
 40
0.0
 40
0.0
 40
0.0
 40
0.0
 40
0.1365245485709985
 40
0.2730742214951829
 40
0.4115382417990821
 40
0.5499846193304024
 40
0.7739370356102826
 40
1.0
 40
1.0
 40
1.0
 40
1.0
 10
86.86562021401942
 20
40.50322964039098
 30
0.0
 10
86.86289062511732
 20
40.36985333949433
 30
0.0
 10
86.85743094499203
 20
40.10307619271386
 30
0.0
 10
86.82859169216805
 20
39.73637772173704
 30
0.0
 10
86.80753869430552
 20
39.39520545211352
 30
0.0
 10
86.80129206151798
 20
39.02060638699262
 30
0.0
 10
86.84299122462997
 20
38.63458405155859
 30
0.0
 10
86.85805367020107
 20
38.41556876144889
 30
0.0
 10
86.86562021401942
 20
38.30554753138514
 30
0.0
  0
SPLINE
  5
AF
330
1F
100
AcDbEntity
  8
0
  6
Continuous
 62
     7
370
    25
100
AcDbSpline
210
0.0
220
0.0
230
1.0
 70
     8
 71
     3
 72
    13
 73
     9
 74
     0
 42
0.000000001
 43
0.00000001
 40
0.0
 40
0.0
 40
0.0
 40
0.0
 40
0.1365245485709921
 40
0.2730742214951701
 40
0.411538241799063
 40
0.5499846193303763
 40
0.7739370356102692
 40
1.0
 40
1.0
 40
1.0
 40
1.0
 10
86.86562021401942
 20
57.8438778417492
 30
0.0
 10
86.86289062511732
 20
57.77955829408027
 30
0.0
 10
86.85743094499202
 20
57.65090736213832
 30
0.0
 10
86.82859169216806
 20
57.41463819173627
 30
0.0
 10
86.80753869430552
 20
57.14669275441567
 30
0.0
 10
86.80129206151797
 20
56.78119515234328
 30
0.0
 10
86.84299122462996
 20
56.29851271648492
 30
0.0
 10
86.85805367020107
 20
55.86431351767764
 30
0.0
 10
86.86562021401942
 20
55.64619573274334
 30
0.0
  0
ARC
  5
B0
330
1F
100
AcDbEntity
  8
0
  6
Continuous
 62
     7
370
    25
100
AcDbCircle
 10
86.8569761687
 20
58.8533560581
 30
0.0
 40
1.009515224607377
100
AcDbArc
 50
211.8643766323
 51
270.4906051505
  0
ARC
  5
B1
330
1F
100
AcDbEntity
  8
0
  6
Continuous
 62
     7
370
    25
100
AcDbCircle
 10
86.8569761687
 20
37.2960693151
 30
0.0
 40
1.00951522461401
100
AcDbArc
 50
89.5093948497
 51
148.1356233675
  0
SPLINE
  5
B2
330
1F
100
AcDbEntity
  8
0
  6
Continuous
 62
     7
370
    25
100
AcDbSpline
210
0.0
220
0.0
230
1.0
 70
     8
 71
     3
 72
    10
 73
     6
 74
     0
 42
0.000000001
 43
0.00000001
 40
0.0
 40
0.0
 40
0.0
 40
0.0
 40
0.5
 40
0.5
 40
1.0
 40
1.0
 40
1.0
 40
1.0
 10
65.50243445260153
 20
43.16723539845535
 30
0.0
 10
65.66490633659765
 20
43.73005451422073
 30
0.0
 10
65.80913689894155
 20
44.30273647691396
 30
0.0
 10
66.0430413377832
 20
45.45371634038158
 30
0.0
 10
66.1326264596099
 20
46.03137366120453
 30
0.0
 10
66.18945504750766
 20
46.61162519772724
 30
0.0
  0
LINE
  5
B3
330
1F
100
AcDbEntity
  8
0
  6
Continuous
 62
     7
370
    25
100
AcDbLine
 10
66.1894550475
 20
41.4450404988
 30
0.0
 11
66.1894550475
 21
46.6116251977
 31
0.0
  0
SPLINE
  5
B4
330
1F
100
AcDbEntity
  8
0
  6
Continuous
 62
     7
370
    25
100
AcDbSpline
210
0.0
220
0.0
230
1.0
 70
     8
 71
     3
 72
     8
 73
     4
 74
     0
 42
0.000000001
 43
0.00000001
 40
0.0
 40
0.0
 40
0.0
 40
0.0
 40
1.0
 40
1.0
 40
1.0
 40
1.0
 10
66.18945504750766
 20
41.44504049881945
 30
0.0
 10
66.07514891518493
 20
42.02860513915104
 30
0.0
 10
65.82919665353981
 20
42.60126666443759
 30
0.0
 10
65.50243445260173
 20
43.16723539845538
 30
0.0
  0
LINE
  5
B5
330
1F
100
AcDbEntity
  8
0
  6
Continuous
 62
     7
370
    25
100
AcDbLine
 10
60.4059613985
 20
57.8896672628
 30
0.0
 11
60.4059613985
 21
52.9821899747
 31
0.0
  0
LINE
  5
B6
330
1F
100
AcDbEntity
  8
0
  6
Continuous
 62
     7
370
    25
100
AcDbLine
 10
65.5024344526
 20
57.8896672628
 30
0.0
 11
60.4059613985
 21
57.8896672628
 31
0.0
  0
SPLINE
  5
B7
330
1F
100
AcDbEntity
  8
0
  6
Continuous
 62
     7
370
    25
100
AcDbSpline
210
0.0
220
0.0
230
1.0
 70
     8
 71
     3
 72
     8
 73
     4
 74
     0
 42
0.000000001
 43
0.00000001
 40
0.0
 40
0.0
 40
0.0
 40
0.0
 40
1.0
 40
1.0
 40
1.0
 40
1.0
 10
66.18945504750766
 20
56.16747236315491
 30
0.0
 10
66.07514891518493
 20
56.7510370034865
 30
0.0
 10
65.82919665353981
 20
57.32369852877305
 30
0.0
 10
65.50243445260172
 20
57.88966726279085
 30
0.0
  0
SPLINE
  5
B8
330
1F
100
AcDbEntity
  8
0
  6
Continuous
 62
     7
370
    25
100
AcDbSpline
210
0.0
220
0.0
230
1.0
 70
     8
 71
     3
 72
    10
 73
     6
 74
     0
 42
0.000000001
 43
0.00000001
 40
0.0
 40
0.0
 40
0.0
 40
0.0
 40
0.4999999999999998
 40
0.4999999999999998
 40
1.0
 40
1.0
 40
1.0
 40
1.0
 10
66.18945504750766
 20
54.70438487431495
 30
0.0
 10
66.23676281080549
 20
54.94590418139678
 30
0.0
 10
66.26149183992187
 20
55.18904520593708
 30
0.0
 10
66.26175476189647
 20
55.67886069540906
 30
0.0
 10
66.2370095202368
 20
55.92469353571643
 30
0.0
 10
66.18945504750766
 20
56.16747236315491
 30
0.0
  0
SPLINE
  5
B9
330
1F
100
AcDbEntity
  8
0
  6
Continuous
 62
     7
370
    25
100
AcDbSpline
210
0.0
220
0.0
230
1.0
 70
     8
 71
     3
 72
     8
 73
     4
 74
     0
 42
0.000000001
 43
0.00000001
 40
0.0
 40
0.0
 40
0.0
 40
0.0
 40
1.0
 40
1.0
 40
1.0
 40
1.0
 10
65.50243445260193
 20
52.98218997467898
 30
0.0
 10
65.82979256821305
 20
53.54919086318748
 30
0.0
 10
66.07539254452217
 20
54.12206402960197
 30
0.0
 10
66.18945504750766
 20
54.70438487431495
 30
0.0
  0
LINE
  5
BA
330
1F
100
AcDbEntity
  8
0
  6
Continuous
 62
     7
370
    25
100
AcDbLine
 10
65.5024344526
 20
52.9821899747
 30
0.0
 11
60.4059613985
 21
52.9821899747
 31
0.0
  0
LINE
  5
BB
330
1F
100
AcDbEntity
  8
0
  6
Continuous
 62
     7
370
    25
100
AcDbLine
 10
66.8389741003
 20
46.6752376972
 30
0.0
 11
66.8389741003
 21
41.7332871157
 31
0.0
  0
ARC
  5
BC
330
1F
100
AcDbEntity
  8
0
  6
Continuous
 62
     7
370
    25
100
AcDbCircle
 10
66.8100218008
 20
40.9226080922
 30
0.0
 40
0.8111958547042037
100
AcDbArc
 50
87.9546284054
 51
139.9072030665
  0
ARC
  5
BD
330
1F
100
AcDbEntity
  8
0
  6
Continuous
 62
     7
370
    25
100
AcDbCircle
 10
66.7702508361
 20
44.0291585964
 30
0.0
 40
2.64697138158384
100
AcDbArc
 50
88.5122636654
 51
102.674909816
  0
LINE
  5
BE
330
1F
100
AcDbEntity
  8
0
  6
Continuous
 62
     7
370
    25
100
AcDbLine
 10
66.1894550475
 20
49.5378001754
 30
0.0
 11
66.1894550475
 21
54.7043848743
 31
0.0
  0
SPLINE
  5
BF
330
1F
100
AcDbEntity
  8
0
  6
Continuous
 62
     7
370
    25
100
AcDbSpline
210
0.0
220
0.0
230
1.0
 70
     8
 71
     3
 72
     8
 73
     4
 74
     0
 42
0.000000001
 43
0.00000001
 40
0.0
 40
0.0
 40
0.0
 40
0.0
 40
1.0
 40
1.0
 40
1.0
 40
1.0
 10
66.18945504750766
 20
49.53780017540714
 30
0.0
 10
66.07402219349774
 20
50.71643391209163
 30
0.0
 10
65.8265008052884
 20
51.85959119892456
 30
0.0
 10
65.5024344526015
 20
52.98218997467901
 30
0.0
  0
LINE
  5
C0
330
1F
100
AcDbEntity
  8
0
  6
Continuous
 62
     7
370
    25
100
AcDbLine
 10
60.4059613985
 20
52.9821899747
 30
0.0
 11
60.4059613985
 21
43.1672353985
 31
0.0
  0
SPLINE
  5
C1
330
1F
100
AcDbEntity
  8
0
  6
Continuous
 62
     7
370
    25
100
AcDbSpline
210
0.0
220
0.0
230
1.0
 70
     8
 71
     3
 72
    10
 73
     6
 74
     0
 42
0.000000001
 43
0.00000001
 40
0.0
 40
0.0
 40
0.0
 40
0.0
 40
0.5
 40
0.5
 40
1.0
 40
1.0
 40
1.0
 40
1.0
 10
66.18945504750766
 20
46.61162519772724
 30
0.0
 10
66.23685725481138
 20
47.09562813779718
 30
0.0
 10
66.26143952753444
 20
47.58143834577542
 30
0.0
 10
66.26180605625704
 20
48.55692341302179
 30
0.0
 10
66.23740329963078
 20
49.04822181357865
 30
0.0
 10
66.18945504750766
 20
49.53780017540714
 30
0.0
  0
LINE
  5
C2
330
1F
100
AcDbEntity
  8
0
  6
Continuous
 62
     7
370
    25
100
AcDbLine
 10
65.5024344526
 20
43.1672353985
 30
0.0
 11
60.4059613985
 21
43.1672353985
 31
0.0
  0
ARC
  5
C3
330
1F
100
AcDbEntity
  8
0
  6
Continuous
 62
     7
370
    25
100
AcDbCircle
 10
66.8100218008
 20
55.2268172809
 30
0.0
 40
0.8111958547050114
100
AcDbArc
 50
220.0927969335
 51
272.0453715946
  0
LINE
  5
C4
330
1F
100
AcDbEntity
  8
0
  6
Continuous
 62
     7
370
    25
100
AcDbLine
 10
66.8389741003
 20
54.4161382575
 30
0.0
 11
66.8389741003
 21
49.4741876759
 31
0.0
  0
ARC
  5
C5
330
1F
100
AcDbEntity
  8
0
  6
Continuous
 62
     7
370
    25
100
AcDbCircle
 10
66.7702508361
 20
52.1202667767
 30
0.0
 40
2.646971381554827
100
AcDbArc
 50
257.3250901839
 51
271.4877363346
  0
SPLINE
  5
C6
330
1F
100
AcDbEntity
  8
0
  6
Continuous
 62
     7
370
    25
100
AcDbSpline
210
0.0
220
0.0
230
1.0
 70
     8
 71
     3
 72
    10
 73
     6
 74
     0
 42
0.000000001
 43
0.00000001
 40
0.0
 40
0.0
 40
0.0
 40
0.0
 40
0.5
 40
0.5
 40
1.0
 40
1.0
 40
1.0
 40
1.0
 10
66.18945504750766
 20
39.98195300997947
 30
0.0
 10
66.23676281080549
 20
40.2234723170613
 30
0.0
 10
66.26149183992187
 20
40.46661334160162
 30
0.0
 10
66.26175476189648
 20
40.95642883107359
 30
0.0
 10
66.2370095202368
 20
41.20226167138096
 30
0.0
 10
66.18945504750766
 20
41.44504049881945
 30
0.0
  0
SPLINE
  5
C7
330
1F
100
AcDbEntity
  8
0
  6
Continuous
 62
     7
370
    25
100
AcDbSpline
210
0.0
220
0.0
230
1.0
 70
     8
 71
     3
 72
     8
 73
     4
 74
     0
 42
0.000000001
 43
0.00000001
 40
0.0
 40
0.0
 40
0.0
 40
0.0
 40
1.0
 40
1.0
 40
1.0
 40
1.0
 10
65.50243445260193
 20
38.25975811034352
 30
0.0
 10
65.82979256821305
 20
38.826758998852
 30
0.0
 10
66.07539254452217
 20
39.39963216526648
 30
0.0
 10
66.18945504750766
 20
39.98195300997947
 30
0.0
  0
LINE
  5
C8
330
1F
100
AcDbEntity
  8
0
  6
Continuous
 62
     7
370
    25
100
AcDbLine
 10
65.5024344526
 20
38.2597581103
 30
0.0
 11
60.4059613985
 21
38.2597581103
 31
0.0
  0
LINE
  5
C9
330
1F
100
AcDbEntity
  8
0
  6
Continuous
 62
     7
370
    25
100
AcDbLine
 10
60.4059613985
 20
43.1672353985
 30
0.0
 11
60.4059613985
 21
38.2597581103
 31
0.0
  0
SPLINE
  5
CA
330
1F
100
AcDbEntity
  8
0
  6
Continuous
 62
     7
370
    25
100
AcDbSpline
210
0.0
220
0.0
230
1.0
 70
     8
 71
     3
 72
    10
 73
     6
 74
     0
 42
0.000000001
 43
0.00000001
 40
0.0
 40
0.0
 40
0.0
 40
0.0
 40
0.5
 40
0.5
 40
1.0
 40
1.0
 40
1.0
 40
1.0
 10
66.838974100346
 20
49.47418767589236
 30
0.0
 10
66.838974100346
 20
49.01049011631478
 30
0.0
 10
66.82069093244237
 20
48.54493985623375
 30
0.0
 10
66.82059100131363
 20
47.60977643422608
 30
0.0
 10
66.838974100346
 20
47.13911643481607
 30
0.0
 10
66.838974100346
 20
46.67523769724202
 30
0.0
  0
LINE
  5
CB
330
1F
100
AcDbEntity
  8
0
  6
Continuous
 62
     7
370
    25
100
AcDbLine
 10
70.9059613985
 20
56.4057126866
 30
0.0
 11
70.9059613985
 21
39.7437126866
 31
0.0
  0
LINE
  5
CC
330
1F
100
AcDbEntity
  8
0
  6
Continuous
 62
     7
370
    25
100
AcDbLine
 10
69.9059613985
 20
40.7437126866
 30
0.0
 11
69.9059613985
 21
55.4057126866
 31
0.0
  0
LINE
  5
CD
330
1F
100
AcDbEntity
  8
0
  6
Continuous
 62
     7
370
    25
100
AcDbLine
 10
67.9059613985
 20
56.1247126866
 30
0.0
 11
67.9059613985
 21
40.0247126866
 31
0.0
  0
LINE
  5
CE
330
1F
100
AcDbEntity
  8
0
  6
Continuous
 62
     7
370
    25
100
AcDbLine
 10
67.7059613985
 20
39.8247126866
 30
0.0
 11
67.7059613985
 21
56.3247126866
 31
0.0
  0
SPLINE
  5
CF
330
1F
100
AcDbEntity
  8
0
  6
Continuous
 62
     7
370
    25
100
AcDbSpline
210
0.0
220
0.0
230
1.0
 70
     8
 71
     3
 72
    10
 73
     6
 74
     0
 42
0.000000001
 43
0.00000001
 40
0.0
 40
0.0
 40
0.0
 40
0.0
 40
0.4999999999999998
 40
0.4999999999999998
 40
1.0
 40
1.0
 40
1.0
 40
1.0
 10
66.838974100346
 20
41.73328711567805
 30
0.0
 10
66.838974100346
 20
41.43231625358548
 30
0.0
 10
66.82069093244237
 20
41.16524690548313
 30
0.0
 10
66.82059100131363
 20
40.69740549851776
 30
0.0
 10
66.838974100346
 20
40.49660240514545
 30
0.0
 10
66.838974100346
 20
40.33381212635285
 30
0.0
  0
SPLINE
  5
D0
330
1F
100
AcDbEntity
  8
0
  6
Continuous
 62
     7
370
    25
100
AcDbSpline
210
0.0
220
0.0
230
1.0
 70
     8
 71
     3
 72
    10
 73
     6
 74
     0
 42
0.000000001
 43
0.00000001
 40
0.0
 40
0.0
 40
0.0
 40
0.0
 40
0.4999999999999998
 40
0.4999999999999998
 40
1.0
 40
1.0
 40
1.0
 40
1.0
 10
66.838974100346
 20
55.8156132467815
 30
0.0
 10
66.838974100346
 20
55.65288654929619
 30
0.0
 10
66.82069093244237
 20
55.45440563731754
 30
0.0
 10
66.82059100131363
 20
54.98708362227602
 30
0.0
 10
66.838974100346
 20
54.71722671623809
 30
0.0
 10
66.838974100346
 20
54.41613825745635
 30
0.0
  0
LINE
  5
D1
330
1F
100
AcDbEntity
  8
0
  6
Continuous
 62
     7
370
    25
100
AcDbLine
 10
50.4947490522
 20
41.6187505724
 30
0.0
 11
50.4947490522
 21
54.5306748007
 31
0.0
  0
LINE
  5
D2
330
1F
100
AcDbEntity
  8
0
  6
Continuous
 62
     7
370
    25
100
AcDbLine
 10
48.4059613985
 20
48.0747126866
 30
0.0
 11
48.4059613985
 21
53.3247126866
 31
0.0
  0
LINE
  5
D3
330
1F
100
AcDbEntity
  8
0
  6
Continuous
 62
     7
370
    25
100
AcDbLine
 10
48.4059613985
 20
42.8247126866
 30
0.0
 11
48.4059613985
 21
48.0747126866
 31
0.0
  0
ARC
  5
D4
330
1F
100
AcDbEntity
  8
0
  6
Continuous
 62
     7
370
    25
100
AcDbCircle
 10
66.8305105656
 20
39.5740117421
 30
0.0
 40
0.7598475211157328
100
AcDbArc
 50
89.3617997903
 51
147.5290082721
  0
ARC
  5
D5
330
1F
100
AcDbEntity
  8
0
  6
Continuous
 62
     7
370
    25
100
AcDbCircle
 10
66.8305105656
 20
56.575413631
 30
0.0
 40
0.7598475211166865
100
AcDbArc
 50
212.470991728
 51
270.6382002097
  0
LINE
  5
D6
330
1F
100
AcDbEntity
  8
0
  6
Continuous
 62
     1
370
    25
100
AcDbLine
 10
86.865620214
 20
38.3055475314
 30
0.0
 11
86.865620214
 21
37.8247126866
 31
0.0
  0
LINE
  5
D7
330
1F
100
AcDbEntity
  8
0
  6
Continuous
 62
     1
370
    25
100
AcDbLine
 10
86.865620214
 20
58.3247126866
 30
0.0
 11
86.865620214
 21
57.8438778417
 31
0.0
  0
LINE
  5
D8
330
1F
100
AcDbEntity
  8
0
  6
Continuous
 62
     1
370
    25
100
AcDbLine
 10
85.9995948102
 20
58.3204224835
 30
0.0
 11
85.9995948102
 21
58.8247126866
 31
0.0
  0
LINE
  5
D9
330
1F
100
AcDbEntity
  8
0
  6
Continuous
 62
     1
370
    25
100
AcDbLine
 10
85.9995948102
 20
37.3247126866
 30
0.0
 11
85.9995948102
 21
37.8290028897
 31
0.0
  0
LINE
  5
DA
330
1F
100
AcDbEntity
  8
0
  6
Continuous
 62
     1
370
    25
100
AcDbLine
 10
66.8389741003
 20
40.3338121264
 30
0.0
 11
66.8389741003
 21
39.8247126866
 31
0.0
  0
LINE
  5
DB
330
1F
100
AcDbEntity
  8
0
  6
Continuous
 62
     1
370
    25
100
AcDbLine
 10
66.8389741003
 20
56.3247126866
 30
0.0
 11
66.8389741003
 21
55.8156132468
 31
0.0
  0
LINE
  5
DC
330
1F
100
AcDbEntity
  8
0
  6
Continuous
 62
     1
370
    25
100
AcDbLine
 10
66.1894550475
 20
39.4497126866
 30
0.0
 11
66.1894550475
 21
39.98195301
 31
0.0
  0
LINE
  5
DD
330
1F
100
AcDbEntity
  8
0
  6
Continuous
 62
     1
370
    25
100
AcDbLine
 10
66.1894550475
 20
56.1674723632
 30
0.0
 11
66.1894550475
 21
56.6997126866
 31
0.0
  0
LINE
  5
DE
330
1F
100
AcDbEntity
  8
0
  6
Continuous
 62
     7
370
     0
100
AcDbLine
 10
77.7619613985
 20
40.5997126866
 30
0.0
 11
70.0499613985
 21
40.5997126866
 31
0.0
  0
LINE
  5
DF
330
1F
100
AcDbEntity
  8
0
  6
Continuous
 62
     7
370
     0
100
AcDbLine
 10
77.7619613985
 20
55.5497126866
 30
0.0
 11
70.0499613985
 21
55.5497126866
 31
0.0
  0
LINE
  5
E0
330
1F
100
AcDbEntity
  8
0
  6
Continuous
 62
     7
370
     0
100
AcDbLine
 10
49.271187121
 20
53.8242509904
 30
0.0
 11
59.9059613985
 21
54.1565876866
 31
0.0
  0
LINE
  5
E1
330
1F
100
AcDbEntity
  8
0
  6
Continuous
 62
     7
370
     0
100
AcDbLine
 10
49.271187121
 20
42.3251743827
 30
0.0
 11
59.9059613985
 21
41.9928376866
 31
0.0
  0
LINE
  5
E2
330
1F
100
AcDbEntity
  8
0
  6
Continuous
 62
     7
370
     0
100
AcDbLine
 10
59.9059613985
 20
41.3246501866
 30
0.0
 11
59.9059613985
 21
54.8247751866
 31
0.0
  0
LINE
  5
E3
330
1F
100
AcDbEntity
  8
0
  6
Continuous
 62
     7
370
    25
100
AcDbLine
 10
72.9326075121
 20
104.7547559701
 30
0.0
 11
72.7882699448
 21
104.5047559701
 31
0.0
  0
LINE
  5
E4
330
1F
100
AcDbEntity
  8
0
  6
Continuous
 62
     7
370
    25
100
AcDbLine
 10
72.7882699448
 20
84.0047559701
 30
0.0
 11
72.9326075121
 21
83.7547559701
 31
0.0
  0
LINE
  5
E5
330
1F
100
AcDbEntity
  8
0
  6
Continuous
 62
     7
370
    25
100
AcDbLine
 10
87.5882699448
 20
84.0047559701
 30
0.0
 11
87.7882699448
 21
84.2047559701
 31
0.0
  0
LINE
  5
E6
330
1F
100
AcDbEntity
  8
0
  6
Continuous
 62
     7
370
    25
100
AcDbLine
 10
87.7882699448
 20
104.3047559701
 30
0.0
 11
87.5882699448
 21
104.5047559701
 31
0.0
  0
LINE
  5
E7
330
1F
100
AcDbEntity
  8
0
  6
Continuous
 62
     7
370
    25
100
AcDbLine
 10
87.5882699448
 20
104.5047559701
 30
0.0
 11
86.807826076
 21
104.5047559701
 31
0.0
  0
LINE
  5
E8
330
1F
100
AcDbEntity
  8
0
  6
Continuous
 62
     7
370
    25
100
AcDbLine
 10
86.807826076
 20
84.0047559701
 30
0.0
 11
87.5882699448
 21
84.0047559701
 31
0.0
  0
SPLINE
  5
E9
330
1F
100
AcDbEntity
  8
0
  6
Continuous
 62
     7
370
    25
100
AcDbSpline
210
0.0
220
0.0
230
1.0
 70
     8
 71
     3
 72
    14
 73
    10
 74
     0
 42
0.000000001
 43
0.00000001
 40
0.0
 40
0.0
 40
0.0
 40
0.0
 40
0.0548663430225922
 40
0.250512219149458
 40
0.436083233059019
 40
0.6111000213993678
 40
0.774219719072906
 40
0.9227868950310041
 40
1.0
 40
1.0
 40
1.0
 40
1.0
 10
86.80761030445244
 20
104.5071432221928
 30
0.0
 10
86.79402821354573
 20
104.506449017044
 30
0.0
 10
86.73201424384612
 20
104.5032793712683
 30
0.0
 10
86.62435195803671
 20
104.5192611039911
 30
0.0
 10
86.49107368109969
 20
104.552679396838
 30
0.0
 10
86.37138507276413
 20
104.6018434580362
 30
0.0
 10
86.26836798343521
 20
104.660091114873
 30
0.0
 10
86.19170922002425
 20
104.7144225558172
 30
0.0
 10
86.15479132324296
 20
104.7479246349747
 30
0.0
 10
86.14216601589678
 20
104.7593817894438
 30
0.0
  0
SPLINE
  5
EA
330
1F
100
AcDbEntity
  8
0
  6
Continuous
 62
     7
370
    25
100
AcDbSpline
210
0.0
220
0.0
230
1.0
 70
     8
 71
     3
 72
    13
 73
     9
 74
     0
 42
0.000000001
 43
0.00000001
 40
0.0
 40
0.0
 40
0.0
 40
0.0
 40
0.1384023889262111
 40
0.3135771757662185
 40
0.5036908285101093
 40
0.7057498915361847
 40
0.9176428841519857
 40
1.0
 40
1.0
 40
1.0
 40
1.0
 10
86.14138143214264
 20
83.75012698732283
 30
0.0
 10
86.16524060888526
 20
83.77059801409276
 30
0.0
 10
86.21929815310186
 20
83.81697905425654
 30
0.0
 10
86.323016278504
 20
83.88289720989262
 30
0.0
 10
86.44903621987051
 20
83.94244897446256
 30
0.0
 10
86.59234151164928
 20
83.98442468858373
 30
0.0
 10
86.71440505385361
 20
84.00533909547069
 30
0.0
 10
86.78729754213278
 20
84.00238787525214
 30
0.0
 10
86.80769928517037
 20
84.00156186371149
 30
0.0
  0
LINE
  5
EB
330
1F
100
AcDbEntity
  8
0
  6
Continuous
 62
     7
370
    25
100
AcDbLine
 10
70.9059613985
 20
102.5857559701
 30
0.0
 11
69.9059613985
 21
101.5857559701
 31
0.0
  0
LINE
  5
EC
330
1F
100
AcDbEntity
  8
0
  6
Continuous
 62
     7
370
    25
100
AcDbLine
 10
69.9059613985
 20
86.9237559701
 30
0.0
 11
70.9059613985
 21
85.9237559701
 31
0.0
  0
LINE
  5
ED
330
1F
100
AcDbEntity
  8
0
  6
Continuous
 62
     7
370
    25
100
AcDbLine
 10
70.9059613985
 20
85.9237559701
 30
0.0
 11
72.7882699448
 21
85.9237559701
 31
0.0
  0
LINE
  5
EE
330
1F
100
AcDbEntity
  8
0
  6
Continuous
 62
     7
370
    25
100
AcDbLine
 10
72.7882699448
 20
102.5857559701
 30
0.0
 11
70.9059613985
 21
102.5857559701
 31
0.0
  0
LINE
  5
EF
330
1F
100
AcDbEntity
  8
0
  6
Continuous
 62
     7
370
    25
100
AcDbLine
 10
67.7059613985
 20
86.0047559701
 30
0.0
 11
67.9059613985
 21
86.2047559701
 31
0.0
  0
LINE
  5
F0
330
1F
100
AcDbEntity
  8
0
  6
Continuous
 62
     7
370
    25
100
AcDbLine
 10
67.9059613985
 20
102.3047559701
 30
0.0
 11
67.7059613985
 21
102.5047559701
 31
0.0
  0
LINE
  5
F1
330
1F
100
AcDbEntity
  8
0
  6
Continuous
 62
     7
370
    25
100
AcDbLine
 10
67.7059613985
 20
102.5047559701
 30
0.0
 11
66.8251731942
 21
102.5047559701
 31
0.0
  0
LINE
  5
F2
330
1F
100
AcDbEntity
  8
0
  6
Continuous
 62
     7
370
    25
100
AcDbLine
 10
66.8251731942
 20
86.0047559701
 30
0.0
 11
67.7059613985
 21
86.0047559701
 31
0.0
  0
LINE
  5
F3
330
1F
100
AcDbEntity
  8
0
  6
Continuous
 62
     7
370
    25
100
AcDbLine
 10
67.9059613985
 20
87.0047559701
 30
0.0
 11
69.9059613985
 21
87.0047559701
 31
0.0
  0
LINE
  5
F4
330
1F
100
AcDbEntity
  8
0
  6
Continuous
 62
     7
370
    25
100
AcDbLine
 10
69.9059613985
 20
101.5047559701
 30
0.0
 11
67.9059613985
 21
101.5047559701
 31
0.0
  0
LINE
  5
F5
330
1F
100
AcDbEntity
  8
0
  6
Continuous
 62
     7
370
    25
100
AcDbLine
 10
60.4059613985
 20
101.0204434701
 30
0.0
 11
50.4947490522
 21
100.7107180843
 31
0.0
  0
LINE
  5
F6
330
1F
100
AcDbEntity
  8
0
  6
Continuous
 62
     7
370
    25
100
AcDbLine
 10
50.4947490522
 20
87.798793856
 30
0.0
 11
60.4059613985
 21
87.4890684701
 31
0.0
  0
LINE
  5
F7
330
1F
100
AcDbEntity
  8
0
  6
Continuous
 62
     7
370
    25
100
AcDbLine
 10
50.4947490522
 20
100.7107180843
 30
0.0
 11
48.4059613985
 21
99.5047559701
 31
0.0
  0
LINE
  5
F8
330
1F
100
AcDbEntity
  8
0
  6
Continuous
 62
     7
370
    25
100
AcDbLine
 10
48.4059613985
 20
89.0047559701
 30
0.0
 11
50.4947490522
 21
87.798793856
 31
0.0
  0
SPLINE
  5
F9
330
1F
100
AcDbEntity
  8
0
  6
Continuous
 62
     7
370
    25
100
AcDbSpline
210
0.0
220
0.0
230
1.0
 70
     8
 71
     3
 72
    14
 73
    10
 74
     0
 42
0.000000001
 43
0.00000001
 40
0.0
 40
0.0
 40
0.0
 40
0.0
 40
0.1005912889171003
 40
0.3033478311535441
 40
0.4936085555965962
 40
0.6717539218628582
 40
0.8372727934039065
 40
0.9883944848037
 40
1.0
 40
1.0
 40
1.0
 40
1.0
 10
66.82494681345584
 20
102.5080604900091
 30
0.0
 10
66.80339646668328
 20
102.5072636486501
 30
0.0
 10
66.73840822541072
 20
102.5048606562973
 30
0.0
 10
66.63380157590332
 20
102.525879970031
 30
0.0
 10
66.51833705219917
 20
102.5654512095197
 30
0.0
 10
66.41766209516432
 20
102.6197829797986
 30
0.0
 10
66.33482244221025
 20
102.682425695001
 30
0.0
 10
66.283554493219
 20
102.7298342104104
 30
0.0
 10
66.26377363464738
 20
102.7543053960455
 30
0.0
 10
66.26236288681022
 20
102.7560506525561
 30
0.0
  0
SPLINE
  5
FA
330
1F
100
AcDbEntity
  8
0
  6
Continuous
 62
     7
370
    25
100
AcDbSpline
210
0.0
220
0.0
230
1.0
 70
     8
 71
     3
 72
    13
 73
     9
 74
     0
 42
0.000000001
 43
0.00000001
 40
0.0
 40
0.0
 40
0.0
 40
0.0
 40
0.1550246719267043
 40
0.33756558255923
 40
0.5340454067954447
 40
0.7431160913368041
 40
0.9604348570644219
 40
1.0
 40
1.0
 40
1.0
 40
1.0
 10
66.25888155237458
 20
85.7494516282151
 30
0.0
 10
66.28054800793355
 20
85.77264218368461
 30
0.0
 10
66.32772662538754
 20
85.8231395223962
 30
0.0
 10
66.4197618541739
 20
85.89135935129674
 30
0.0
 10
66.5315739194089
 20
85.95077592231652
 30
0.0
 10
66.65992566544195
 20
85.9898835385688
 30
0.0
 10
66.76028062188806
 20
86.00763157779265
 30
0.0
 10
66.8155336283512
 20
86.00332045847347
 30
0.0
 10
66.82404367131073
 20
86.00265646183402
 30
0.0
  0
SPLINE
  5
FB
330
1F
100
AcDbEntity
  8
0
  6
Continuous
 62
     7
370
    25
100
AcDbSpline
210
0.0
220
0.0
230
1.0
 70
     8
 71
     3
 72
    16
 73
    12
 74
     0
 42
0.000000001
 43
0.00000001
 40
0.0
 40
0.0
 40
0.0
 40
0.0
 40
0.1322996825587257
 40
0.2645619585584918
 40
0.3546998975276411
 40
0.4449068940618417
 40
0.5350279613378792
 40
0.6502124383324805
 40
0.7654148828573636
 40
0.8826961023800923
 40
0.9999999999999999
 40
0.9999999999999999
 40
0.9999999999999999
 40
0.9999999999999999
 10
73.87042968563614
 20
83.75475597014922
 30
0.0
 10
73.72764786770772
 20
84.20839018089634
 30
0.0
 10
73.44212460214042
 20
85.1155303413508
 30
0.0
 10
73.16983392102773
 20
86.35508539512504
 30
0.0
 10
73.00948889044986
 20
87.45750755833426
 30
0.0
 10
72.93476818914284
 20
88.41688670858075
 30
0.0
 10
72.92538592294044
 20
89.46742959784856
 30
0.0
 10
73.00865526773937
 20
90.60513591240847
 30
0.0
 10
73.20308229553332
 20
91.82972324282177
 30
0.0
 10
73.48831892762753
 20
93.04880757022934
 30
0.0
 10
73.74305122436999
 20
93.85274726369799
 30
0.0
 10
73.87042968563614
 20
94.25475597014923
 30
0.0
  0
SPLINE
  5
FC
330
1F
100
AcDbEntity
  8
0
  6
Continuous
 62
     7
370
    25
100
AcDbSpline
210
0.0
220
0.0
230
1.0
 70
    24
 71
     3
 72
    13
 73
     9
 74
     0
 42
0.000000001
 43
0.00000001
 40
0.0
 40
0.0
 40
0.0
 40
0.0
 40
0.1179059006743937
 40
0.2470316660815937
 40
0.4339734689609033
 40
0.6215188281795908
 40
0.8105709909752933
 40
1.0
 40
1.0
 40
1.0
 40
1.0
 10
72.93398640419257
 20
83.75475597014923
 30
0.0
 10
72.93624308641799
 20
83.75475597014923
 30
0.0
 10
72.94097119558619
 20
83.75475597014923
 30
0.0
 10
72.9981801119338
 20
83.75475597014923
 30
0.0
 10
73.11352669165979
 20
83.75475597014922
 30
0.0
 10
73.30904193711964
 20
83.75475597014922
 30
0.0
 10
73.55917059075377
 20
83.75475597014922
 30
0.0
 10
73.76660780696203
 20
83.75475597014922
 30
0.0
 10
73.87042968563614
 20
83.75475597014922
 30
0.0
  0
SPLINE
  5
FD
330
1F
100
AcDbEntity
  8
0
  6
Continuous
 62
     7
370
    25
100
AcDbSpline
210
0.0
220
0.0
230
1.0
 70
    24
 71
     3
 72
    12
 73
     8
 74
     0
 42
0.000000001
 43
0.00000001
 40
0.0
 40
0.0
 40
0.0
 40
0.0
 40
0.1872163156003072
 40
0.3747615562728075
 40
0.5635884738927504
 40
0.7529953943258162
 40
0.9999999999999999
 40
0.9999999999999999
 40
0.9999999999999999
 40
0.9999999999999999
 10
73.87042968563614
 20
104.7547559701492
 30
0.0
 10
73.76780813684786
 20
104.7547559701492
 30
0.0
 10
73.56238474088096
 20
104.7547559701492
 30
0.0
 10
73.31207685929382
 20
104.7547559701492
 30
0.0
 10
73.11639817589204
 20
104.7547559701492
 30
0.0
 10
72.96597693296555
 20
104.7547559701492
 30
0.0
 10
72.9451441718857
 20
104.7547559701492
 30
0.0
 10
72.93335303524563
 20
104.7547559701492
 30
0.0
  0
SPLINE
  5
FE
330
1F
100
AcDbEntity
  8
0
  6
Continuous
 62
     7
370
    25
100
AcDbSpline
210
0.0
220
0.0
230
1.0
 70
     8
 71
     3
 72
    16
 73
    12
 74
     0
 42
0.000000001
 43
0.00000001
 40
0.0
 40
0.0
 40
0.0
 40
0.0
 40
0.1322996825587275
 40
0.2645619585584953
 40
0.3546998975276456
 40
0.4449068940618475
 40
0.5350279613378863
 40
0.650212438332486
 40
0.7654148828573673
 40
0.8826961023800943
 40
1.0
 40
1.0
 40
1.0
 40
1.0
 10
73.87042968563614
 20
94.25475597014923
 30
0.0
 10
73.72764786770772
 20
94.70839018089637
 30
0.0
 10
73.44212460214044
 20
95.61553034135085
 30
0.0
 10
73.16983392102775
 20
96.85508539512506
 30
0.0
 10
73.00948889044987
 20
97.95750755833431
 30
0.0
 10
72.93476818914287
 20
98.91688670858079
 30
0.0
 10
72.92538592294048
 20
99.96742959784861
 30
0.0
 10
73.0086552677394
 20
101.1051359124085
 30
0.0
 10
73.20308229553333
 20
102.3297232428218
 30
0.0
 10
73.48831892762755
 20
103.5488075702293
 30
0.0
 10
73.74305122437
 20
104.3527472636979
 30
0.0
 10
73.87042968563614
 20
104.7547559701492
 30
0.0
  0
LINE
  5
FF
330
1F
100
AcDbEntity
  8
0
  6
Continuous
 62
     7
370
    25
100
AcDbLine
 10
72.7882699448
 20
84.0047559701
 30
0.0
 11
72.7882699448
 21
104.5047559701
 31
0.0
  0
SPLINE
  5
100
330
1F
100
AcDbEntity
  8
0
  6
Continuous
 62
     7
370
    25
100
AcDbSpline
210
0.0
220
0.0
230
1.0
 70
     8
 71
     3
 72
    11
 73
     7
 74
     0
 42
0.000000001
 43
0.00000001
 40
0.0
 40
0.0
 40
0.0
 40
0.0
 40
0.295838252591294
 40
0.5932610319617023
 40
0.7963744598462312
 40
1.0
 40
1.0
 40
1.0
 40
1.0
 10
85.999594810235
 20
101.500845897983
 30
0.0
 10
86.04669694606588
 20
101.1081424706228
 30
0.0
 10
86.1411534994895
 20
100.3206322736488
 30
0.0
 10
86.15256945975005
 20
99.2569043605057
 30
0.0
 10
86.10251199225279
 20
98.31816908682762
 30
0.0
 10
86.03392932100388
 20
97.77872678877524
 30
0.0
 10
85.999594810235
 20
97.50866604231547
 30
0.0
  0
SPLINE
  5
101
330
1F
100
AcDbEntity
  8
0
  6
Continuous
 62
     7
370
    25
100
AcDbSpline
210
0.0
220
0.0
230
1.0
 70
     8
 71
     3
 72
    11
 73
     7
 74
     0
 42
0.000000001
 43
0.00000001
 40
0.0
 40
0.0
 40
0.0
 40
0.0
 40
0.2489223303096801
 40
0.4983408013471688
 40
0.7490095813176885
 40
1.0
 40
1.0
 40
1.0
 40
1.0
 10
85.999594810235
 20
97.50866604231547
 30
0.0
 10
85.95604860365874
 20
97.23498500226061
 30
0.0
 10
85.8688693961773
 20
96.6870774334829
 30
0.0
 10
85.68345090843864
 20
95.87123296122739
 30
0.0
 10
85.46556511019683
 20
95.05923340075428
 30
0.0
 10
85.29263213139812
 20
94.52302970932013
 30
0.0
 10
85.20611020402346
 20
94.25475597014923
 30
0.0
  0
LINE
  5
102
330
1F
100
AcDbEntity
  8
0
  6
Continuous
 62
     7
370
    25
100
AcDbLine
 10
85.206110204
 20
94.2547559701
 30
0.0
 11
73.8704296856
 21
94.2547559701
 31
0.0
  0
LINE
  5
103
330
1F
100
AcDbEntity
  8
0
  6
Continuous
 62
     7
370
    25
100
AcDbLine
 10
85.206110204
 20
104.7547559701
 30
0.0
 11
73.8704296856
 21
104.7547559701
 31
0.0
  0
SPLINE
  5
104
330
1F
100
AcDbEntity
  8
0
  6
Continuous
 62
     7
370
    25
100
AcDbSpline
210
0.0
220
0.0
230
1.0
 70
     8
 71
     3
 72
    11
 73
     7
 74
     0
 42
0.000000001
 43
0.00000001
 40
0.0
 40
0.0
 40
0.0
 40
0.0
 40
0.2491235585399944
 40
0.4985358956041019
 40
0.749031553460586
 40
1.0
 40
1.0
 40
1.0
 40
1.0
 10
85.20611020402346
 20
104.7547559701492
 30
0.0
 10
85.29200797018486
 20
104.4884827976605
 30
0.0
 10
85.46390307330007
 20
103.9556277947055
 30
0.0
 10
85.68154648406839
 20
103.1459155442111
 30
0.0
 10
85.86785991259303
 20
102.3281076620209
 30
0.0
 10
85.9556555859482
 20
101.7767730884587
 30
0.0
 10
85.999594810235
 20
101.500845897983
 30
0.0
  0
LINE
  5
105
330
1F
100
AcDbEntity
  8
0
  6
Continuous
 62
     7
370
    25
100
AcDbLine
 10
85.9995948102
 20
91.000845898
 30
0.0
 11
85.9995948102
 21
97.5086660423
 31
0.0
  0
SPLINE
  5
106
330
1F
100
AcDbEntity
  8
0
  6
Continuous
 62
     7
370
    25
100
AcDbSpline
210
0.0
220
0.0
230
1.0
 70
     8
 71
     3
 72
    11
 73
     7
 74
     0
 42
0.000000001
 43
0.00000001
 40
0.0
 40
0.0
 40
0.0
 40
0.0
 40
0.2491235585399949
 40
0.4985358956041023
 40
0.7490315534605861
 40
1.0
 40
1.0
 40
1.0
 40
1.0
 10
85.20611020402346
 20
94.25475597014923
 30
0.0
 10
85.29200797018487
 20
93.98848279766057
 30
0.0
 10
85.4639030733001
 20
93.45562779470555
 30
0.0
 10
85.68154648406839
 20
92.64591554421119
 30
0.0
 10
85.86785991259303
 20
91.82810766202104
 30
0.0
 10
85.9556555859482
 20
91.27677308845884
 30
0.0
 10
85.999594810235
 20
91.00084589798314
 30
0.0
  0
SPLINE
  5
107
330
1F
100
AcDbEntity
  8
0
  6
Continuous
 62
     7
370
    25
100
AcDbSpline
210
0.0
220
0.0
230
1.0
 70
     8
 71
     3
 72
    11
 73
     7
 74
     0
 42
0.000000001
 43
0.00000001
 40
0.0
 40
0.0
 40
0.0
 40
0.0
 40
0.2958382525912819
 40
0.5932610319616779
 40
0.796374459846219
 40
1.0
 40
1.0
 40
1.0
 40
1.0
 10
85.999594810235
 20
91.00084589798314
 30
0.0
 10
86.0466969460659
 20
90.60814247062295
 30
0.0
 10
86.14115349948953
 20
89.82063227364898
 30
0.0
 10
86.15256945975005
 20
88.75690436050577
 30
0.0
 10
86.10251199225281
 20
87.8181690868276
 30
0.0
 10
86.0339293210039
 20
87.27872678877515
 30
0.0
 10
85.999594810235
 20
87.00866604231533
 30
0.0
  0
SPLINE
  5
108
330
1F
100
AcDbEntity
  8
0
  6
Continuous
 62
     7
370
    25
100
AcDbSpline
210
0.0
220
0.0
230
1.0
 70
     8
 71
     3
 72
    11
 73
     7
 74
     0
 42
0.000000001
 43
0.00000001
 40
0.0
 40
0.0
 40
0.0
 40
0.0
 40
0.2489223303096799
 40
0.4983408013471692
 40
0.7490095813176887
 40
1.0
 40
1.0
 40
1.0
 40
1.0
 10
85.999594810235
 20
87.00866604231533
 30
0.0
 10
85.95604860365874
 20
86.73498500226049
 30
0.0
 10
85.8688693961773
 20
86.18707743348278
 30
0.0
 10
85.68345090843863
 20
85.3712329612273
 30
0.0
 10
85.46556511019683
 20
84.55923340075424
 30
0.0
 10
85.29263213139812
 20
84.02302970932008
 30
0.0
 10
85.20611020402346
 20
83.75475597014922
 30
0.0
  0
LINE
  5
109
330
1F
100
AcDbEntity
  8
0
  6
Continuous
 62
     7
370
    25
100
AcDbLine
 10
85.206110204
 20
83.7547559701
 30
0.0
 11
73.8704296856
 21
83.7547559701
 31
0.0
  0
ARC
  5
10A
330
1F
100
AcDbEntity
  8
0
  6
Continuous
 62
     7
370
    25
100
AcDbCircle
 10
86.7799183939
 20
99.4203783876
 30
0.0
 40
2.064836309838581
100
AcDbArc
 50
247.7956780275
 51
272.378766539
  0
LINE
  5
10B
330
1F
100
AcDbEntity
  8
0
  6
Continuous
 62
     7
370
    25
100
AcDbLine
 10
86.865620214
 20
97.3573213878
 30
0.0
 11
86.865620214
 21
91.1521905525
 31
0.0
  0
ARC
  5
10C
330
1F
100
AcDbEntity
  8
0
  6
Continuous
 62
     7
370
    25
100
AcDbCircle
 10
86.7799183939
 20
89.0891335527
 30
0.0
 40
2.064836309822359
100
AcDbArc
 50
87.6212334609
 51
112.2043219726
  0
LINE
  5
10D
330
1F
100
AcDbEntity
  8
0
  6
Continuous
 62
     7
370
    25
100
AcDbLine
 10
87.7882699448
 20
104.3047559701
 30
0.0
 11
87.7882699448
 21
84.2047559701
 31
0.0
  0
LINE
  5
10E
330
1F
100
AcDbEntity
  8
0
  6
Continuous
 62
     7
370
    25
100
AcDbLine
 10
87.5882699448
 20
84.0047559701
 30
0.0
 11
87.5882699448
 21
104.5047559701
 31
0.0
  0
LINE
  5
10F
330
1F
100
AcDbEntity
  8
0
  6
Continuous
 62
     7
370
    25
100
AcDbLine
 10
86.865620214
 20
87.3456934808
 30
0.0
 11
86.865620214
 21
84.2431280632
 31
0.0
  0
SPLINE
  5
110
330
1F
100
AcDbEntity
  8
0
  6
Continuous
 62
     7
370
    25
100
AcDbSpline
210
0.0
220
0.0
230
1.0
 70
     8
 71
     3
 72
    13
 73
     9
 74
     0
 42
0.000000001
 43
0.00000001
 40
0.0
 40
0.0
 40
0.0
 40
0.0
 40
0.1365245485709921
 40
0.2730742214951701
 40
0.411538241799063
 40
0.5499846193303763
 40
0.7739370356102692
 40
1.0
 40
1.0
 40
1.0
 40
1.0
 10
86.86562021401942
 20
91.15219055250249
 30
0.0
 10
86.86289062511732
 20
90.96104595788928
 30
0.0
 10
86.85743094499202
 20
90.57872159268645
 30
0.0
 10
86.82859169216806
 20
90.01888460169383
 30
0.0
 10
86.80753869430552
 20
89.47023442791432
 30
0.0
 10
86.80129206151797
 20
88.82666454679817
 30
0.0
 10
86.84299122462996
 20
88.10224751397013
 30
0.0
 10
86.85805367020107
 20
87.59866541625384
 30
0.0
 10
86.86562021401942
 20
87.34569348081922
 30
0.0
  0
SPLINE
  5
111
330
1F
100
AcDbEntity
  8
0
  6
Continuous
 62
     7
370
    25
100
AcDbSpline
210
0.0
220
0.0
230
1.0
 70
     8
 71
     3
 72
    13
 73
     9
 74
     0
 42
0.000000001
 43
0.00000001
 40
0.0
 40
0.0
 40
0.0
 40
0.0
 40
0.1365245485710105
 40
0.273074221495207
 40
0.4115382417991187
 40
0.5499846193304511
 40
0.7739370356103075
 40
1.0
 40
1.0
 40
1.0
 40
1.0
 10
86.86562021401942
 20
101.1638184594791
 30
0.0
 10
86.86289062511732
 20
101.0125437999312
 30
0.0
 10
86.85743094499202
 20
100.7099666420475
 30
0.0
 10
86.82859169216806
 20
100.2254330428519
 30
0.0
 10
86.80753869430555
 20
99.71906040041436
 30
0.0
 10
86.801292061518
 20
99.08074525143934
 30
0.0
 10
86.84299122462998
 20
98.30052148361158
 30
0.0
 10
86.85805367020109
 20
97.67270289828363
 30
0.0
 10
86.86562021401942
 20
97.3573213877961
 30
0.0
  0
LINE
  5
112
330
1F
100
AcDbEntity
  8
0
  6
Continuous
 62
     7
370
    25
100
AcDbLine
 10
86.865620214
 20
104.2663838771
 30
0.0
 11
86.865620214
 21
101.1638184595
 31
0.0
  0
ARC
  5
113
330
1F
100
AcDbEntity
  8
0
  6
Continuous
 62
     7
370
    25
100
AcDbCircle
 10
86.8141403904
 20
86.1967932197
 30
0.0
 40
1.1500530345813
100
AcDbArc
 50
87.4344117638
 51
135.0941563294
  0
ARC
  5
114
330
1F
100
AcDbEntity
  8
0
  6
Continuous
 62
     7
370
    25
100
AcDbCircle
 10
86.8141403904
 20
102.3127187206
 30
0.0
 40
1.150053034573182
100
AcDbArc
 50
224.9058436705
 51
272.5655882364
  0
LINE
  5
115
330
1F
100
AcDbEntity
  8
0
  6
Continuous
 62
     7
370
    25
100
AcDbLine
 10
85.9995948102
 20
101.500845898
 30
0.0
 11
85.9995948102
 21
104.7547559701
 31
0.0
  0
ARC
  5
116
330
1F
100
AcDbEntity
  8
0
  6
Continuous
 62
     7
370
    25
100
AcDbCircle
 10
86.8612830596
 20
105.2707360334
 30
0.0
 40
1.004361520936614
100
AcDbArc
 50
210.9132304404
 51
270.2474222794
  0
SPLINE
  5
117
330
1F
100
AcDbEntity
  8
0
  6
Continuous
 62
     7
370
    25
100
AcDbSpline
210
0.0
220
0.0
230
1.0
 70
    24
 71
     3
 72
    11
 73
     7
 74
     0
 42
0.000000001
 43
0.00000001
 40
0.0
 40
0.0
 40
0.0
 40
0.0
 40
0.24892233030968
 40
0.4983408013471692
 40
0.7490095813176886
 40
1.0
 40
1.0
 40
1.0
 40
1.0
 10
85.999594810235
 20
104.7547559701492
 30
0.0
 10
85.95604860365876
 20
104.7547559701492
 30
0.0
 10
85.86886939617732
 20
104.7547559701492
 30
0.0
 10
85.68345090843863
 20
104.7547559701492
 30
0.0
 10
85.46556511019683
 20
104.7547559701492
 30
0.0
 10
85.29263213139812
 20
104.7547559701492
 30
0.0
 10
85.20611020402346
 20
104.7547559701492
 30
0.0
  0
LINE
  5
118
330
1F
100
AcDbEntity
  8
0
  6
Continuous
 62
     7
370
    25
100
AcDbLine
 10
85.9995948102
 20
83.7547559701
 30
0.0
 11
85.9995948102
 21
87.0086660423
 31
0.0
  0
ARC
  5
119
330
1F
100
AcDbEntity
  8
0
  6
Continuous
 62
     7
370
    25
100
AcDbCircle
 10
86.8612830596
 20
83.2387759069
 30
0.0
 40
1.004361520936855
100
AcDbArc
 50
89.7525777206
 51
149.0867695596
  0
SPLINE
  5
11A
330
1F
100
AcDbEntity
  8
0
  6
Continuous
 62
     7
370
    25
100
AcDbSpline
210
0.0
220
0.0
230
1.0
 70
    24
 71
     3
 72
    11
 73
     7
 74
     0
 42
0.000000001
 43
0.00000001
 40
0.0
 40
0.0
 40
0.0
 40
0.0
 40
0.2491235585399953
 40
0.4985358956041034
 40
0.7490315534605871
 40
1.0
 40
1.0
 40
1.0
 40
1.0
 10
85.20611020402346
 20
83.75475597014922
 30
0.0
 10
85.29200797018487
 20
83.75475597014922
 30
0.0
 10
85.46390307330007
 20
83.75475597014922
 30
0.0
 10
85.68154648406839
 20
83.75475597014922
 30
0.0
 10
85.86785991259302
 20
83.75475597014922
 30
0.0
 10
85.95565558594822
 20
83.75475597014922
 30
0.0
 10
85.99959481023502
 20
83.75475597014922
 30
0.0
  0
SPLINE
  5
11B
330
1F
100
AcDbEntity
  8
0
  6
Continuous
 62
     7
370
    25
100
AcDbSpline
210
0.0
220
0.0
230
1.0
 70
    24
 71
     3
 72
    10
 73
     6
 74
     0
 42
0.000000001
 43
0.00000001
 40
0.0
 40
0.0
 40
0.0
 40
0.0
 40
0.2635542422126907
 40
0.6506373474297357
 40
0.9999999999999999
 40
0.9999999999999999
 40
0.9999999999999999
 40
0.9999999999999999
 10
86.13809677336435
 20
104.7547559701492
 30
0.0
 10
86.13952989267665
 20
104.7547559701492
 30
0.0
 10
86.14306783970443
 20
104.7547559701492
 30
0.0
 10
86.0965377461555
 20
104.7547559701492
 30
0.0
 10
86.03078653882916
 20
104.7547559701492
 30
0.0
 10
85.999594810235
 20
104.7547559701492
 30
0.0
  0
SPLINE
  5
11C
330
1F
100
AcDbEntity
  8
0
  6
Continuous
 62
     7
370
    25
100
AcDbSpline
210
0.0
220
0.0
230
1.0
 70
    24
 71
     3
 72
    10
 73
     6
 74
     0
 42
0.000000001
 43
0.00000001
 40
0.0
 40
0.0
 40
0.0
 40
0.0
 40
0.3933384756467619
 40
0.8235227964484544
 40
1.0
 40
1.0
 40
1.0
 40
1.0
 10
85.99959481023502
 20
83.75475597014922
 30
0.0
 10
86.03060880702893
 20
83.75475597014922
 30
0.0
 10
86.09554202599958
 20
83.75475597014923
 30
0.0
 10
86.13951373871326
 20
83.75475597014923
 30
0.0
 10
86.13801575507077
 20
83.75475597014923
 30
0.0
 10
86.13757999319435
 20
83.75475597014923
 30
0.0
  0
LINE
  5
11D
330
1F
100
AcDbEntity
  8
0
  6
Continuous
 62
     7
370
    25
100
AcDbLine
 10
65.5024344526
 20
102.7547559701
 30
0.0
 11
60.4059613985
 21
102.7547559701
 31
0.0
  0
SPLINE
  5
11E
330
1F
100
AcDbEntity
  8
0
  6
Continuous
 62
     7
370
    25
100
AcDbSpline
210
0.0
220
0.0
230
1.0
 70
     8
 71
     3
 72
     8
 73
     4
 74
     0
 42
0.000000001
 43
0.00000001
 40
0.0
 40
0.0
 40
0.0
 40
0.0
 40
1.0
 40
1.0
 40
1.0
 40
1.0
 10
66.18945504750766
 20
99.77182690344382
 30
0.0
 10
66.07514891518493
 20
100.7825905099988
 30
0.0
 10
65.82919665353981
 20
101.774469367335
 30
0.0
 10
65.50243445260173
 20
102.7547559701493
 30
0.0
  0
SPLINE
  5
11F
330
1F
100
AcDbEntity
  8
0
  6
Continuous
 62
     7
370
    25
100
AcDbSpline
210
0.0
220
0.0
230
1.0
 70
     8
 71
     3
 72
    10
 73
     6
 74
     0
 42
0.000000001
 43
0.00000001
 40
0.0
 40
0.0
 40
0.0
 40
0.0
 40
0.5
 40
0.5
 40
1.0
 40
1.0
 40
1.0
 40
1.0
 10
66.18945504750766
 20
97.23768503685469
 30
0.0
 10
66.23676281080549
 20
97.65600874772925
 30
0.0
 10
66.26149183992187
 20
98.0771413556374
 30
0.0
 10
66.26175476189647
 20
98.92552666973705
 30
0.0
 10
66.2370095202368
 20
99.35132163931837
 30
0.0
 10
66.18945504750766
 20
99.77182690344382
 30
0.0
  0
SPLINE
  5
120
330
1F
100
AcDbEntity
  8
0
  6
Continuous
 62
     7
370
    25
100
AcDbSpline
210
0.0
220
0.0
230
1.0
 70
     8
 71
     3
 72
     8
 73
     4
 74
     0
 42
0.000000001
 43
0.00000001
 40
0.0
 40
0.0
 40
0.0
 40
0.0
 40
1.0
 40
1.0
 40
1.0
 40
1.0
 10
65.50243445260193
 20
94.25475597014919
 30
0.0
 10
65.82979256821305
 20
95.2368303169826
 30
0.0
 10
66.07539254452217
 20
96.22907574750536
 30
0.0
 10
66.18945504750766
 20
97.23768503685469
 30
0.0
  0
LINE
  5
121
330
1F
100
AcDbEntity
  8
0
  6
Continuous
 62
     7
370
    25
100
AcDbLine
 10
65.5024344526
 20
94.2547559701
 30
0.0
 11
60.4059613985
 21
94.2547559701
 31
0.0
  0
LINE
  5
122
330
1F
100
AcDbEntity
  8
0
  6
Continuous
 62
     7
370
    25
100
AcDbLine
 10
60.4059613985
 20
102.7547559701
 30
0.0
 11
60.4059613985
 21
94.2547559701
 31
0.0
  0
LINE
  5
123
330
1F
100
AcDbEntity
  8
0
  6
Continuous
 62
     7
370
    25
100
AcDbLine
 10
66.1894550475
 20
91.2718269034
 30
0.0
 11
66.1894550475
 21
97.2376850369
 31
0.0
  0
SPLINE
  5
124
330
1F
100
AcDbEntity
  8
0
  6
Continuous
 62
     7
370
    25
100
AcDbSpline
210
0.0
220
0.0
230
1.0
 70
     8
 71
     3
 72
     8
 73
     4
 74
     0
 42
0.000000001
 43
0.00000001
 40
0.0
 40
0.0
 40
0.0
 40
0.0
 40
1.0
 40
1.0
 40
1.0
 40
1.0
 10
66.18945504750766
 20
91.27182690344384
 30
0.0
 10
66.07514891518493
 20
92.2825905099988
 30
0.0
 10
65.82919665353981
 20
93.274469367335
 30
0.0
 10
65.50243445260172
 20
94.25475597014928
 30
0.0
  0
SPLINE
  5
125
330
1F
100
AcDbEntity
  8
0
  6
Continuous
 62
     7
370
    25
100
AcDbSpline
210
0.0
220
0.0
230
1.0
 70
     8
 71
     3
 72
    10
 73
     6
 74
     0
 42
0.000000001
 43
0.00000001
 40
0.0
 40
0.0
 40
0.0
 40
0.0
 40
0.4999999999999998
 40
0.4999999999999998
 40
1.0
 40
1.0
 40
1.0
 40
1.0
 10
66.18945504750766
 20
88.73768503685467
 30
0.0
 10
66.23676281080549
 20
89.15600874772922
 30
0.0
 10
66.26149183992187
 20
89.57714135563738
 30
0.0
 10
66.26175476189647
 20
90.42552666973705
 30
0.0
 10
66.2370095202368
 20
90.85132163931837
 30
0.0
 10
66.18945504750766
 20
91.27182690344384
 30
0.0
  0
SPLINE
  5
126
330
1F
100
AcDbEntity
  8
0
  6
Continuous
 62
     7
370
    25
100
AcDbSpline
210
0.0
220
0.0
230
1.0
 70
     8
 71
     3
 72
     8
 73
     4
 74
     0
 42
0.000000001
 43
0.00000001
 40
0.0
 40
0.0
 40
0.0
 40
0.0
 40
1.0
 40
1.0
 40
1.0
 40
1.0
 10
65.50243445260193
 20
85.75475597014919
 30
0.0
 10
65.82979256821305
 20
86.73683031698258
 30
0.0
 10
66.07539254452217
 20
87.72907574750535
 30
0.0
 10
66.18945504750766
 20
88.73768503685467
 30
0.0
  0
LINE
  5
127
330
1F
100
AcDbEntity
  8
0
  6
Continuous
 62
     7
370
    25
100
AcDbLine
 10
65.5024344526
 20
85.7547559701
 30
0.0
 11
60.4059613985
 21
85.7547559701
 31
0.0
  0
LINE
  5
128
330
1F
100
AcDbEntity
  8
0
  6
Continuous
 62
     7
370
    25
100
AcDbLine
 10
60.4059613985
 20
94.2547559701
 30
0.0
 11
60.4059613985
 21
85.7547559701
 31
0.0
  0
ARC
  5
129
330
1F
100
AcDbEntity
  8
0
  6
Continuous
 62
     7
370
    25
100
AcDbCircle
 10
66.776678236
 20
98.4872945591
 30
0.0
 40
1.380708162956662
100
AcDbArc
 50
244.8299789717
 51
272.5859934179
  0
LINE
  5
12A
330
1F
100
AcDbEntity
  8
0
  6
Continuous
 62
     7
370
    25
100
AcDbLine
 10
66.8389741003
 20
97.1079924687
 30
0.0
 11
66.8389741003
 21
91.4015194716
 31
0.0
  0
ARC
  5
12B
330
1F
100
AcDbEntity
  8
0
  6
Continuous
 62
     7
370
    25
100
AcDbCircle
 10
66.776678236
 20
90.0222173812
 30
0.0
 40
1.380708162954514
100
AcDbArc
 50
87.4140065821
 51
115.1700210283
  0
LINE
  5
12C
330
1F
100
AcDbEntity
  8
0
  6
Continuous
 62
     7
370
    25
100
AcDbLine
 10
69.9059613985
 20
86.9237559701
 30
0.0
 11
69.9059613985
 21
101.5857559701
 31
0.0
  0
LINE
  5
12D
330
1F
100
AcDbEntity
  8
0
  6
Continuous
 62
     7
370
    25
100
AcDbLine
 10
70.9059613985
 20
102.5857559701
 30
0.0
 11
70.9059613985
 21
85.9237559701
 31
0.0
  0
LINE
  5
12E
330
1F
100
AcDbEntity
  8
0
  6
Continuous
 62
     7
370
    25
100
AcDbLine
 10
67.9059613985
 20
102.3047559701
 30
0.0
 11
67.9059613985
 21
86.2047559701
 31
0.0
  0
LINE
  5
12F
330
1F
100
AcDbEntity
  8
0
  6
Continuous
 62
     7
370
    25
100
AcDbLine
 10
67.7059613985
 20
86.0047559701
 30
0.0
 11
67.7059613985
 21
102.5047559701
 31
0.0
  0
LINE
  5
130
330
1F
100
AcDbEntity
  8
0
  6
Continuous
 62
     7
370
    25
100
AcDbLine
 10
66.8389741003
 20
88.9775576861
 30
0.0
 11
66.8389741003
 21
86.1243211875
 31
0.0
  0
SPLINE
  5
131
330
1F
100
AcDbEntity
  8
0
  6
Continuous
 62
     7
370
    25
100
AcDbSpline
210
0.0
220
0.0
230
1.0
 70
     8
 71
     3
 72
    10
 73
     6
 74
     0
 42
0.000000001
 43
0.00000001
 40
0.0
 40
0.0
 40
0.0
 40
0.0
 40
0.4999999999999998
 40
0.4999999999999998
 40
1.0
 40
1.0
 40
1.0
 40
1.0
 10
66.838974100346
 20
91.40151947156143
 30
0.0
 10
66.838974100346
 20
90.96003795246922
 30
0.0
 10
66.82069093244237
 20
90.53705982447096
 30
0.0
 10
66.82059100131363
 20
89.7270346087895
 30
0.0
 10
66.838974100346
 20
89.3393652114206
 30
0.0
 10
66.838974100346
 20
88.97755768612835
 30
0.0
  0
SPLINE
  5
132
330
1F
100
AcDbEntity
  8
0
  6
Continuous
 62
     7
370
    25
100
AcDbSpline
210
0.0
220
0.0
230
1.0
 70
     8
 71
     3
 72
    10
 73
     6
 74
     0
 42
0.000000001
 43
0.00000001
 40
0.0
 40
0.0
 40
0.0
 40
0.0
 40
0.4999999999999998
 40
0.4999999999999998
 40
1.0
 40
1.0
 40
1.0
 40
1.0
 10
66.838974100346
 20
99.53195425417012
 30
0.0
 10
66.838974100346
 20
99.17028804072778
 30
0.0
 10
66.82069093244237
 20
98.78690946478883
 30
0.0
 10
66.82059100131363
 20
97.97718412017443
 30
0.0
 10
66.838974100346
 20
97.54964648547447
 30
0.0
 10
66.838974100346
 20
97.10799246873707
 30
0.0
  0
LINE
  5
133
330
1F
100
AcDbEntity
  8
0
  6
Continuous
 62
     7
370
    25
100
AcDbLine
 10
66.8389741003
 20
102.3851907528
 30
0.0
 11
66.8389741003
 21
99.5319542542
 31
0.0
  0
ARC
  5
134
330
1F
100
AcDbEntity
  8
0
  6
Continuous
 62
     7
370
    25
100
AcDbCircle
 10
66.7971670009
 20
88.0914523427
 30
0.0
 40
0.8870910400315339
100
AcDbArc
 50
87.2987462947
 51
133.2404470554
  0
ARC
  5
135
330
1F
100
AcDbEntity
  8
0
  6
Continuous
 62
     7
370
    25
100
AcDbCircle
 10
66.7971670009
 20
100.4180595976
 30
0.0
 40
0.8870910400253488
100
AcDbArc
 50
226.7595529445
 51
272.7012537054
  0
LINE
  5
136
330
1F
100
AcDbEntity
  8
0
  6
Continuous
 62
     7
370
    25
100
AcDbLine
 10
50.4947490522
 20
87.798793856
 30
0.0
 11
50.4947490522
 21
100.7107180843
 31
0.0
  0
LINE
  5
137
330
1F
100
AcDbEntity
  8
0
  6
Continuous
 62
     7
370
    25
100
AcDbLine
 10
66.1894550475
 20
99.7718269034
 30
0.0
 11
66.1894550475
 21
102.7547559701
 31
0.0
  0
ARC
  5
138
330
1F
100
AcDbEntity
  8
0
  6
Continuous
 62
     7
370
    25
100
AcDbCircle
 10
66.8369379656
 20
103.1371668683
 30
0.0
 40
0.751978872191276
100
AcDbArc
 50
210.566590009
 51
270.1551400925
  0
SPLINE
  5
139
330
1F
100
AcDbEntity
  8
0
  6
Continuous
 62
     7
370
    25
100
AcDbSpline
210
0.0
220
0.0
230
1.0
 70
    24
 71
     3
 72
     8
 73
     4
 74
     0
 42
0.000000001
 43
0.00000001
 40
0.0
 40
0.0
 40
0.0
 40
0.0
 40
1.0
 40
1.0
 40
1.0
 40
1.0
 10
66.18945504750766
 20
102.7547559701492
 30
0.0
 10
66.07402219349774
 20
102.7547559701492
 30
0.0
 10
65.8265008052884
 20
102.7547559701492
 30
0.0
 10
65.50243445260152
 20
102.7547559701492
 30
0.0
  0
LINE
  5
13A
330
1F
100
AcDbEntity
  8
0
  6
Continuous
 62
     7
370
    25
100
AcDbLine
 10
66.1894550475
 20
85.7547559701
 30
0.0
 11
66.1894550475
 21
88.7376850369
 31
0.0
  0
ARC
  5
13B
330
1F
100
AcDbEntity
  8
0
  6
Continuous
 62
     7
370
    25
100
AcDbCircle
 10
66.8369379656
 20
85.372345072
 30
0.0
 40
0.7519788721846433
100
AcDbArc
 50
89.8448599072
 51
149.4334099913
  0
SPLINE
  5
13C
330
1F
100
AcDbEntity
  8
0
  6
Continuous
 62
     7
370
    25
100
AcDbSpline
210
0.0
220
0.0
230
1.0
 70
    24
 71
     3
 72
     8
 73
     4
 74
     0
 42
0.000000001
 43
0.00000001
 40
0.0
 40
0.0
 40
0.0
 40
0.0
 40
1.0
 40
1.0
 40
1.0
 40
1.0
 10
66.18945504750766
 20
85.75475597014925
 30
0.0
 10
66.07402219349774
 20
85.75475597014925
 30
0.0
 10
65.8265008052884
 20
85.75475597014925
 30
0.0
 10
65.5024344526015
 20
85.75475597014925
 30
0.0
  0
LINE
  5
13D
330
1F
100
AcDbEntity
  8
0
  6
Continuous
 62
     7
370
    25
100
AcDbLine
 10
48.4059613985
 20
89.0047559701
 30
0.0
 11
48.4059613985
 21
99.5047559701
 31
0.0
  0
SPLINE
  5
13E
330
1F
100
AcDbEntity
  8
0
  6
Continuous
 62
     7
370
    25
100
AcDbSpline
210
0.0
220
0.0
230
1.0
 70
    24
 71
     3
 72
    10
 73
     6
 74
     0
 42
0.000000001
 43
0.00000001
 40
0.0
 40
0.0
 40
0.0
 40
0.0
 40
0.1167307895689723
 40
0.9918065735837935
 40
1.0
 40
1.0
 40
1.0
 40
1.0
 10
66.18945504750766
 20
102.7547559701492
 30
0.0
 10
66.1950528407038
 20
102.7547559701492
 30
0.0
 10
66.24261465460033
 20
102.7547559701492
 30
0.0
 10
66.28511670689201
 20
102.7547559701492
 30
0.0
 10
66.26093290526804
 20
102.7547559701492
 30
0.0
 10
66.2607085702672
 20
102.7547559701492
 30
0.0
  0
SPLINE
  5
13F
330
1F
100
AcDbEntity
  8
0
  6
Continuous
 62
     7
370
    25
100
AcDbSpline
210
0.0
220
0.0
230
1.0
 70
    24
 71
     3
 72
     9
 73
     5
 74
     0
 42
0.000000001
 43
0.00000001
 40
0.0
 40
0.0
 40
0.0
 40
0.0
 40
0.8663056157488678
 40
1.0
 40
1.0
 40
1.0
 40
1.0
 10
66.25342298502883
 20
85.75475597014925
 30
0.0
 10
66.24649243379031
 20
85.75475597014925
 30
0.0
 10
66.23849231107089
 20
85.75475597014925
 30
0.0
 10
66.19523791707861
 20
85.75475597014925
 30
0.0
 10
66.18945504750766
 20
85.75475597014925
 30
0.0
  0
SPLINE
  5
140
330
1F
100
AcDbEntity
  8
0
  6
Continuous
 62
     1
370
    25
100
AcDbSpline
210
0.0
220
0.0
230
1.0
 70
     8
 71
     3
 72
    11
 73
     7
 74
     0
 42
0.000000001
 43
0.00000001
 40
0.0
 40
0.0
 40
0.0
 40
0.0
 40
0.2724800674223387
 40
0.5460771155089242
 40
0.8223721001552682
 40
1.0
 40
1.0
 40
1.0
 40
1.0
 10
86.86562021401942
 20
84.24312806317249
 30
0.0
 10
86.86286667737225
 20
84.20324821909878
 30
0.0
 10
86.85734831647353
 20
84.12332505104935
 30
0.0
 10
86.82939155078489
 20
84.04919242953274
 30
0.0
 10
86.80755307868247
 20
84.00817024974111
 30
0.0
 10
86.80774929368617
 20
84.00876851192393
 30
0.0
 10
86.80782607602127
 20
84.00900262229538
 30
0.0
  0
SPLINE
  5
141
330
1F
100
AcDbEntity
  8
0
  6
Continuous
 62
     1
370
    25
100
AcDbSpline
210
0.0
220
0.0
230
1.0
 70
     8
 71
     3
 72
    10
 73
     6
 74
     0
 42
0.000000001
 43
0.00000001
 40
0.0
 40
0.0
 40
0.0
 40
0.0
 40
0.0998571812571933
 40
0.5478177797475346
 40
1.0
 40
1.0
 40
1.0
 40
1.0
 10
86.80782607602244
 20
104.5005093180011
 30
0.0
 10
86.80718651137131
 20
104.5015351782801
 30
0.0
 10
86.80367785147544
 20
104.507163060955
 30
0.0
 10
86.84444347738736
 20
104.4505187343454
 30
0.0
 10
86.85853926564396
 20
104.3279537705779
 30
0.0
 10
86.86562021401942
 20
104.266383877126
 30
0.0
  0
SPLINE
  5
142
330
1F
100
AcDbEntity
  8
0
  6
Continuous
 62
     1
370
    25
100
AcDbSpline
210
0.0
220
0.0
230
1.0
 70
     8
 71
     3
 72
     9
 73
     5
 74
     0
 42
0.000000001
 43
0.00000001
 40
0.0
 40
0.0
 40
0.0
 40
0.0
 40
0.7089199715473433
 40
1.0
 40
1.0
 40
1.0
 40
1.0
 10
66.838974100346
 20
86.12432118754054
 30
0.0
 10
66.83176016641283
 20
86.07354806380228
 30
0.0
 10
66.82158421676733
 20
86.0019276753578
 30
0.0
 10
66.82436404248915
 20
86.01569084843432
 30
0.0
 10
66.82517319423935
 20
86.01969703324502
 30
0.0
  0
SPLINE
  5
143
330
1F
100
AcDbEntity
  8
0
  6
Continuous
 62
     1
370
    25
100
AcDbSpline
210
0.0
220
0.0
230
1.0
 70
     8
 71
     3
 72
     9
 73
     5
 74
     0
 42
0.000000001
 43
0.00000001
 40
0.0
 40
0.0
 40
0.0
 40
0.0
 40
0.4282927988934771
 40
1.0
 40
1.0
 40
1.0
 40
1.0
 10
66.8251731942395
 20
102.4898149070525
 30
0.0
 10
66.82533183002984
 20
102.4921837543014
 30
0.0
 10
66.82570222101178
 20
102.4977146603894
 30
0.0
 10
66.83414646515908
 20
102.4261212315674
 30
0.0
 10
66.838974100346
 20
102.3851907527579
 30
0.0
  0
LINE
  5
144
330
1F
100
AcDbEntity
  8
0
  6
Continuous
 62
     7
370
     0
100
AcDbLine
 10
77.7619613985
 20
86.7797559701
 30
0.0
 11
70.0499613985
 21
86.7797559701
 31
0.0
  0
LINE
  5
145
330
1F
100
AcDbEntity
  8
0
  6
Continuous
 62
     7
370
     0
100
AcDbLine
 10
77.7619613985
 20
101.7297559701
 30
0.0
 11
70.0499613985
 21
101.7297559701
 31
0.0
  0
LINE
  5
146
330
1F
100
AcDbEntity
  8
0
  6
Continuous
 62
     7
370
     0
100
AcDbLine
 10
49.271187121
 20
100.004294274
 30
0.0
 11
59.9059613985
 21
100.3366309701
 31
0.0
  0
LINE
  5
147
330
1F
100
AcDbEntity
  8
0
  6
Continuous
 62
     7
370
     0
100
AcDbLine
 10
49.271187121
 20
88.5052176663
 30
0.0
 11
59.9059613985
 21
88.1728809701
 31
0.0
  0
LINE
  5
148
330
1F
100
AcDbEntity
  8
0
  6
Continuous
 62
     7
370
     0
100
AcDbLine
 10
59.9059613985
 20
87.5046934701
 30
0.0
 11
59.9059613985
 21
101.0048184701
 31
0.0
  0
CIRCLE
  5
149
330
1F
100
AcDbEntity
  8
0
  6
Continuous
 62
     7
370
    25
100
AcDbCircle
 10
124.630691791
 20
48.0747126866
 30
0.0
 40
5.074999999999974
  0
CIRCLE
  5
14A
330
1F
100
AcDbEntity
  8
0
  6
Continuous
 62
     7
370
    25
100
AcDbCircle
 10
124.630691791
 20
48.0747126866
 30
0.0
 40
5.174999999999997
  0
CIRCLE
  5
14B
330
1F
100
AcDbEntity
  8
0
  6
Continuous
 62
     7
370
    25
100
AcDbCircle
 10
124.630691791
 20
48.0747126866
 30
0.0
 40
10.05
  0
CIRCLE
  5
14C
330
1F
100
AcDbEntity
  8
0
  6
Continuous
 62
     7
370
    25
100
AcDbCircle
 10
124.630691791
 20
48.0747126866
 30
0.0
 40
10.25000000000001
  0
LINE
  5
14D
330
1F
100
AcDbEntity
  8
0
  6
Continuous
 62
     7
370
    25
100
AcDbLine
 10
135.130691791
 20
50.3795988009
 30
0.0
 11
134.642319698
 21
50.2723947956
 31
0.0
  0
SPLINE
  5
14E
330
1F
100
AcDbEntity
  8
0
  6
Continuous
 62
     7
370
    25
100
AcDbSpline
210
0.0
220
0.0
230
1.0
 70
    24
 71
     3
 72
    12
 73
     8
 74
     0
 42
0.000000001
 43
0.00000001
 40
0.0
 40
0.0
 40
0.0
 40
0.0
 40
0.2024401144251292
 40
0.4053721074661993
 40
0.6098764258919307
 40
0.8149291984652182
 40
1.0
 40
1.0
 40
1.0
 40
1.0
 10
135.1306917910448
 20
45.76982657224408
 30
0.0
 10
135.1306917910448
 20
46.07985873039438
 30
0.0
 10
135.1306917910447
 20
46.7006763469452
 30
0.0
 10
135.1306917910447
 20
47.63971748098137
 30
0.0
 10
135.1306917910447
 20
48.58347125324649
 30
0.0
 10
135.1306917910447
 20
49.49884102157901
 30
0.0
 10
135.1306917910447
 20
50.09621190582047
 30
0.0
 10
135.1306917910447
 20
50.37959880089051
 30
0.0
  0
LINE
  5
14F
330
1F
100
AcDbEntity
  8
0
  6
Continuous
 62
     7
370
    25
100
AcDbLine
 10
134.642319698
 20
45.8770305776
 30
0.0
 11
135.130691791
 21
45.7698265722
 31
0.0
  0
LINE
  5
150
330
1F
100
AcDbEntity
  8
0
  6
Continuous
 62
     7
370
    25
100
AcDbLine
 10
121.5281263734
 20
38.3055475314
 30
0.0
 11
121.3767817189
 21
37.8290028897
 31
0.0
  0
SPLINE
  5
151
330
1F
100
AcDbEntity
  8
0
  6
Continuous
 62
     7
370
    25
100
AcDbSpline
210
0.0
220
0.0
230
1.0
 70
    24
 71
     3
 72
    11
 73
     7
 74
     0
 42
0.000000001
 43
0.00000001
 40
0.0
 40
0.0
 40
0.0
 40
0.0
 40
0.2958382525912817
 40
0.5932610319616779
 40
0.796374459846219
 40
1.0
 40
1.0
 40
1.0
 40
1.0
 10
117.3846018632109
 20
40.13388900399215
 30
0.0
 10
117.7773052905711
 20
39.90716157449405
 30
0.0
 10
118.564815487545
 20
39.45249235028156
 30
0.0
 10
119.6285434006882
 20
38.83834875328381
 30
0.0
 10
120.5672786743664
 20
38.29636969032794
 30
0.0
 10
121.1067209724189
 20
37.98492253433508
 30
0.0
 10
121.3767817188787
 20
37.82900288966895
 30
0.0
  0
LINE
  5
152
330
1F
100
AcDbEntity
  8
0
  6
Continuous
 62
     7
370
    25
100
AcDbLine
 10
117.7216293017
 20
40.5032296404
 30
0.0
 11
117.3846018632
 21
40.133889004
 31
0.0
  0
SPLINE
  5
153
330
1F
100
AcDbEntity
  8
0
  6
Continuous
 62
     7
370
    25
100
AcDbSpline
210
0.0
220
0.0
230
1.0
 70
    24
 71
     3
 72
    11
 73
     7
 74
     0
 42
0.000000001
 43
0.00000001
 40
0.0
 40
0.0
 40
0.0
 40
0.0
 40
0.295838252591294
 40
0.5932610319617023
 40
0.7963744598462312
 40
1.0
 40
1.0
 40
1.0
 40
1.0
 10
131.8767817188784
 20
56.01553636914236
 30
0.0
 10
131.4840782915182
 20
56.24226379864044
 30
0.0
 10
130.6965680945443
 20
56.69693302285292
 30
0.0
 10
129.6328401814012
 20
57.31107661985062
 30
0.0
 10
128.6941049077231
 20
57.85305568280643
 30
0.0
 10
128.1546626096707
 20
58.16450283879924
 30
0.0
 10
127.884601863211
 20
58.32042248346536
 30
0.0
  0
LINE
  5
154
330
1F
100
AcDbEntity
  8
0
  6
Continuous
 62
     7
370
    25
100
AcDbLine
 10
131.8767817189
 20
56.0155363691
 30
0.0
 11
131.5397542804
 21
55.6461957327
 31
0.0
  0
LINE
  5
155
330
1F
100
AcDbEntity
  8
0
  6
Continuous
 62
     7
370
    25
100
AcDbLine
 10
127.8846018632
 20
58.3204224835
 30
0.0
 11
127.7332572087
 21
57.8438778417
 31
0.0
  0
LINE
  5
156
330
1F
100
AcDbEntity
  8
0
  6
Continuous
 62
     7
370
    25
100
AcDbLine
 10
114.6190638841
 20
45.8770305776
 30
0.0
 11
114.130691791
 21
45.7698265722
 31
0.0
  0
SPLINE
  5
157
330
1F
100
AcDbEntity
  8
0
  6
Continuous
 62
     7
370
    25
100
AcDbSpline
210
0.0
220
0.0
230
1.0
 70
    24
 71
     3
 72
    12
 73
     8
 74
     0
 42
0.000000001
 43
0.00000001
 40
0.0
 40
0.0
 40
0.0
 40
0.0
 40
0.1850707909523943
 40
0.387478023998128
 40
0.5904107204321916
 40
0.7949436929440946
 40
0.9999999999999999
 40
0.9999999999999999
 40
0.9999999999999999
 40
0.9999999999999999
 10
114.1306917910447
 20
50.37959880089038
 30
0.0
 10
114.1306917910447
 20
50.09621208878483
 30
0.0
 10
114.1306917910447
 20
49.50289251269769
 30
0.0
 10
114.1306917910447
 20
48.59404421693741
 30
0.0
 10
114.1306917910447
 20
47.6543303267867
 30
0.0
 10
114.1306917910447
 20
46.71116414395456
 30
0.0
 10
114.1306917910447
 20
46.08387292732844
 30
0.0
 10
114.1306917910447
 20
45.76982657224393
 30
0.0
  0
LINE
  5
158
330
1F
100
AcDbEntity
  8
0
  6
Continuous
 62
     7
370
    25
100
AcDbLine
 10
114.130691791
 20
50.3795988009
 30
0.0
 11
114.6190638841
 21
50.2723947956
 31
0.0
  0
LINE
  5
159
330
1F
100
AcDbEntity
  8
0
  6
Continuous
 62
     7
370
    25
100
AcDbLine
 10
131.5397542804
 20
40.5032296404
 30
0.0
 11
131.8767817189
 21
40.133889004
 31
0.0
  0
SPLINE
  5
15A
330
1F
100
AcDbEntity
  8
0
  6
Continuous
 62
     7
370
    25
100
AcDbSpline
210
0.0
220
0.0
230
1.0
 70
    24
 71
     3
 72
    11
 73
     7
 74
     0
 42
0.000000001
 43
0.00000001
 40
0.0
 40
0.0
 40
0.0
 40
0.0
 40
0.2958382525912818
 40
0.5932610319616776
 40
0.7963744598462186
 40
1.0
 40
1.0
 40
1.0
 40
1.0
 10
127.8846018632109
 20
37.829002889669
 30
0.0
 10
128.2773052905711
 20
38.05573031916709
 30
0.0
 10
129.064815487545
 20
38.5103995433796
 30
0.0
 10
130.1285434006882
 20
39.12454314037736
 30
0.0
 10
131.0672786743664
 20
39.66652220333325
 30
0.0
 10
131.6067209724189
 20
39.97796935932611
 30
0.0
 10
131.8767817188787
 20
40.13388900399224
 30
0.0
  0
LINE
  5
15B
330
1F
100
AcDbEntity
  8
0
  6
Continuous
 62
     7
370
    25
100
AcDbLine
 10
127.7332572087
 20
38.3055475314
 30
0.0
 11
127.8846018632
 21
37.8290028897
 31
0.0
  0
SPLINE
  5
15C
330
1F
100
AcDbEntity
  8
0
  6
Continuous
 62
     7
370
    25
100
AcDbSpline
210
0.0
220
0.0
230
1.0
 70
    24
 71
     3
 72
    11
 73
     7
 74
     0
 42
0.000000001
 43
0.00000001
 40
0.0
 40
0.0
 40
0.0
 40
0.0
 40
0.2958382525912819
 40
0.5932610319616779
 40
0.796374459846219
 40
1.0
 40
1.0
 40
1.0
 40
1.0
 10
121.3767817188786
 20
58.3204224834654
 30
0.0
 10
120.9840782915184
 20
58.09369505396729
 30
0.0
 10
120.1965680945445
 20
57.63902582975479
 30
0.0
 10
119.1328401814013
 20
57.02488223275705
 30
0.0
 10
118.1941049077231
 20
56.48290316980116
 30
0.0
 10
117.6546626096706
 20
56.1714560138083
 30
0.0
 10
117.3846018632108
 20
56.01553636914218
 30
0.0
  0
LINE
  5
15D
330
1F
100
AcDbEntity
  8
0
  6
Continuous
 62
     7
370
    25
100
AcDbLine
 10
121.3767817189
 20
58.3204224835
 30
0.0
 11
121.5281263734
 21
57.8438778417
 31
0.0
  0
LINE
  5
15E
330
1F
100
AcDbEntity
  8
0
  6
Continuous
 62
     7
370
    25
100
AcDbLine
 10
117.3846018632
 20
56.0155363691
 30
0.0
 11
117.7216293017
 21
55.6461957327
 31
0.0
  0
ARC
  5
15F
330
1F
100
AcDbEntity
  8
0
  6
Continuous
 62
     7
370
    25
100
AcDbCircle
 10
124.630691791
 20
48.0747126866
 30
0.0
 40
10.75
100
AcDbArc
 50
252.3807989171
 51
287.6192010829
  0
ARC
  5
160
330
1F
100
AcDbEntity
  8
0
  6
Continuous
 62
     7
370
    25
100
AcDbCircle
 10
124.630691791
 20
48.0747126866
 30
0.0
 40
10.75000000000001
100
AcDbArc
 50
72.3807989171
 51
107.6192010829
  0
ARC
  5
161
330
1F
100
AcDbEntity
  8
0
  6
Continuous
 62
     7
370
    25
100
AcDbCircle
 10
124.630691791
 20
48.0747126866
 30
0.0
 40
10.75000000000002
100
AcDbArc
 50
312.3807989171
 51
347.6192010829
  0
ARC
  5
162
330
1F
100
AcDbEntity
  8
0
  6
Continuous
 62
     7
370
    25
100
AcDbCircle
 10
124.630691791
 20
48.0747126866
 30
0.0
 40
10.75000000000001
100
AcDbArc
 50
12.3807989171
 51
47.6192010829
  0
ARC
  5
163
330
1F
100
AcDbEntity
  8
0
  6
Continuous
 62
     7
370
    25
100
AcDbCircle
 10
124.630691791
 20
48.0747126866
 30
0.0
 40
10.75
100
AcDbArc
 50
192.3807989171
 51
227.6192010829
  0
ARC
  5
164
330
1F
100
AcDbEntity
  8
0
  6
Continuous
 62
     7
370
    25
100
AcDbCircle
 10
124.630691791
 20
48.0747126866
 30
0.0
 40
10.75000000000001
100
AcDbArc
 50
132.3807989171
 51
167.6192010829
  0
SPLINE
  5
165
330
1F
100
AcDbEntity
  8
0
  6
Continuous
 62
     7
370
    25
100
AcDbSpline
210
0.0
220
0.0
230
1.0
 70
    24
 71
     3
 72
    11
 73
     7
 74
     0
 42
0.000000001
 43
0.00000001
 40
0.0
 40
0.0
 40
0.0
 40
0.0
 40
0.2489223333931551
 40
0.4987626195644931
 40
0.7490095782085953
 40
1.0
 40
1.0
 40
1.0
 40
1.0
 10
117.3846018632108
 20
56.01553636914218
 30
0.0
 10
117.1109208942811
 20
55.85752658805853
 30
0.0
 10
116.5625497010354
 20
55.54092433202226
 30
0.0
 10
115.7467106571344
 20
55.06989944041063
 30
0.0
 10
114.934718225247
 20
54.6010953912805
 30
0.0
 10
114.3989654885263
 20
54.29177840451573
 30
0.0
 10
114.1306917910447
 20
54.13689051305823
 30
0.0
  0
SPLINE
  5
166
330
1F
100
AcDbEntity
  8
0
  6
Continuous
 62
     7
370
    25
100
AcDbSpline
210
0.0
220
0.0
230
1.0
 70
    24
 71
     3
 72
    11
 73
     7
 74
     0
 42
0.000000001
 43
0.00000001
 40
0.0
 40
0.0
 40
0.0
 40
0.0
 40
0.2491235585399953
 40
0.4985358956041034
 40
0.7490315534605871
 40
1.0
 40
1.0
 40
1.0
 40
1.0
 10
114.1306917910447
 20
54.13689051305823
 30
0.0
 10
114.1306917910447
 20
53.8294247374296
 30
0.0
 10
114.1306917910447
 20
53.21413677863939
 30
0.0
 10
114.1306917910447
 20
52.27916160706128
 30
0.0
 10
114.1306917910447
 20
51.33483840520552
 30
0.0
 10
114.1306917910447
 20
50.69821207628615
 30
0.0
 10
114.1306917910447
 20
50.37959880089038
 30
0.0
  0
SPLINE
  5
167
330
1F
100
AcDbEntity
  8
0
  6
Continuous
 62
     7
370
    25
100
AcDbSpline
210
0.0
220
0.0
230
1.0
 70
    24
 71
     3
 72
    11
 73
     7
 74
     0
 42
0.000000001
 43
0.00000001
 40
0.0
 40
0.0
 40
0.0
 40
0.0
 40
0.2489223333931555
 40
0.4987626195644937
 40
0.7490095782085955
 40
1.0
 40
1.0
 40
1.0
 40
1.0
 10
121.3767817188787
 20
37.82900288966895
 30
0.0
 10
121.6504626878084
 20
37.67099310858531
 30
0.0
 10
122.1988338810542
 20
37.35439085254905
 30
0.0
 10
123.0146729249551
 20
36.88336596093741
 30
0.0
 10
123.8266653568425
 20
36.41456191180728
 30
0.0
 10
124.3624180935632
 20
36.10524492504253
 30
0.0
 10
124.6306917910448
 20
35.95035703358504
 30
0.0
  0
SPLINE
  5
168
330
1F
100
AcDbEntity
  8
0
  6
Continuous
 62
     7
370
    25
100
AcDbSpline
210
0.0
220
0.0
230
1.0
 70
    24
 71
     3
 72
    11
 73
     7
 74
     0
 42
0.000000001
 43
0.00000001
 40
0.0
 40
0.0
 40
0.0
 40
0.0
 40
0.2491235585399947
 40
0.4985358956041024
 40
0.7490315534605864
 40
1.0
 40
1.0
 40
1.0
 40
1.0
 10
124.6306917910448
 20
35.95035703358504
 30
0.0
 10
124.8969649635335
 20
36.10408992139935
 30
0.0
 10
125.4298199664885
 20
36.41173390079447
 30
0.0
 10
126.2395322169828
 20
36.87922148658353
 30
0.0
 10
127.057340099173
 20
37.35138308751142
 30
0.0
 10
127.6086746727352
 20
37.6696962519711
 30
0.0
 10
127.8846018632109
 20
37.829002889669
 30
0.0
  0
SPLINE
  5
169
330
1F
100
AcDbEntity
  8
0
  6
Continuous
 62
     7
370
    25
100
AcDbSpline
210
0.0
220
0.0
230
1.0
 70
    24
 71
     3
 72
    11
 73
     7
 74
     0
 42
0.000000001
 43
0.00000001
 40
0.0
 40
0.0
 40
0.0
 40
0.0
 40
0.2491235585399944
 40
0.4985358956041019
 40
0.749031553460586
 40
1.0
 40
1.0
 40
1.0
 40
1.0
 10
135.1306917910447
 20
54.13689051305838
 30
0.0
 10
134.864418618556
 20
54.2906234008727
 30
0.0
 10
134.3315636156009
 20
54.59826738026781
 30
0.0
 10
133.5218513651066
 20
55.06575496605689
 30
0.0
 10
132.7040434829164
 20
55.53791656698477
 30
0.0
 10
132.1527089093541
 20
55.85622973144446
 30
0.0
 10
131.8767817188784
 20
56.01553636914236
 30
0.0
  0
SPLINE
  5
16A
330
1F
100
AcDbEntity
  8
0
  6
Continuous
 62
     7
370
    25
100
AcDbSpline
210
0.0
220
0.0
230
1.0
 70
    24
 71
     3
 72
    11
 73
     7
 74
     0
 42
0.000000001
 43
0.00000001
 40
0.0
 40
0.0
 40
0.0
 40
0.0
 40
0.24892233030968
 40
0.4983408013471692
 40
0.7490095813176886
 40
1.0
 40
1.0
 40
1.0
 40
1.0
 10
135.1306917910447
 20
50.37959880089051
 30
0.0
 10
135.1306917910447
 20
50.69561844518604
 30
0.0
 10
135.1306917910447
 20
51.32828760983571
 30
0.0
 10
135.1306917910447
 20
52.27034366118285
 30
0.0
 10
135.1306917910447
 20
53.20795999082482
 30
0.0
 10
135.1306917910447
 20
53.82711468200477
 30
0.0
 10
135.1306917910447
 20
54.13689051305838
 30
0.0
  0
SPLINE
  5
16B
330
1F
100
AcDbEntity
  8
0
  6
Continuous
 62
     7
370
    25
100
AcDbSpline
210
0.0
220
0.0
230
1.0
 70
    24
 71
     3
 72
    11
 73
     7
 74
     0
 42
0.000000001
 43
0.00000001
 40
0.0
 40
0.0
 40
0.0
 40
0.0
 40
0.2489223333931555
 40
0.4987626195644937
 40
0.7490095782085954
 40
1.0
 40
1.0
 40
1.0
 40
1.0
 10
131.8767817188787
 20
40.13388900399224
 30
0.0
 10
132.1504626878084
 20
40.29189878507589
 30
0.0
 10
132.6988338810541
 20
40.60850104111216
 30
0.0
 10
133.5146729249551
 20
41.0795259327238
 30
0.0
 10
134.3266653568425
 20
41.54832998185394
 30
0.0
 10
134.8624180935632
 20
41.85764696861871
 30
0.0
 10
135.1306917910448
 20
42.01253486007621
 30
0.0
  0
SPLINE
  5
16C
330
1F
100
AcDbEntity
  8
0
  6
Continuous
 62
     7
370
    25
100
AcDbSpline
210
0.0
220
0.0
230
1.0
 70
    24
 71
     3
 72
    10
 73
     6
 74
     0
 42
0.000000001
 43
0.00000001
 40
0.0
 40
0.0
 40
0.0
 40
0.0
 40
0.3472039737939142
 40
0.6731184750787441
 40
1.0
 40
1.0
 40
1.0
 40
1.0
 10
135.1306917910448
 20
42.01253486007621
 30
0.0
 10
135.1306917910448
 20
42.4415222889259
 30
0.0
 10
135.1306917910448
 20
43.27319296590566
 30
0.0
 10
135.1306917910448
 20
44.52694564128414
 30
0.0
 10
135.1306917910448
 20
45.35512398613273
 30
0.0
 10
135.1306917910448
 20
45.76982657224408
 30
0.0
  0
SPLINE
  5
16D
330
1F
100
AcDbEntity
  8
0
  6
Continuous
 62
     7
370
    25
100
AcDbSpline
210
0.0
220
0.0
230
1.0
 70
    24
 71
     3
 72
    11
 73
     7
 74
     0
 42
0.000000001
 43
0.00000001
 40
0.0
 40
0.0
 40
0.0
 40
0.0
 40
0.2489223333931553
 40
0.4987626195644932
 40
0.7490095782085953
 40
1.0
 40
1.0
 40
1.0
 40
1.0
 10
127.884601863211
 20
58.32042248346536
 30
0.0
 10
127.6109208942813
 20
58.478432264549
 30
0.0
 10
127.0625497010355
 20
58.79503452058528
 30
0.0
 10
126.2467106571345
 20
59.26605941219692
 30
0.0
 10
125.434718225247
 20
59.73486346132707
 30
0.0
 10
124.8989654885263
 20
60.04418044809184
 30
0.0
 10
124.6306917910447
 20
60.19906833954933
 30
0.0
  0
SPLINE
  5
16E
330
1F
100
AcDbEntity
  8
0
  6
Continuous
 62
     7
370
    25
100
AcDbSpline
210
0.0
220
0.0
230
1.0
 70
    24
 71
     3
 72
    11
 73
     7
 74
     0
 42
0.000000001
 43
0.00000001
 40
0.0
 40
0.0
 40
0.0
 40
0.0
 40
0.2491235585399949
 40
0.4985358956041023
 40
0.7490315534605861
 40
1.0
 40
1.0
 40
1.0
 40
1.0
 10
124.6306917910447
 20
60.19906833954933
 30
0.0
 10
124.364418618556
 20
60.04533545173502
 30
0.0
 10
123.831563615601
 20
59.73769147233991
 30
0.0
 10
123.0218513651067
 20
59.27020388655085
 30
0.0
 10
122.2040434829165
 20
58.79804228562296
 30
0.0
 10
121.6527089093543
 20
58.47972912116328
 30
0.0
 10
121.3767817188786
 20
58.3204224834654
 30
0.0
  0
SPLINE
  5
16F
330
1F
100
AcDbEntity
  8
0
  6
Continuous
 62
     7
370
    25
100
AcDbSpline
210
0.0
220
0.0
230
1.0
 70
    24
 71
     3
 72
    11
 73
     7
 74
     0
 42
0.000000001
 43
0.00000001
 40
0.0
 40
0.0
 40
0.0
 40
0.0
 40
0.249123558539995
 40
0.4985358956041022
 40
0.7490315534605861
 40
1.0
 40
1.0
 40
1.0
 40
1.0
 10
114.1306917910447
 20
42.01253486007607
 30
0.0
 10
114.3969649635334
 20
41.85880197226174
 30
0.0
 10
114.9298199664884
 20
41.55115799286664
 30
0.0
 10
115.7395322169828
 20
41.08367040707758
 30
0.0
 10
116.5573400991729
 20
40.61150880614971
 30
0.0
 10
117.1086746727351
 20
40.29319564169003
 30
0.0
 10
117.3846018632109
 20
40.13388900399215
 30
0.0
  0
SPLINE
  5
170
330
1F
100
AcDbEntity
  8
0
  6
Continuous
 62
     7
370
    25
100
AcDbSpline
210
0.0
220
0.0
230
1.0
 70
    24
 71
     3
 72
    10
 73
     6
 74
     0
 42
0.000000001
 43
0.00000001
 40
0.0
 40
0.0
 40
0.0
 40
0.0
 40
0.3258684952272098
 40
0.6527960511516884
 40
1.0
 40
1.0
 40
1.0
 40
1.0
 10
114.1306917910447
 20
45.76982657224393
 30
0.0
 10
114.1306917910447
 20
45.35640696508408
 30
0.0
 10
114.1306917910447
 20
44.5282241521538
 30
0.0
 10
114.1306917910447
 20
43.27444485671899
 30
0.0
 10
114.1306917910447
 20
42.44152235127905
 30
0.0
 10
114.1306917910448
 20
42.01253486007607
 30
0.0
  0
CIRCLE
  5
171
330
1F
100
AcDbEntity
  8
0
  6
Continuous
 62
     7
370
    25
100
AcDbCircle
 10
124.630691791
 20
48.0747126866
 30
0.0
 40
5.050000000000018
  0
CIRCLE
  5
172
330
1F
100
AcDbEntity
  8
0
  6
Continuous
 62
     7
370
    25
100
AcDbCircle
 10
124.630691791
 20
48.0747126866
 30
0.0
 40
4.0
  0
ENDSEC
  0
SECTION
  2
OBJECTS
  0
DICTIONARY
  5
C
330
0
100
AcDbDictionary
281
     1
  3
ACAD_GROUP
350
D
  3
ACAD_LAYOUT
350
1A
  3
ACAD_MLINESTYLE
350
17
  3
ACAD_PLOTSETTINGS
350
19
  3
ACAD_PLOTSTYLENAME
350
E
  3
ACAD_SCALELIST
350
47
  0
DICTIONARY
  5
D
102
{ACAD_REACTORS
330
C
102
}
330
C
100
AcDbDictionary
281
     1
  0
DICTIONARY
  5
1A
102
{ACAD_REACTORS
330
C
102
}
330
C
100
AcDbDictionary
281
     1
  3
Layout1
350
1E
  3
Layout2
350
26
  3
Model
350
22
  0
DICTIONARY
  5
17
102
{ACAD_REACTORS
330
C
102
}
330
C
100
AcDbDictionary
281
     1
  3
Standard
350
18
  0
DICTIONARY
  5
19
102
{ACAD_REACTORS
330
C
102
}
330
C
100
AcDbDictionary
281
     1
  0
ACDBDICTIONARYWDFLT
  5
E
102
{ACAD_REACTORS
330
C
102
}
330
C
100
AcDbDictionary
281
     1
  3
Normal
350
F
100
AcDbDictionaryWithDefault
340
F
  0
DICTIONARY
  5
47
102
{ACAD_REACTORS
330
C
102
}
330
C
100
AcDbDictionary
281
     1
  3
A0
350
48
  3
A1
350
49
  3
A2
350
4A
  3
A3
350
4B
  3
A4
350
4C
  3
A5
350
4D
  3
A6
350
4E
  3
A7
350
4F
  3
A8
350
50
  3
A9
350
51
  3
B0
350
52
  3
B1
350
53
  3
B2
350
54
  3
B3
350
55
  3
B4
350
56
  3
B5
350
57
  3
B6
350
58
  3
B7
350
59
  3
B8
350
5A
  3
B9
350
5B
  3
C0
350
5C
  3
C1
350
5D
  3
C2
350
5E
  3
C3
350
5F
  3
C4
350
60
  3
C5
350
61
  3
C6
350
62
  3
C7
350
63
  3
C8
350
64
  3
C9
350
65
  3
D0
350
66
  3
D1
350
67
  3
D2
350
68
  0
LAYOUT
  5
1E
102
{ACAD_REACTORS
330
1A
102
}
330
1A
100
AcDbPlotSettings
  1

  2
none_device
  4

  6

 40
0.0
 41
0.0
 42
0.0
 43
0.0
 44
0.0
 45
0.0
 46
0.0
 47
0.0
 48
0.0
 49
0.0
140
0.0
141
0.0
142
1.0
143
1.0
 70
   688
 72
     1
 73
     0
 74
     5
  7

 75
    16
147
1.0
148
0.0
149
0.0
100
AcDbLayout
  1
Layout1
 70
     1
 71
     1
 10
0.0
 20
0.0
 11
420.0
 21
297.0
 12
0.0
 22
0.0
 32
0.0
 14
1.0000000000E+20
 24
1.0000000000E+20
 34
1.0000000000E+20
 15
-1.0000000000E+20
 25
-1.0000000000E+20
 35
-1.0000000000E+20
146
0.0
 13
0.0
 23
0.0
 33
0.0
 16
1.0
 26
0.0
 36
0.0
 17
0.0
 27
1.0
 37
0.0
 76
     0
330
1B
  0
LAYOUT
  5
26
102
{ACAD_REACTORS
330
1A
102
}
330
1A
100
AcDbPlotSettings
  1

  2
none_device
  4

  6

 40
0.0
 41
0.0
 42
0.0
 43
0.0
 44
0.0
 45
0.0
 46
0.0
 47
0.0
 48
0.0
 49
0.0
140
0.0
141
0.0
142
1.0
143
1.0
 70
   688
 72
     1
 73
     0
 74
     5
  7

 75
    16
147
1.0
148
0.0
149
0.0
100
AcDbLayout
  1
Layout2
 70
     1
 71
     2
 10
0.0
 20
0.0
 11
0.0
 21
0.0
 12
0.0
 22
0.0
 32
0.0
 14
0.0
 24
0.0
 34
0.0
 15
0.0
 25
0.0
 35
0.0
146
0.0
 13
0.0
 23
0.0
 33
0.0
 16
1.0
 26
0.0
 36
0.0
 17
0.0
 27
1.0
 37
0.0
 76
     0
330
23
  0
LAYOUT
  5
22
102
{ACAD_REACTORS
330
1A
102
}
330
1A
100
AcDbPlotSettings
  1

  2
none_device
  4
Letter_(8.50_x_11.00_Inches)
  6

 40
6.35
 41
6.35
 42
6.35000508
 43
6.35000508
 44
215.9
 45
279.4
 46
0.0
 47
0.0
 48
0.0
 49
0.0
140
0.0
141
0.0
142
1.0
143
1.0
 70
  1712
 72
     1
 73
     0
 74
     0
  7

 75
     0
147
1.0
148
0.0
149
0.0
100
AcDbLayout
  1
Model
 70
     1
 71
     0
 10
0.0
 20
0.0
 11
215.9
 21
139.7
 12
0.0
 22
0.0
 32
0.0
 14
0.0
 24
0.0
 34
0.0
 15
215.9
 25
139.7
 35
0.0
146
0.0
 13
0.0
 23
0.0
 33
0.0
 16
1.0
 26
0.0
 36
0.0
 17
0.0
 27
1.0
 37
0.0
 76
     0
330
1F
331
29
  0
MLINESTYLE
  5
18
102
{ACAD_REACTORS
330
17
102
}
330
17
100
AcDbMlineStyle
  2
Standard
 70
     0
  3

 62
   256
 51
90.0
 52
90.0
 71
     2
 49
0.5
 62
   256
  6
BYLAYER
 49
-0.5
 62
   256
  6
BYLAYER
  0
ACDBPLACEHOLDER
  5
F
102
{ACAD_REACTORS
330
E
102
}
330
E
  0
SCALE
  5
48
102
{ACAD_REACTORS
330
47
102
}
330
47
100
AcDbScale
 70
     0
300
1:1
140
1.0
141
1.0
290
     1
  0
SCALE
  5
49
102
{ACAD_REACTORS
330
47
102
}
330
47
100
AcDbScale
 70
     0
300
1:2
140
1.0
141
2.0
290
     0
  0
SCALE
  5
4A
102
{ACAD_REACTORS
330
47
102
}
330
47
100
AcDbScale
 70
     0
300
1:4
140
1.0
141
4.0
290
     0
  0
SCALE
  5
4B
102
{ACAD_REACTORS
330
47
102
}
330
47
100
AcDbScale
 70
     0
300
1:5
140
1.0
141
5.0
290
     0
  0
SCALE
  5
4C
102
{ACAD_REACTORS
330
47
102
}
330
47
100
AcDbScale
 70
     0
300
1:8
140
1.0
141
8.0
290
     0
  0
SCALE
  5
4D
102
{ACAD_REACTORS
330
47
102
}
330
47
100
AcDbScale
 70
     0
300
1:10
140
1.0
141
10.0
290
     0
  0
SCALE
  5
4E
102
{ACAD_REACTORS
330
47
102
}
330
47
100
AcDbScale
 70
     0
300
1:16
140
1.0
141
16.0
290
     0
  0
SCALE
  5
4F
102
{ACAD_REACTORS
330
47
102
}
330
47
100
AcDbScale
 70
     0
300
1:20
140
1.0
141
20.0
290
     0
  0
SCALE
  5
50
102
{ACAD_REACTORS
330
47
102
}
330
47
100
AcDbScale
 70
     0
300
1:30
140
1.0
141
30.0
290
     0
  0
SCALE
  5
51
102
{ACAD_REACTORS
330
47
102
}
330
47
100
AcDbScale
 70
     0
300
1:40
140
1.0
141
40.0
290
     0
  0
SCALE
  5
52
102
{ACAD_REACTORS
330
47
102
}
330
47
100
AcDbScale
 70
     0
300
1:50
140
1.0
141
50.0
290
     0
  0
SCALE
  5
53
102
{ACAD_REACTORS
330
47
102
}
330
47
100
AcDbScale
 70
     0
300
1:100
140
1.0
141
100.0
290
     0
  0
SCALE
  5
54
102
{ACAD_REACTORS
330
47
102
}
330
47
100
AcDbScale
 70
     0
300
2:1
140
2.0
141
1.0
290
     0
  0
SCALE
  5
55
102
{ACAD_REACTORS
330
47
102
}
330
47
100
AcDbScale
 70
     0
300
4:1
140
4.0
141
1.0
290
     0
  0
SCALE
  5
56
102
{ACAD_REACTORS
330
47
102
}
330
47
100
AcDbScale
 70
     0
300
8:1
140
8.0
141
1.0
290
     0
  0
SCALE
  5
57
102
{ACAD_REACTORS
330
47
102
}
330
47
100
AcDbScale
 70
     0
300
10:1
140
10.0
141
1.0
290
     0
  0
SCALE
  5
58
102
{ACAD_REACTORS
330
47
102
}
330
47
100
AcDbScale
 70
     0
300
100:1
140
100.0
141
1.0
290
     0
  0
SCALE
  5
59
102
{ACAD_REACTORS
330
47
102
}
330
47
100
AcDbScale
 70
     0
300
1/128" = 1'-0"
140
0.0078125
141
12.0
290
     0
  0
SCALE
  5
5A
102
{ACAD_REACTORS
330
47
102
}
330
47
100
AcDbScale
 70
     0
300
1/64" = 1'-0"
140
0.015625
141
12.0
290
     0
  0
SCALE
  5
5B
102
{ACAD_REACTORS
330
47
102
}
330
47
100
AcDbScale
 70
     0
300
1/32" = 1'-0"
140
0.03125
141
12.0
290
     0
  0
SCALE
  5
5C
102
{ACAD_REACTORS
330
47
102
}
330
47
100
AcDbScale
 70
     0
300
1/16" = 1'-0"
140
0.0625
141
12.0
290
     0
  0
SCALE
  5
5D
102
{ACAD_REACTORS
330
47
102
}
330
47
100
AcDbScale
 70
     0
300
3/32" = 1'-0"
140
0.09375
141
12.0
290
     0
  0
SCALE
  5
5E
102
{ACAD_REACTORS
330
47
102
}
330
47
100
AcDbScale
 70
     0
300
1/8" = 1'-0"
140
0.125
141
12.0
290
     0
  0
SCALE
  5
5F
102
{ACAD_REACTORS
330
47
102
}
330
47
100
AcDbScale
 70
     0
300
3/16" = 1'-0"
140
0.1875
141
12.0
290
     0
  0
SCALE
  5
60
102
{ACAD_REACTORS
330
47
102
}
330
47
100
AcDbScale
 70
     0
300
1/4" = 1'-0"
140
0.25
141
12.0
290
     0
  0
SCALE
  5
61
102
{ACAD_REACTORS
330
47
102
}
330
47
100
AcDbScale
 70
     0
300
3/8" = 1'-0"
140
0.375
141
12.0
290
     0
  0
SCALE
  5
62
102
{ACAD_REACTORS
330
47
102
}
330
47
100
AcDbScale
 70
     0
300
1/2" = 1'-0"
140
0.5
141
12.0
290
     0
  0
SCALE
  5
63
102
{ACAD_REACTORS
330
47
102
}
330
47
100
AcDbScale
 70
     0
300
3/4" = 1'-0"
140
0.75
141
12.0
290
     0
  0
SCALE
  5
64
102
{ACAD_REACTORS
330
47
102
}
330
47
100
AcDbScale
 70
     0
300
1" = 1'-0"
140
1.0
141
12.0
290
     0
  0
SCALE
  5
65
102
{ACAD_REACTORS
330
47
102
}
330
47
100
AcDbScale
 70
     0
300
1-1/2" = 1'-0"
140
1.5
141
12.0
290
     0
  0
SCALE
  5
66
102
{ACAD_REACTORS
330
47
102
}
330
47
100
AcDbScale
 70
     0
300
3" = 1'-0"
140
3.0
141
12.0
290
     0
  0
SCALE
  5
67
102
{ACAD_REACTORS
330
47
102
}
330
47
100
AcDbScale
 70
     0
300
6" = 1'-0"
140
6.0
141
12.0
290
     0
  0
SCALE
  5
68
102
{ACAD_REACTORS
330
47
102
}
330
47
100
AcDbScale
 70
     0
300
1'-0" = 1'-0"
140
12.0
141
12.0
290
     0
  0
ENDSEC
  0
EOF
