  0
SECTION
  2
HEADER
  9
$ACADVER
  1
AC1015
  9
$ACADMAINTVER
 70
     6
  9
$DWGCODEPAGE
  3
DOS932
  9
$INSBASE
 10
0.0
 20
0.0
 30
0.0
  9
$EXTMIN
 10
0.0
 20
0.0
 30
0.0
  9
$EXTMAX
 10
215.9
 20
139.7
 30
0.0
  9
$LIMMIN
 10
0.0
 20
0.0
  9
$LIMMAX
 10
215.9
 20
139.7
  9
$ORTHOMODE
 70
     0
  9
$REGENMODE
 70
     1
  9
$FILLMODE
 70
     1
  9
$QTEXTMODE
 70
     0
  9
$MIRRTEXT
 70
     1
  9
$LTSCALE
 40
0.5
  9
$ATTMODE
 70
     1
  9
$TEXTSIZE
 40
1.75
  9
$TRACEWID
 40
1.0
  9
$TEXTSTYLE
  7
Standard
  9
$CLAYER
  8
0
  9
$CELTYPE
  6
ByLayer
  9
$CECOLOR
 62
   256
  9
$CELTSCALE
 40
1.0
  9
$DISPSILH
 70
     0
  9
$DIMSCALE
 40
1.0
  9
$DIMASZ
 40
1.778
  9
$DIMEXO
 40
0.5
  9
$DIMDLI
 40
3.75
  9
$DIMRND
 40
0.0
  9
$DIMDLE
 40
0.0
  9
$DIMEXE
 40
0.5
  9
$DIMTP
 40
0.0
  9
$DIMTM
 40
0.0
  9
$DIMTXT
 40
1.75
  9
$DIMCEN
 40
2.5
  9
$DIMTSZ
 40
0.0
  9
$DIMTOL
 70
     0
  9
$DIMLIM
 70
     0
  9
$DIMTIH
 70
     1
  9
$DIMTOH
 70
     1
  9
$DIMSE1
 70
     0
  9
$DIMSE2
 70
     0
  9
$DIMTAD
 70
     1
  9
$DIMZIN
 70
     1
  9
$DIMBLK
  1

  9
$DIMASO
 70
     1
  9
$DIMSHO
 70
     1
  9
$DIMPOST
  1

  9
$DIMAPOST
  1

  9
$DIMALT
 70
     0
  9
$DIMALTD
 70
     3
  9
$DIMALTF
 40
0.0393700787
  9
$DIMLFAC
 40
1.0
  9
$DIMTOFL
 70
     1
  9
$DIMTVP
 40
0.0
  9
$DIMTIX
 70
     0
  9
$DIMSOXD
 70
     0
  9
$DIMSAH
 70
     0
  9
$DIMBLK1
  1

  9
$DIMBLK2
  1

  9
$DIMSTYLE
  2
ISO-25
  9
$DIMCLRD
 70
     0
  9
$DIMCLRE
 70
     0
  9
$DIMCLRT
 70
     0
  9
$DIMTFAC
 40
1.0
  9
$DIMGAP
 40
0.762
  9
$DIMJUST
 70
     0
  9
$DIMSD1
 70
     0
  9
$DIMSD2
 70
     0
  9
$DIMTOLJ
 70
     0
  9
$DIMTZIN
 70
     1
  9
$DIMALTZ
 70
     0
  9
$DIMALTTZ
 70
     0
  9
$DIMUPT
 70
     0
  9
$DIMDEC
 70
     2
  9
$DIMTDEC
 70
     2
  9
$DIMALTU
 70
     2
  9
$DIMALTTD
 70
     3
  9
$DIMTXSTY
  7
Standard
  9
$DIMAUNIT
 70
     0
  9
$DIMADEC
 70
     2
  9
$DIMALTRND
 40
0.0
  9
$DIMAZIN
 70
     0
  9
$DIMDSEP
 70
    44
  9
$DIMATFIT
 70
     3
  9
$DIMFRAC
 70
     0
  9
$DIMLDRBLK
  1

  9
$DIMLUNIT
 70
     2
  9
$DIMLWD
 70
    -2
  9
$DIMLWE
 70
    -2
  9
$DIMTMOVE
 70
     0
  9
$LUNITS
 70
     2
  9
$LUPREC
 70
     2
  9
$SKETCHINC
 40
1.0
  9
$FILLETRAD
 40
10.0
  9
$AUNITS
 70
     0
  9
$AUPREC
 70
     2
  9
$MENU
  1
.
  9
$ELEVATION
 40
0.0
  9
$PELEVATION
 40
0.0
  9
$THICKNESS
 40
0.0
  9
$LIMCHECK
 70
     0
  9
$CHAMFERA
 40
0.0
  9
$CHAMFERB
 40
0.0
  9
$CHAMFERC
 40
0.0
  9
$CHAMFERD
 40
0.0
  9
$SKPOLY
 70
     0
  9
$TDCREATE
 40
2459388.560338218
  9
$TDUCREATE
 40
2459388.185338218
  9
$TDUPDATE
 40
2459388.560338681
  9
$TDUUPDATE
 40
2459388.185338681
  9
$TDINDWG
 40
0.0000000116
  9
$TDUSRTIMER
 40
0.0000000116
  9
$USRTIMER
 70
     1
  9
$ANGBASE
 50
0.0
  9
$ANGDIR
 70
     0
  9
$PDMODE
 70
     0
  9
$PDSIZE
 40
-1.0
  9
$PLINEWID
 40
0.0
  9
$SPLFRAME
 70
     0
  9
$SPLINETYPE
 70
     6
  9
$SPLINESEGS
 70
     8
  9
$HANDSEED
  5
14D
  9
$SURFTAB1
 70
     6
  9
$SURFTAB2
 70
     6
  9
$SURFTYPE
 70
     6
  9
$SURFU
 70
     6
  9
$SURFV
 70
     6
  9
$UCSBASE
  2

  9
$UCSNAME
  2

  9
$UCSORG
 10
0.0
 20
0.0
 30
0.0
  9
$UCSXDIR
 10
1.0
 20
0.0
 30
0.0
  9
$UCSYDIR
 10
0.0
 20
1.0
 30
0.0
  9
$UCSORTHOREF
  2

  9
$UCSORTHOVIEW
 70
     0
  9
$UCSORGTOP
 10
0.0
 20
0.0
 30
0.0
  9
$UCSORGBOTTOM
 10
0.0
 20
0.0
 30
0.0
  9
$UCSORGLEFT
 10
0.0
 20
0.0
 30
0.0
  9
$UCSORGRIGHT
 10
0.0
 20
0.0
 30
0.0
  9
$UCSORGFRONT
 10
0.0
 20
0.0
 30
0.0
  9
$UCSORGBACK
 10
0.0
 20
0.0
 30
0.0
  9
$PUCSBASE
  2

  9
$PUCSNAME
  2

  9
$PUCSORG
 10
0.0
 20
0.0
 30
0.0
  9
$PUCSXDIR
 10
1.0
 20
0.0
 30
0.0
  9
$PUCSYDIR
 10
0.0
 20
1.0
 30
0.0
  9
$PUCSORTHOREF
  2

  9
$PUCSORTHOVIEW
 70
     0
  9
$PUCSORGTOP
 10
0.0
 20
0.0
 30
0.0
  9
$PUCSORGBOTTOM
 10
0.0
 20
0.0
 30
0.0
  9
$PUCSORGLEFT
 10
0.0
 20
0.0
 30
0.0
  9
$PUCSORGRIGHT
 10
0.0
 20
0.0
 30
0.0
  9
$PUCSORGFRONT
 10
0.0
 20
0.0
 30
0.0
  9
$PUCSORGBACK
 10
0.0
 20
0.0
 30
0.0
  9
$USERI1
 70
     0
  9
$USERI2
 70
     0
  9
$USERI3
 70
     0
  9
$USERI4
 70
     0
  9
$USERI5
 70
     0
  9
$USERR1
 40
0.0
  9
$USERR2
 40
0.0
  9
$USERR3
 40
0.0
  9
$USERR4
 40
0.0
  9
$USERR5
 40
0.0
  9
$WORLDVIEW
 70
     1
  9
$SHADEDGE
 70
     3
  9
$SHADEDIF
 70
    70
  9
$TILEMODE
 70
     1
  9
$MAXACTVP
 70
    64
  9
$PINSBASE
 10
0.0
 20
0.0
 30
0.0
  9
$PLIMCHECK
 70
     0
  9
$PEXTMIN
 10
1.0000000000E+20
 20
1.0000000000E+20
 30
1.0000000000E+20
  9
$PEXTMAX
 10
-1.0000000000E+20
 20
-1.0000000000E+20
 30
-1.0000000000E+20
  9
$PLIMMIN
 10
0.0
 20
0.0
  9
$PLIMMAX
 10
420.0
 20
297.0
  9
$UNITMODE
 70
     0
  9
$VISRETAIN
 70
     1
  9
$PLINEGEN
 70
     0
  9
$PSLTSCALE
 70
     1
  9
$TREEDEPTH
 70
  3020
  9
$CMLSTYLE
  2
Standard
  9
$CMLJUST
 70
     0
  9
$CMLSCALE
 40
20.0
  9
$PROXYGRAPHICS
 70
     1
  9
$MEASUREMENT
 70
     1
  9
$CELWEIGHT
370
    -1
  9
$ENDCAPS
280
     0
  9
$JOINSTYLE
280
     0
  9
$LWDISPLAY
290
     1
  9
$INSUNITS
 70
     4
  9
$HYPERLINKBASE
  1

  9
$STYLESHEET
  1

  9
$XEDIT
290
     1
  9
$CEPSNTYPE
380
     0
  9
$PSTYLEMODE
290
     1
  9
$FINGERPRINTGUID
  2
{3ECA05F4-89CB-448C-B225-03D0690C841D}
  9
$VERSIONGUID
  2
{FAEB1C32-E019-11D5-929B-00C0DF256EC4}
  9
$EXTNAMES
290
     1
  9
$PSVPSCALE
 40
0.0
  9
$OLESTARTUP
290
     0
  0
ENDSEC
  0
SECTION
  2
CLASSES
  0
CLASS
  1
ACDBDICTIONARYWDFLT
  2
AcDbDictionaryWithDefault
  3
ObjectDBX Classes
 90
        0
280
     0
281
     0
  0
CLASS
  1
VISUALSTYLE
  2
AcDbVisualStyle
  3
ObjectDBX Classes
 90
     4095
280
     0
281
     0
  0
CLASS
  1
MATERIAL
  2
AcDbMaterial
  3
ObjectDBX Classes
 90
     1153
280
     0
281
     0
  0
CLASS
  1
SCALE
  2
AcDbScale
  3
ObjectDBX Classes
 90
     1153
280
     0
281
     0
  0
CLASS
  1
TABLESTYLE
  2
AcDbTableStyle
  3
ObjectDBX Classes
 90
     4095
280
     0
281
     0
  0
CLASS
  1
MLEADERSTYLE
  2
AcDbMLeaderStyle
  3
ACDB_MLEADERSTYLE_CLASS
 90
     4095
280
     0
281
     0
  0
CLASS
  1
SUN
  2
AcDbSun
  3
SCENEOE
 90
     1153
280
     0
281
     0
  0
CLASS
  1
ACDBPLACEHOLDER
  2
AcDbPlaceHolder
  3
ObjectDBX Classes
 90
        0
280
     0
281
     0
  0
CLASS
  1
LAYOUT
  2
AcDbLayout
  3
ObjectDBX Classes
 90
        0
280
     0
281
     0
  0
ENDSEC
  0
SECTION
  2
TABLES
  0
TABLE
  2
VPORT
  5
8
330
0
100
AcDbSymbolTable
 70
     1
  0
VPORT
  5
29
330
8
100
AcDbSymbolTableRecord
100
AcDbViewportTableRecord
  2
*Active
 70
     0
 10
0.0
 20
0.0
 11
1.0
 21
1.0
 12
107.95
 22
69.85
 13
0.0
 23
0.0
 14
10.0
 24
10.0
 15
10.0
 25
10.0
 16
0.0
 26
0.0
 36
1.0
 17
0.0
 27
0.0
 37
0.0
 40
139.7
 41
1.5454545455
 42
50.0
 43
0.0
 44
0.0
 50
0.0
 51
0.0
 71
     0
 72
  2000
 73
     1
 74
     3
 75
     0
 76
     0
 77
     0
 78
     0
281
     0
 65
     1
110
0.0
120
0.0
130
0.0
111
1.0
121
0.0
131
0.0
112
0.0
122
1.0
132
0.0
 79
     0
146
0.0
  0
ENDTAB
  0
TABLE
  2
LTYPE
  5
5
330
0
100
AcDbSymbolTable
 70
     6
  0
LTYPE
  5
14
330
5
100
AcDbSymbolTableRecord
100
AcDbLinetypeTableRecord
  2
ByBlock
 70
     0
  3

 72
    65
 73
     0
 40
0.0
  0
LTYPE
  5
15
330
5
100
AcDbSymbolTableRecord
100
AcDbLinetypeTableRecord
  2
ByLayer
 70
     0
  3

 72
    65
 73
     0
 40
0.0
  0
LTYPE
  5
16
330
5
100
AcDbSymbolTableRecord
100
AcDbLinetypeTableRecord
  2
Continuous
 70
     0
  3
Solid line
 72
    65
 73
     0
 40
0.0
  0
LTYPE
  5
6E
330
5
100
AcDbSymbolTableRecord
100
AcDbLinetypeTableRecord
  2
HIDDEN
 70
     0
  3
Hidden __ __ __ __ __ __ __ __ __ __ __ __ __ __
 72
    65
 73
     2
 40
1.905
 49
1.27
 74
     0
 49
-0.635
 74
     0
  0
LTYPE
  5
6F
330
5
100
AcDbSymbolTableRecord
100
AcDbLinetypeTableRecord
  2
PHANTOM
 70
     0
  3
Phantom ______  __  __  ______  __  __  ______
 72
    65
 73
     6
 40
12.7
 49
6.35
 74
     0
 49
-1.27
 74
     0
 49
1.27
 74
     0
 49
-1.27
 74
     0
 49
1.27
 74
     0
 49
-1.27
 74
     0
  0
LTYPE
  5
70
330
5
100
AcDbSymbolTableRecord
100
AcDbLinetypeTableRecord
  2
CENTER
 70
     0
  3
Center ____ _ ____ _ ____ _ ____ _ ____ _ ____
 72
    65
 73
     4
 40
10.16
 49
6.35
 74
     0
 49
-1.27
 74
     0
 49
1.27
 74
     0
 49
-1.27
 74
     0
  0
LTYPE
  5
71
330
5
100
AcDbSymbolTableRecord
100
AcDbLinetypeTableRecord
  2
CENTERX2
 70
     0
  3
Center (2x) ________  __  ________  __  _____
 72
    65
 73
     4
 40
20.32
 49
12.7
 74
     0
 49
-2.54
 74
     0
 49
2.54
 74
     0
 49
-2.54
 74
     0
  0
LTYPE
  5
72
330
5
100
AcDbSymbolTableRecord
100
AcDbLinetypeTableRecord
  2
DOT2
 70
     0
  3
Dot (.5x) ........................................
 72
    65
 73
     2
 40
0.635
 49
0.0
 74
     0
 49
-0.635
 74
     0
  0
ENDTAB
  0
TABLE
  2
LAYER
  5
2
330
0
100
AcDbSymbolTable
 70
     1
  0
LAYER
  5
10
330
2
100
AcDbSymbolTableRecord
100
AcDbLayerTableRecord
  2
0
 70
     0
 62
     7
  6
Continuous
370
    -3
390
F
  0
ENDTAB
  0
TABLE
  2
STYLE
  5
3
330
0
100
AcDbSymbolTable
 70
     2
  0
STYLE
  5
11
330
3
100
AcDbSymbolTableRecord
100
AcDbTextStyleTableRecord
  2
Standard
 70
     0
 40
0.0
 41
1.0
 50
0.0
 71
     0
 42
1.75
  3
txt
  4
bigfont
  0
STYLE
  5
73
330
3
100
AcDbSymbolTableRecord
100
AcDbTextStyleTableRecord
  2
SLDTEXTSTYLE0
 70
     0
 40
0.0
 41
0.75
 50
0.0
 71
     0
 42
1.75
  3
TXT
  4
bigfont
  0
ENDTAB
  0
TABLE
  2
VIEW
  5
6
330
0
100
AcDbSymbolTable
 70
     0
  0
ENDTAB
  0
TABLE
  2
UCS
  5
7
330
0
100
AcDbSymbolTable
 70
     0
  0
ENDTAB
  0
TABLE
  2
APPID
  5
9
330
0
100
AcDbSymbolTable
 70
     1
  0
APPID
  5
12
330
9
100
AcDbSymbolTableRecord
100
AcDbRegAppTableRecord
  2
ACAD
 70
     0
  0
ENDTAB
  0
TABLE
  2
DIMSTYLE
  5
A
330
0
100
AcDbSymbolTable
 70
     1
100
AcDbDimStyleTable
  0
DIMSTYLE
105
27
330
A
100
AcDbSymbolTableRecord
100
AcDbDimStyleTableRecord
  2
ISO-25
 70
     0
 41
2.5
 42
0.625
 43
3.75
 44
1.25
 73
     0
 74
     0
 77
     1
 78
     8
140
2.5
141
2.5
143
0.0393700787
147
0.625
171
     3
172
     1
178
     0
271
     2
272
     2
274
     3
278
    44
283
     0
284
     8
340
11
  0
ENDTAB
  0
TABLE
  2
BLOCK_RECORD
  5
1
330
0
100
AcDbSymbolTable
 70
     1
  0
BLOCK_RECORD
  5
1F
330
1
100
AcDbSymbolTableRecord
100
AcDbBlockTableRecord
  2
*Model_Space
340
22
  0
BLOCK_RECORD
  5
1B
330
1
100
AcDbSymbolTableRecord
100
AcDbBlockTableRecord
  2
*Paper_Space
340
1E
  0
BLOCK_RECORD
  5
23
330
1
100
AcDbSymbolTableRecord
100
AcDbBlockTableRecord
  2
*Paper_Space0
340
26
  0
ENDTAB
  0
ENDSEC
  0
SECTION
  2
BLOCKS
  0
BLOCK
  5
20
330
1F
100
AcDbEntity
  8
0
100
AcDbBlockBegin
  2
*Model_Space
 70
     0
 10
0.0
 20
0.0
 30
0.0
  3
*Model_Space
  1

  0
ENDBLK
  5
21
330
1F
100
AcDbEntity
  8
0
100
AcDbBlockEnd
  0
BLOCK
  5
1C
330
1B
100
AcDbEntity
 67
     1
  8
0
100
AcDbBlockBegin
  2
*Paper_Space
 70
     0
 10
0.0
 20
0.0
 30
0.0
  3
*Paper_Space
  1

  0
ENDBLK
  5
1D
330
1B
100
AcDbEntity
 67
     1
  8
0
100
AcDbBlockEnd
  0
BLOCK
  5
24
330
23
100
AcDbEntity
  8
0
100
AcDbBlockBegin
  2
*Paper_Space0
 70
     0
 10
0.0
 20
0.0
 30
0.0
  3
*Paper_Space0
  1

  0
ENDBLK
  5
25
330
23
100
AcDbEntity
  8
0
100
AcDbBlockEnd
  0
ENDSEC
  0
SECTION
  2
ENTITIES
  0
MTEXT
  5
74
330
1F
100
AcDbEntity
  8
0
  6
Continuous
 62
     7
370
     0
100
AcDbMText
 10
86.1747126866
 20
67.1855828403
 30
0.0
 40
2.6458333333
 41
0.0
 71
     1
 72
     1
  1
5R-RS1206
  7
SLDTEXTSTYLE0
 73
     1
 44
1.0
  0
LINE
  5
75
330
1F
100
AcDbEntity
  8
0
  6
Continuous
 62
     7
370
    25
100
AcDbLine
 10
71.3584624984
 20
59.5330851732
 30
0.0
 11
70.4549355526
 21
57.968130597
 31
0.0
  0
LINE
  5
76
330
1F
100
AcDbEntity
  8
0
  6
Continuous
 62
     7
370
    25
100
AcDbLine
 10
70.4549355526
 20
41.468130597
 30
0.0
 11
71.3584624984
 21
39.9031760208
 31
0.0
  0
LINE
  5
77
330
1F
100
AcDbEntity
  8
0
  6
Continuous
 62
     7
370
    25
100
AcDbLine
 10
83.2549355526
 20
57.968130597
 30
0.0
 11
82.3879482545
 21
57.968130597
 31
0.0
  0
LINE
  5
78
330
1F
100
AcDbEntity
  8
0
  6
Continuous
 62
     7
370
    25
100
AcDbLine
 10
82.3879482545
 20
41.468130597
 30
0.0
 11
83.2549355526
 21
41.468130597
 31
0.0
  0
LINE
  5
79
330
1F
100
AcDbEntity
  8
0
  6
Continuous
 62
     7
370
    25
100
AcDbLine
 10
83.2549355526
 20
41.468130597
 30
0.0
 11
83.4549355526
 21
41.668130597
 31
0.0
  0
LINE
  5
7A
330
1F
100
AcDbEntity
  8
0
  6
Continuous
 62
     7
370
    25
100
AcDbLine
 10
83.4549355526
 20
57.768130597
 30
0.0
 11
83.2549355526
 21
57.968130597
 31
0.0
  0
LINE
  5
7B
330
1F
100
AcDbEntity
  8
0
  6
Continuous
 62
     7
370
    25
100
AcDbLine
 10
81.7384292016
 20
58.343130597
 30
0.0
 11
81.0514086067
 21
59.5330851732
 31
0.0
  0
ARC
  5
7C
330
1F
100
AcDbEntity
  8
0
  6
Continuous
 62
     7
370
    25
100
AcDbCircle
 10
82.3879482545
 20
58.718130597
 30
0.0
 40
0.7500000000000071
100
AcDbArc
 50
210.0
 51
270.0
  0
ARC
  5
7D
330
1F
100
AcDbEntity
  8
0
  6
Continuous
 62
     7
370
    25
100
AcDbCircle
 10
82.3879482545
 20
40.718130597
 30
0.0
 40
0.75
100
AcDbArc
 50
90.0
 51
150.0
  0
LINE
  5
7E
330
1F
100
AcDbEntity
  8
0
  6
Continuous
 62
     7
370
    25
100
AcDbLine
 10
81.0514086067
 20
39.9031760208
 30
0.0
 11
81.7384292016
 21
41.093130597
 31
0.0
  0
ARC
  5
7F
330
1F
100
AcDbEntity
  8
0
  6
Continuous
 62
     7
370
    25
100
AcDbCircle
 10
65.7550843581
 20
42.468130597
 30
0.0
 40
0.5000000000000077
100
AcDbArc
 50
90.0
 51
150.0
  0
ARC
  5
80
330
1F
100
AcDbEntity
  8
0
  6
Continuous
 62
     7
370
    25
100
AcDbCircle
 10
65.7550843581
 20
56.968130597
 30
0.0
 40
0.5000000000000041
100
AcDbArc
 50
210.0
 51
270.0
  0
LINE
  5
81
330
1F
100
AcDbEntity
  8
0
  6
Continuous
 62
     7
370
    25
100
AcDbLine
 10
60.4664092235
 20
56.483818097
 30
0.0
 11
50.5551968773
 21
56.1740927112
 31
0.0
  0
LINE
  5
82
330
1F
100
AcDbEntity
  8
0
  6
Continuous
 62
     7
370
    25
100
AcDbLine
 10
50.5551968773
 20
43.2621684828
 30
0.0
 11
60.4664092235
 21
42.952443097
 31
0.0
  0
LINE
  5
83
330
1F
100
AcDbEntity
  8
0
  6
Continuous
 62
     7
370
    25
100
AcDbLine
 10
66.2664092235
 20
42.968130597
 30
0.0
 11
66.4664092235
 21
43.168130597
 31
0.0
  0
LINE
  5
84
330
1F
100
AcDbEntity
  8
0
  6
Continuous
 62
     7
370
    25
100
AcDbLine
 10
66.4664092235
 20
56.268130597
 30
0.0
 11
66.2664092235
 21
56.468130597
 31
0.0
  0
LINE
  5
85
330
1F
100
AcDbEntity
  8
0
  6
Continuous
 62
     7
370
    25
100
AcDbLine
 10
66.2664092235
 20
56.468130597
 30
0.0
 11
65.7550843581
 21
56.468130597
 31
0.0
  0
LINE
  5
86
330
1F
100
AcDbEntity
  8
0
  6
Continuous
 62
     7
370
    25
100
AcDbLine
 10
65.7550843581
 20
42.968130597
 30
0.0
 11
66.2664092235
 21
42.968130597
 31
0.0
  0
LINE
  5
87
330
1F
100
AcDbEntity
  8
0
  6
Continuous
 62
     7
370
    25
100
AcDbLine
 10
69.4664092235
 20
56.296630597
 30
0.0
 11
68.4664092235
 21
55.296630597
 31
0.0
  0
LINE
  5
88
330
1F
100
AcDbEntity
  8
0
  6
Continuous
 62
     7
370
    25
100
AcDbLine
 10
68.4664092235
 20
44.139630597
 30
0.0
 11
69.4664092235
 21
43.139630597
 31
0.0
  0
LINE
  5
89
330
1F
100
AcDbEntity
  8
0
  6
Continuous
 62
     7
370
    25
100
AcDbLine
 10
69.4664092235
 20
43.139630597
 30
0.0
 11
70.4549355526
 21
43.139630597
 31
0.0
  0
LINE
  5
8A
330
1F
100
AcDbEntity
  8
0
  6
Continuous
 62
     7
370
    25
100
AcDbLine
 10
70.4549355526
 20
56.296630597
 30
0.0
 11
69.4664092235
 21
56.296630597
 31
0.0
  0
LINE
  5
8B
330
1F
100
AcDbEntity
  8
0
  6
Continuous
 62
     7
370
    25
100
AcDbLine
 10
50.5551968773
 20
56.1740927112
 30
0.0
 11
48.4664092235
 21
54.968130597
 31
0.0
  0
LINE
  5
8C
330
1F
100
AcDbEntity
  8
0
  6
Continuous
 62
     7
370
    25
100
AcDbLine
 10
48.4664092235
 20
44.468130597
 30
0.0
 11
50.5551968773
 21
43.2621684828
 31
0.0
  0
LINE
  5
8D
330
1F
100
AcDbEntity
  8
0
  6
Continuous
 62
     7
370
    25
100
AcDbLine
 10
66.4664092235
 20
44.218130597
 30
0.0
 11
68.4664092235
 21
44.218130597
 31
0.0
  0
LINE
  5
8E
330
1F
100
AcDbEntity
  8
0
  6
Continuous
 62
     7
370
    25
100
AcDbLine
 10
68.4664092235
 20
55.218130597
 30
0.0
 11
66.4664092235
 21
55.218130597
 31
0.0
  0
LINE
  5
8F
330
1F
100
AcDbEntity
  8
0
  6
Continuous
 62
     7
370
    25
100
AcDbLine
 10
64.6968568739
 20
41.6352268284
 30
0.0
 11
65.3220716562
 21
42.718130597
 31
0.0
  0
LINE
  5
90
330
1F
100
AcDbEntity
  8
0
  6
Continuous
 62
     7
370
    25
100
AcDbLine
 10
65.3220716562
 20
56.718130597
 30
0.0
 11
64.6968568739
 21
57.8010343657
 31
0.0
  0
SPLINE
  5
91
330
1F
100
AcDbEntity
  8
0
  6
Continuous
 62
     7
370
    25
100
AcDbSpline
210
0.0
220
0.0
230
1.0
 70
     8
 71
     3
 72
    16
 73
    12
 74
     0
 42
0.000000001
 43
0.00000001
 40
0.0
 40
0.0
 40
0.0
 40
0.0
 40
0.1120102749541307
 40
0.2377440458013617
 40
0.3634452870972631
 40
0.4922378783757061
 40
0.6210287926568646
 40
0.7152556882666301
 40
0.8094925111982043
 40
0.9047415002555057
 40
1.0
 40
1.0
 40
1.0
 40
1.0
 10
71.35846249842452
 20
44.81065330890311
 30
0.0
 10
71.25978580596872
 20
45.1694043399543
 30
0.0
 10
71.05034255533526
 20
45.93086056879086
 30
0.0
 10
70.8101850018728
 20
47.11491391742241
 30
0.0
 10
70.64281553159043
 20
48.36770713372466
 30
0.0
 10
70.58163839656292
 20
49.64081969176728
 30
0.0
 10
70.62573938435405
 20
50.80988562421773
 30
0.0
 10
70.7434614959697
 20
51.8575584589149
 30
0.0
 10
70.90157169914704
 20
52.78684257733888
 30
0.0
 10
71.1049906000861
 20
53.71087791375619
 30
0.0
 10
71.27396905367996
 20
54.32068774684387
 30
0.0
 10
71.35846249842452
 20
54.62560788512677
 30
0.0
  0
SPLINE
  5
92
330
1F
100
AcDbEntity
  8
0
  6
Continuous
 62
     7
370
    25
100
AcDbSpline
210
0.0
220
0.0
230
1.0
 70
     8
 71
     3
 72
    16
 73
    12
 74
     0
 42
0.000000001
 43
0.00000001
 40
0.0
 40
0.0
 40
0.0
 40
0.0
 40
0.1322988555735027
 40
0.2645603055581354
 40
0.3546976504550874
 40
0.4449040512480979
 40
0.5350245245138255
 40
0.650209833382537
 40
0.765413110075392
 40
0.8826952156317989
 40
1.0
 40
1.0
 40
1.0
 40
1.0
 10
71.35846249842452
 20
39.90317602079129
 30
0.0
 10
71.24287789956328
 20
40.1151936974089
 30
0.0
 10
71.01174138171521
 20
40.53916910571101
 30
0.0
 10
70.79131623013204
 20
41.11850709224753
 30
0.0
 10
70.66151269921754
 20
41.63375242314345
 30
0.0
 10
70.60102340462304
 20
42.08214287666134
 30
0.0
 10
70.59342616427055
 20
42.57314373279622
 30
0.0
 10
70.66083278321167
 20
43.10488538587319
 30
0.0
 10
70.81822573318419
 20
43.67723583950146
 30
0.0
 10
71.0491325173041
 20
44.24701432830933
 30
0.0
 10
71.25534585945637
 20
44.62276154018495
 30
0.0
 10
71.35846249842452
 20
44.81065330890311
 30
0.0
  0
SPLINE
  5
93
330
1F
100
AcDbEntity
  8
0
  6
Continuous
 62
     7
370
    25
100
AcDbSpline
210
0.0
220
0.0
230
1.0
 70
     8
 71
     3
 72
    16
 73
    12
 74
     0
 42
0.000000001
 43
0.00000001
 40
0.0
 40
0.0
 40
0.0
 40
0.0
 40
0.1322988555735043
 40
0.2645603055581387
 40
0.354697650455092
 40
0.4449040512481036
 40
0.5350245245138324
 40
0.6502098333825423
 40
0.7654131100753956
 40
0.8826952156318006
 40
0.9999999999999999
 40
0.9999999999999999
 40
0.9999999999999999
 40
0.9999999999999999
 10
71.35846249842452
 20
54.62560788512677
 30
0.0
 10
71.24287789956328
 20
54.83762556174438
 30
0.0
 10
71.01174138171523
 20
55.26160097004651
 30
0.0
 10
70.79131623013204
 20
55.84093895658303
 30
0.0
 10
70.66151269921757
 20
56.35618428747895
 30
0.0
 10
70.60102340462305
 20
56.80457474099685
 30
0.0
 10
70.59342616427057
 20
57.29557559713174
 30
0.0
 10
70.66083278321172
 20
57.82731725020869
 30
0.0
 10
70.81822573318422
 20
58.39966770383695
 30
0.0
 10
71.0491325173041
 20
58.96944619264481
 30
0.0
 10
71.25534585945637
 20
59.34519340452044
 30
0.0
 10
71.35846249842452
 20
59.53308517323858
 30
0.0
  0
LINE
  5
94
330
1F
100
AcDbEntity
  8
0
  6
Continuous
 62
     7
370
    25
100
AcDbLine
 10
70.4549355526
 20
49.718130597
 30
0.0
 11
70.4549355526
 21
57.968130597
 31
0.0
  0
LINE
  5
95
330
1F
100
AcDbEntity
  8
0
  6
Continuous
 62
     7
370
    25
100
AcDbLine
 10
70.4549355526
 20
41.468130597
 30
0.0
 11
70.4549355526
 21
49.718130597
 31
0.0
  0
SPLINE
  5
96
330
1F
100
AcDbEntity
  8
0
  6
Continuous
 62
     7
370
    25
100
AcDbSpline
210
0.0
220
0.0
230
1.0
 70
     8
 71
     3
 72
    11
 73
     7
 74
     0
 42
0.000000001
 43
0.00000001
 40
0.0
 40
0.0
 40
0.0
 40
0.0
 40
0.2488617730236801
 40
0.49774545835585
 40
0.748862751792887
 40
1.0
 40
1.0
 40
1.0
 40
1.0
 10
81.73842920162616
 20
56.3478027847628
 30
0.0
 10
81.70527514640982
 20
56.2028404044598
 30
0.0
 10
81.63896411675867
 20
55.91290287989911
 30
0.0
 10
81.48092211067375
 20
55.48086329240463
 30
0.0
 10
81.28806993122699
 20
55.05112522142768
 30
0.0
 10
81.13029780433851
 20
54.76745075405972
 30
0.0
 10
81.05140860672002
 20
54.62560788512677
 30
0.0
  0
LINE
  5
97
330
1F
100
AcDbEntity
  8
0
  6
Continuous
 62
     7
370
    25
100
AcDbLine
 10
81.7384292016
 20
51.1812180859
 30
0.0
 11
81.7384292016
 21
56.3478027848
 31
0.0
  0
SPLINE
  5
98
330
1F
100
AcDbEntity
  8
0
  6
Continuous
 62
     7
370
    25
100
AcDbSpline
210
0.0
220
0.0
230
1.0
 70
     8
 71
     3
 72
    11
 73
     7
 74
     0
 42
0.000000001
 43
0.00000001
 40
0.0
 40
0.0
 40
0.0
 40
0.0
 40
0.2490252138763566
 40
0.4980311639765299
 40
0.7490269204800198
 40
1.0
 40
1.0
 40
1.0
 40
1.0
 10
81.05140860672002
 20
54.62560788512677
 30
0.0
 10
81.12965747954546
 20
54.34431502385801
 30
0.0
 10
81.28614917211942
 20
53.78175106121635
 30
0.0
 10
81.47893206048582
 20
52.92480674809032
 30
0.0
 10
81.63799794572061
 20
52.05838671214828
 30
0.0
 10
81.70495312458179
 20
51.47359882181149
 30
0.0
 10
81.73842920162616
 20
51.18121808585489
 30
0.0
  0
SPLINE
  5
99
330
1F
100
AcDbEntity
  8
0
  6
Continuous
 62
     7
370
    25
100
AcDbSpline
210
0.0
220
0.0
230
1.0
 70
     8
 71
     3
 72
    12
 73
     8
 74
     0
 42
0.000000001
 43
0.00000001
 40
0.0
 40
0.0
 40
0.0
 40
0.0
 40
0.0789293209563345
 40
0.3082512807973306
 40
0.5375700456123033
 40
0.7687827613753152
 40
1.0
 40
1.0
 40
1.0
 40
1.0
 10
81.73842920162616
 20
51.18121808585489
 30
0.0
 10
81.74559235101103
 20
51.10444587663876
 30
0.0
 10
81.77356737912066
 20
50.80461899945573
 30
0.0
 10
81.80480652349483
 20
50.28016778798115
 30
0.0
 10
81.81507304437235
 20
49.60617718762724
 30
0.0
 10
81.79593456322326
 20
48.93032367374095
 30
0.0
 10
81.75759778047797
 20
48.48013809773156
 30
0.0
 10
81.73842920162616
 20
48.25504310817498
 30
0.0
  0
SPLINE
  5
9A
330
1F
100
AcDbEntity
  8
0
  6
Continuous
 62
     7
370
    25
100
AcDbSpline
210
0.0
220
0.0
230
1.0
 70
     8
 71
     3
 72
    10
 73
     6
 74
     0
 42
0.000000001
 43
0.00000001
 40
0.0
 40
0.0
 40
0.0
 40
0.0
 40
0.3355445600395944
 40
0.6726666839999047
 40
1.0
 40
1.0
 40
1.0
 40
1.0
 10
81.73842920162616
 20
48.25504310817498
 30
0.0
 10
81.69129498564173
 20
47.86441354187154
 30
0.0
 10
81.59680495199184
 20
47.08131786299464
 30
0.0
 10
81.35838917397646
 20
45.93206589357985
 30
0.0
 10
81.15272551157878
 20
45.18076811181896
 30
0.0
 10
81.05140860672002
 20
44.81065330890311
 30
0.0
  0
LINE
  5
9B
330
1F
100
AcDbEntity
  8
0
  6
Continuous
 62
     7
370
    25
100
AcDbLine
 10
71.3584624984
 20
44.8106533089
 30
0.0
 11
81.0514086067
 21
44.8106533089
 31
0.0
  0
LINE
  5
9C
330
1F
100
AcDbEntity
  8
0
  6
Continuous
 62
     7
370
    25
100
AcDbLine
 10
71.3584624984
 20
54.6256078851
 30
0.0
 11
81.0514086067
 21
54.6256078851
 31
0.0
  0
SPLINE
  5
9D
330
1F
100
AcDbEntity
  8
0
  6
Continuous
 62
     7
370
    25
100
AcDbSpline
210
0.0
220
0.0
230
1.0
 70
     8
 71
     3
 72
    11
 73
     7
 74
     0
 42
0.000000001
 43
0.00000001
 40
0.0
 40
0.0
 40
0.0
 40
0.0
 40
0.2858113857234067
 40
0.552724554521376
 40
0.822027558222932
 40
1.0
 40
1.0
 40
1.0
 40
1.0
 10
82.38794825446448
 20
51.11760558634011
 30
0.0
 10
82.38400795304196
 20
50.85224320769034
 30
0.0
 10
82.37638788800174
 20
50.33906455263187
 30
0.0
 10
82.36492679835082
 20
49.5672653170572
 30
0.0
 10
82.38236418759246
 20
48.89805148969276
 30
0.0
 10
82.3863587888517
 20
48.48357659659265
 30
0.0
 10
82.38794825446448
 20
48.31865560768976
 30
0.0
  0
ARC
  5
9E
330
1F
100
AcDbEntity
  8
0
  6
Continuous
 62
     7
370
    25
100
AcDbCircle
 10
82.3192249902
 20
45.6725765069
 30
0.0
 40
2.646971381584584
100
AcDbArc
 50
88.5122636654
 51
102.674909816
  0
ARC
  5
9F
330
1F
100
AcDbEntity
  8
0
  6
Continuous
 62
     7
370
    25
100
AcDbCircle
 10
82.3192249902
 20
53.7636846872
 30
0.0
 40
2.646971381583309
100
AcDbArc
 50
257.325090184
 51
271.4877363346
  0
ARC
  5
A0
330
1F
100
AcDbEntity
  8
0
  6
Continuous
 62
     7
370
    25
100
AcDbCircle
 10
82.3589959549
 20
56.8702351913
 30
0.0
 40
0.8111958547049686
100
AcDbArc
 50
220.0927969335
 51
272.0453715946
  0
LINE
  5
A1
330
1F
100
AcDbEntity
  8
0
  6
Continuous
 62
     7
370
    25
100
AcDbLine
 10
82.3879482545
 20
56.0595561679
 30
0.0
 11
82.3879482545
 21
51.1176055863
 31
0.0
  0
SPLINE
  5
A2
330
1F
100
AcDbEntity
  8
0
  6
Continuous
 62
     7
370
    25
100
AcDbSpline
210
0.0
220
0.0
230
1.0
 70
     8
 71
     3
 72
    10
 73
     6
 74
     0
 42
0.000000001
 43
0.00000001
 40
0.0
 40
0.0
 40
0.0
 40
0.0
 40
0.3089808900030066
 40
0.6190948628358673
 40
1.0
 40
1.0
 40
1.0
 40
1.0
 10
81.73842920162616
 20
57.81089027360256
 30
0.0
 10
81.76257620816286
 20
57.66044231123471
 30
0.0
 10
81.81095877220942
 20
57.35899466952084
 30
0.0
 10
81.81841386492607
 20
56.86998343092484
 30
0.0
 10
81.7668515171265
 20
56.53335814576669
 30
0.0
 10
81.73842920162616
 20
56.3478027847628
 30
0.0
  0
LINE
  5
A3
330
1F
100
AcDbEntity
  8
0
  6
Continuous
 62
     7
370
    25
100
AcDbLine
 10
71.3584624984
 20
59.5330851732
 30
0.0
 11
81.0514086067
 21
59.5330851732
 31
0.0
  0
SPLINE
  5
A4
330
1F
100
AcDbEntity
  8
0
  6
Continuous
 62
     7
370
    25
100
AcDbSpline
210
0.0
220
0.0
230
1.0
 70
     8
 71
     3
 72
    11
 73
     7
 74
     0
 42
0.000000001
 43
0.00000001
 40
0.0
 40
0.0
 40
0.0
 40
0.0
 40
0.2490252138763565
 40
0.4980311639765294
 40
0.7490269204800196
 40
1.0
 40
1.0
 40
1.0
 40
1.0
 10
81.05140860672002
 20
59.53308517323858
 30
0.0
 10
81.12965747954546
 20
59.39243874260419
 30
0.0
 10
81.28614917211944
 20
59.11115676128335
 30
0.0
 10
81.47893206048582
 20
58.68268460472031
 30
0.0
 10
81.63799794572064
 20
58.24947458674928
 30
0.0
 10
81.70495312458179
 20
57.95708064158087
 30
0.0
 10
81.73842920162616
 20
57.81089027360256
 30
0.0
  0
LINE
  5
A5
330
1F
100
AcDbEntity
  8
0
  6
Continuous
 62
     7
370
    25
100
AcDbLine
 10
81.7384292016
 20
43.0884584093
 30
0.0
 11
81.7384292016
 21
48.2550431082
 31
0.0
  0
SPLINE
  5
A6
330
1F
100
AcDbEntity
  8
0
  6
Continuous
 62
     7
370
    25
100
AcDbSpline
210
0.0
220
0.0
230
1.0
 70
     8
 71
     3
 72
    11
 73
     7
 74
     0
 42
0.000000001
 43
0.00000001
 40
0.0
 40
0.0
 40
0.0
 40
0.0
 40
0.2490252138763564
 40
0.4980311639765298
 40
0.7490269204800198
 40
1.0
 40
1.0
 40
1.0
 40
1.0
 10
81.05140860672002
 20
44.81065330890311
 30
0.0
 10
81.12965747954546
 20
44.67000687826872
 30
0.0
 10
81.28614917211942
 20
44.38872489694789
 30
0.0
 10
81.47893206048582
 20
43.96025274038488
 30
0.0
 10
81.63799794572061
 20
43.52704272241387
 30
0.0
 10
81.70495312458179
 20
43.23464877724547
 30
0.0
 10
81.73842920162616
 20
43.08845840926717
 30
0.0
  0
LINE
  5
A7
330
1F
100
AcDbEntity
  8
0
  6
Continuous
 62
     7
370
    25
100
AcDbLine
 10
82.3879482545
 20
48.3186556077
 30
0.0
 11
82.3879482545
 21
43.3767050261
 31
0.0
  0
ARC
  5
A8
330
1F
100
AcDbEntity
  8
0
  6
Continuous
 62
     7
370
    25
100
AcDbCircle
 10
82.3589959549
 20
42.5660260027
 30
0.0
 40
0.8111958547049732
100
AcDbArc
 50
87.9546284054
 51
139.9072030665
  0
SPLINE
  5
A9
330
1F
100
AcDbEntity
  8
0
  6
Continuous
 62
     7
370
    25
100
AcDbSpline
210
0.0
220
0.0
230
1.0
 70
     8
 71
     3
 72
    10
 73
     6
 74
     0
 42
0.000000001
 43
0.00000001
 40
0.0
 40
0.0
 40
0.0
 40
0.0
 40
0.3089808900029876
 40
0.6190948628358296
 40
1.0
 40
1.0
 40
1.0
 40
1.0
 10
81.73842920162616
 20
43.08845840926717
 30
0.0
 10
81.76257620816287
 20
42.93801044689931
 30
0.0
 10
81.81095877220943
 20
42.63656280518542
 30
0.0
 10
81.8184138649261
 20
42.14755156658936
 30
0.0
 10
81.76685151712651
 20
41.81092628143116
 30
0.0
 10
81.73842920162616
 20
41.62537092042722
 30
0.0
  0
SPLINE
  5
AA
330
1F
100
AcDbEntity
  8
0
  6
Continuous
 62
     7
370
    25
100
AcDbSpline
210
0.0
220
0.0
230
1.0
 70
     8
 71
     3
 72
    11
 73
     7
 74
     0
 42
0.000000001
 43
0.00000001
 40
0.0
 40
0.0
 40
0.0
 40
0.0
 40
0.24886177302368
 40
0.49774545835585
 40
0.748862751792887
 40
1.0
 40
1.0
 40
1.0
 40
1.0
 10
81.73842920162616
 20
41.62537092042722
 30
0.0
 10
81.70527514640982
 20
41.48040854012423
 30
0.0
 10
81.63896411675867
 20
41.19047101556356
 30
0.0
 10
81.48092211067375
 20
40.7584314280691
 30
0.0
 10
81.28806993122697
 20
40.32869335709218
 30
0.0
 10
81.1302978043385
 20
40.04501888972423
 30
0.0
 10
81.05140860672002
 20
39.90317602079129
 30
0.0
  0
LINE
  5
AB
330
1F
100
AcDbEntity
  8
0
  6
Continuous
 62
     7
370
    25
100
AcDbLine
 10
71.3584624984
 20
39.9031760208
 30
0.0
 11
81.0514086067
 21
39.9031760208
 31
0.0
  0
SPLINE
  5
AC
330
1F
100
AcDbEntity
  8
0
  6
Continuous
 62
     7
370
    25
100
AcDbSpline
210
0.0
220
0.0
230
1.0
 70
     8
 71
     3
 72
    11
 73
     7
 74
     0
 42
0.000000001
 43
0.00000001
 40
0.0
 40
0.0
 40
0.0
 40
0.0
 40
0.2858113857233998
 40
0.552724554521382
 40
0.8220275582229516
 40
1.0
 40
1.0
 40
1.0
 40
1.0
 10
82.38794825446448
 20
43.37670502612578
 30
0.0
 10
82.38400795304196
 20
43.21101274005686
 30
0.0
 10
82.37638788800174
 20
42.89058395527183
 30
0.0
 10
82.36492679835082
 20
42.49052156050781
 30
0.0
 10
82.38236418759246
 20
42.18973742320102
 30
0.0
 10
82.3863587888517
 20
42.03771877930455
 30
0.0
 10
82.38794825446449
 20
41.9772300368006
 30
0.0
  0
SPLINE
  5
AD
330
1F
100
AcDbEntity
  8
0
  6
Continuous
 62
     7
370
    25
100
AcDbSpline
210
0.0
220
0.0
230
1.0
 70
     8
 71
     3
 72
    11
 73
     7
 74
     0
 42
0.000000001
 43
0.00000001
 40
0.0
 40
0.0
 40
0.0
 40
0.0
 40
0.285811385723321
 40
0.5527245545214227
 40
0.8220275582231138
 40
1.0
 40
1.0
 40
1.0
 40
1.0
 10
82.38794825446448
 20
57.45903115722918
 30
0.0
 10
82.38400795304196
 20
57.35936106464837
 30
0.0
 10
82.37638788800176
 20
57.16661119437492
 30
0.0
 10
82.36492679835084
 20
56.79487435356424
 30
0.0
 10
82.38236418759247
 20
56.42644466350657
 30
0.0
 10
82.3863587888517
 20
56.16398841430301
 30
0.0
 10
82.38794825446448
 20
56.05955616790419
 30
0.0
  0
LINE
  5
AE
330
1F
100
AcDbEntity
  8
0
  6
Continuous
 62
     7
370
    25
100
AcDbLine
 10
83.2549355526
 20
49.718130597
 30
0.0
 11
83.2549355526
 21
57.968130597
 31
0.0
  0
LINE
  5
AF
330
1F
100
AcDbEntity
  8
0
  6
Continuous
 62
     7
370
    25
100
AcDbLine
 10
83.2549355526
 20
41.468130597
 30
0.0
 11
83.2549355526
 21
49.718130597
 31
0.0
  0
LINE
  5
B0
330
1F
100
AcDbEntity
  8
0
  6
Continuous
 62
     7
370
    25
100
AcDbLine
 10
83.4549355526
 20
49.718130597
 30
0.0
 11
83.4549355526
 21
41.668130597
 31
0.0
  0
LINE
  5
B1
330
1F
100
AcDbEntity
  8
0
  6
Continuous
 62
     7
370
    25
100
AcDbLine
 10
83.4549355526
 20
57.768130597
 30
0.0
 11
83.4549355526
 21
49.718130597
 31
0.0
  0
ARC
  5
B2
330
1F
100
AcDbEntity
  8
0
  6
Continuous
 62
     7
370
    25
100
AcDbCircle
 10
82.3794847197
 20
41.2174296525
 30
0.0
 40
0.7598475211238571
100
AcDbArc
 50
89.3617997906
 51
147.5290082717
  0
ARC
  5
B3
330
1F
100
AcDbEntity
  8
0
  6
Continuous
 62
     7
370
    25
100
AcDbCircle
 10
82.3794847197
 20
58.2188315415
 30
0.0
 40
0.7598475211157132
100
AcDbArc
 50
212.4709917279
 51
270.6382002097
  0
LINE
  5
B4
330
1F
100
AcDbEntity
  8
0
  6
Continuous
 62
     7
370
    25
100
AcDbLine
 10
60.4664092235
 20
45.6766787127
 30
0.0
 11
60.4664092235
 21
41.6352268284
 31
0.0
  0
LINE
  5
B5
330
1F
100
AcDbEntity
  8
0
  6
Continuous
 62
     7
370
    25
100
AcDbLine
 10
64.6968568739
 20
45.6766787127
 30
0.0
 11
60.4664092235
 21
45.6766787127
 31
0.0
  0
SPLINE
  5
B6
330
1F
100
AcDbEntity
  8
0
  6
Continuous
 62
     7
370
    25
100
AcDbSpline
210
0.0
220
0.0
230
1.0
 70
     8
 71
     3
 72
    12
 73
     8
 74
     0
 42
0.000000001
 43
0.00000001
 40
0.0
 40
0.0
 40
0.0
 40
0.0
 40
0.2499999999999998
 40
0.2499999999999998
 40
0.4999999999999997
 40
0.4999999999999997
 40
1.0
 40
1.0
 40
1.0
 40
1.0
 10
65.32207165624972
 20
43.65595277052387
 30
0.0
 10
65.32207165624972
 20
43.82744531732009
 30
0.0
 10
65.30729389778922
 20
43.9997069212524
 30
0.0
 10
65.25010569679397
 20
44.34047632602422
 30
0.0
 10
65.20775022707114
 20
44.50972129178825
 30
0.0
 10
65.04438965219853
 20
45.01445025346907
 30
0.0
 10
64.88723160270806
 20
45.34694000993339
 30
0.0
 10
64.69685687391069
 20
45.67667871268758
 30
0.0
  0
SPLINE
  5
B7
330
1F
100
AcDbEntity
  8
0
  6
Continuous
 62
     7
370
    25
100
AcDbSpline
210
0.0
220
0.0
230
1.0
 70
     8
 71
     3
 72
    10
 73
     6
 74
     0
 42
0.000000001
 43
0.00000001
 40
0.0
 40
0.0
 40
0.0
 40
0.0
 40
0.5
 40
0.5
 40
1.0
 40
1.0
 40
1.0
 40
1.0
 10
64.69685687391093
 20
41.63522682836014
 30
0.0
 10
64.88770808756722
 20
41.96579082709902
 30
0.0
 10
65.04494120872386
 20
42.29876948871749
 30
0.0
 10
65.26248524585212
 20
42.97168837442469
 30
0.0
 10
65.32207165624972
 20
43.31168063706129
 30
0.0
 10
65.32207165624972
 20
43.65595277052387
 30
0.0
  0
LINE
  5
B8
330
1F
100
AcDbEntity
  8
0
  6
Continuous
 62
     7
370
    25
100
AcDbLine
 10
64.6968568739
 20
41.6352268284
 30
0.0
 11
60.4664092235
 21
41.6352268284
 31
0.0
  0
LINE
  5
B9
330
1F
100
AcDbEntity
  8
0
  6
Continuous
 62
     7
370
    25
100
AcDbLine
 10
65.3220716562
 20
43.6559527705
 30
0.0
 11
65.3220716562
 21
49.718130597
 31
0.0
  0
LINE
  5
BA
330
1F
100
AcDbEntity
  8
0
  6
Continuous
 62
     7
370
    25
100
AcDbLine
 10
65.3220716562
 20
49.718130597
 30
0.0
 11
65.3220716562
 21
55.7803084235
 31
0.0
  0
SPLINE
  5
BB
330
1F
100
AcDbEntity
  8
0
  6
Continuous
 62
     7
370
    25
100
AcDbSpline
210
0.0
220
0.0
230
1.0
 70
     8
 71
     3
 72
    10
 73
     6
 74
     0
 42
0.000000001
 43
0.00000001
 40
0.0
 40
0.0
 40
0.0
 40
0.0
 40
0.5
 40
0.5
 40
1.0
 40
1.0
 40
1.0
 40
1.0
 10
64.69685687391093
 20
53.75958248134229
 30
0.0
 10
64.88770808756722
 20
54.09014648008117
 30
0.0
 10
65.04494120872386
 20
54.42312514169964
 30
0.0
 10
65.26248524585212
 20
55.09604402740684
 30
0.0
 10
65.32207165624972
 20
55.43603629004343
 30
0.0
 10
65.32207165624972
 20
55.78030842350601
 30
0.0
  0
SPLINE
  5
BC
330
1F
100
AcDbEntity
  8
0
  6
Continuous
 62
     7
370
    25
100
AcDbSpline
210
0.0
220
0.0
230
1.0
 70
     8
 71
     3
 72
    10
 73
     6
 74
     0
 42
0.000000001
 43
0.00000001
 40
0.0
 40
0.0
 40
0.0
 40
0.0
 40
0.5
 40
0.5
 40
1.0
 40
1.0
 40
1.0
 40
1.0
 10
65.32207165624972
 20
49.71813059701493
 30
0.0
 10
65.32207165624972
 20
50.40203338045487
 30
0.0
 10
65.26163551264358
 20
51.09490248265169
 30
0.0
 10
65.04258849183816
 20
52.44402196136318
 30
0.0
 10
64.88553268028467
 20
53.1059903157439
 30
0.0
 10
64.69685687391043
 20
53.75958248134232
 30
0.0
  0
LINE
  5
BD
330
1F
100
AcDbEntity
  8
0
  6
Continuous
 62
     7
370
    25
100
AcDbLine
 10
60.4664092235
 20
53.7595824813
 30
0.0
 11
60.4664092235
 21
45.6766787127
 31
0.0
  0
LINE
  5
BE
330
1F
100
AcDbEntity
  8
0
  6
Continuous
 62
     7
370
    25
100
AcDbLine
 10
64.6968568739
 20
53.7595824813
 30
0.0
 11
60.4664092235
 21
53.7595824813
 31
0.0
  0
SPLINE
  5
BF
330
1F
100
AcDbEntity
  8
0
  6
Continuous
 62
     7
370
    25
100
AcDbSpline
210
0.0
220
0.0
230
1.0
 70
     8
 71
     3
 72
    10
 73
     6
 74
     0
 42
0.000000001
 43
0.00000001
 40
0.0
 40
0.0
 40
0.0
 40
0.0
 40
0.5000000000000001
 40
0.5000000000000001
 40
1.0
 40
1.0
 40
1.0
 40
1.0
 10
64.69685687391045
 20
45.67667871268755
 30
0.0
 10
64.88674666572129
 20
46.33447624719765
 30
0.0
 10
65.04579779306111
 20
47.00749886091798
 30
0.0
 10
65.26329391517606
 20
48.35618109005884
 30
0.0
 10
65.32207165624972
 20
49.03469922630371
 30
0.0
 10
65.32207165624972
 20
49.71813059701493
 30
0.0
  0
LINE
  5
C0
330
1F
100
AcDbEntity
  8
0
  6
Continuous
 62
     7
370
    25
100
AcDbLine
 10
60.4664092235
 20
57.8010343657
 30
0.0
 11
60.4664092235
 21
53.7595824813
 31
0.0
  0
LINE
  5
C1
330
1F
100
AcDbEntity
  8
0
  6
Continuous
 62
     7
370
    25
100
AcDbLine
 10
64.6968568739
 20
57.8010343657
 30
0.0
 11
60.4664092235
 21
57.8010343657
 31
0.0
  0
SPLINE
  5
C2
330
1F
100
AcDbEntity
  8
0
  6
Continuous
 62
     7
370
    25
100
AcDbSpline
210
0.0
220
0.0
230
1.0
 70
     8
 71
     3
 72
    12
 73
     8
 74
     0
 42
0.000000001
 43
0.00000001
 40
0.0
 40
0.0
 40
0.0
 40
0.0
 40
0.2499999999999999
 40
0.2499999999999999
 40
0.4999999999999999
 40
0.4999999999999999
 40
1.0
 40
1.0
 40
1.0
 40
1.0
 10
65.32207165624972
 20
55.78030842350601
 30
0.0
 10
65.32207165624972
 20
55.95180097030224
 30
0.0
 10
65.30729389778922
 20
56.12406257423454
 30
0.0
 10
65.25010569679397
 20
56.46483197900637
 30
0.0
 10
65.20775022707114
 20
56.6340769447704
 30
0.0
 10
65.04438965219853
 20
57.13880590645121
 30
0.0
 10
64.88723160270806
 20
57.47129566291554
 30
0.0
 10
64.69685687391069
 20
57.80103436566971
 30
0.0
  0
LINE
  5
C3
330
1F
100
AcDbEntity
  8
0
  6
Continuous
 62
     7
370
    25
100
AcDbLine
 10
50.5551968773
 20
43.2621684828
 30
0.0
 11
50.5551968773
 21
56.1740927112
 31
0.0
  0
LINE
  5
C4
330
1F
100
AcDbEntity
  8
0
  6
Continuous
 62
     7
370
    25
100
AcDbLine
 10
66.4664092235
 20
56.268130597
 30
0.0
 11
66.4664092235
 21
43.168130597
 31
0.0
  0
LINE
  5
C5
330
1F
100
AcDbEntity
  8
0
  6
Continuous
 62
     7
370
    25
100
AcDbLine
 10
66.2664092235
 20
42.968130597
 30
0.0
 11
66.2664092235
 21
56.468130597
 31
0.0
  0
LINE
  5
C6
330
1F
100
AcDbEntity
  8
0
  6
Continuous
 62
     7
370
    25
100
AcDbLine
 10
68.4664092235
 20
44.139630597
 30
0.0
 11
68.4664092235
 21
55.296630597
 31
0.0
  0
LINE
  5
C7
330
1F
100
AcDbEntity
  8
0
  6
Continuous
 62
     7
370
    25
100
AcDbLine
 10
69.4664092235
 20
56.296630597
 30
0.0
 11
69.4664092235
 21
43.139630597
 31
0.0
  0
LINE
  5
C8
330
1F
100
AcDbEntity
  8
0
  6
Continuous
 62
     7
370
    25
100
AcDbLine
 10
48.4664092235
 20
49.718130597
 30
0.0
 11
48.4664092235
 21
54.968130597
 31
0.0
  0
LINE
  5
C9
330
1F
100
AcDbEntity
  8
0
  6
Continuous
 62
     7
370
    25
100
AcDbLine
 10
48.4664092235
 20
44.468130597
 30
0.0
 11
48.4664092235
 21
49.718130597
 31
0.0
  0
LINE
  5
CA
330
1F
100
AcDbEntity
  8
0
  6
Continuous
 62
     1
370
    25
100
AcDbLine
 10
82.3879482545
 20
41.9772300368
 30
0.0
 11
82.3879482545
 21
41.468130597
 31
0.0
  0
LINE
  5
CB
330
1F
100
AcDbEntity
  8
0
  6
Continuous
 62
     1
370
    25
100
AcDbLine
 10
82.3879482545
 20
57.968130597
 30
0.0
 11
82.3879482545
 21
57.4590311572
 31
0.0
  0
LINE
  5
CC
330
1F
100
AcDbEntity
  8
0
  6
Continuous
 62
     1
370
    25
100
AcDbLine
 10
81.7384292016
 20
57.8108902736
 30
0.0
 11
81.7384292016
 21
58.343130597
 31
0.0
  0
LINE
  5
CD
330
1F
100
AcDbEntity
  8
0
  6
Continuous
 62
     1
370
    25
100
AcDbLine
 10
81.7384292016
 20
41.093130597
 30
0.0
 11
81.7384292016
 21
41.6253709204
 31
0.0
  0
LINE
  5
CE
330
1F
100
AcDbEntity
  8
0
  6
Continuous
 62
     1
370
    25
100
AcDbLine
 10
65.3220716562
 20
55.7803084235
 30
0.0
 11
65.3220716562
 21
56.718130597
 31
0.0
  0
LINE
  5
CF
330
1F
100
AcDbEntity
  8
0
  6
Continuous
 62
     1
370
    25
100
AcDbLine
 10
65.3220716562
 20
42.718130597
 30
0.0
 11
65.3220716562
 21
43.6559527705
 31
0.0
  0
LINE
  5
D0
330
1F
100
AcDbEntity
  8
0
  6
Continuous
 62
     1
370
    25
100
AcDbLine
 10
65.7550843581
 20
49.718130597
 30
0.0
 11
65.7550843581
 21
42.968130597
 31
0.0
  0
LINE
  5
D1
330
1F
100
AcDbEntity
  8
0
  6
Continuous
 62
     1
370
    25
100
AcDbLine
 10
65.7550843581
 20
56.468130597
 30
0.0
 11
65.7550843581
 21
49.718130597
 31
0.0
  0
LINE
  5
D2
330
1F
100
AcDbEntity
  8
0
  6
Continuous
 62
     7
370
    25
100
AcDbLine
 10
70.5992731199
 20
95.5237171642
 30
0.0
 11
70.4549355526
 21
95.2737171642
 31
0.0
  0
LINE
  5
D3
330
1F
100
AcDbEntity
  8
0
  6
Continuous
 62
     7
370
    25
100
AcDbLine
 10
70.4549355526
 20
78.7737171642
 30
0.0
 11
70.5992731199
 21
78.5237171642
 31
0.0
  0
LINE
  5
D4
330
1F
100
AcDbEntity
  8
0
  6
Continuous
 62
     7
370
    25
100
AcDbLine
 10
83.2549355526
 20
95.2737171642
 30
0.0
 11
82.371251347
 21
95.2737171642
 31
0.0
  0
LINE
  5
D5
330
1F
100
AcDbEntity
  8
0
  6
Continuous
 62
     7
370
    25
100
AcDbLine
 10
82.371251347
 20
78.7737171642
 30
0.0
 11
83.2549355526
 21
78.7737171642
 31
0.0
  0
LINE
  5
D6
330
1F
100
AcDbEntity
  8
0
  6
Continuous
 62
     7
370
    25
100
AcDbLine
 10
83.2549355526
 20
78.7737171642
 30
0.0
 11
83.4549355526
 21
78.9737171642
 31
0.0
  0
LINE
  5
D7
330
1F
100
AcDbEntity
  8
0
  6
Continuous
 62
     7
370
    25
100
AcDbLine
 10
83.4549355526
 20
95.0737171642
 30
0.0
 11
83.2549355526
 21
95.2737171642
 31
0.0
  0
SPLINE
  5
D8
330
1F
100
AcDbEntity
  8
0
  6
Continuous
 62
     7
370
    25
100
AcDbSpline
210
0.0
220
0.0
230
1.0
 70
     8
 71
     3
 72
    14
 73
    10
 74
     0
 42
0.000000001
 43
0.00000001
 40
0.0
 40
0.0
 40
0.0
 40
0.0
 40
0.1142560713653441
 40
0.3031822331279811
 40
0.481781668800893
 40
0.6501917629047786
 40
0.8078640369175424
 40
0.9532048829355084
 40
0.9999999999999999
 40
0.9999999999999999
 40
0.9999999999999999
 40
0.9999999999999999
 10
82.37129534933
 20
95.27649698978679
 30
0.0
 10
82.34681199452837
 20
95.27611171486683
 30
0.0
 10
82.28184460947375
 20
95.2750893752291
 30
0.0
 10
82.18005530103915
 20
95.29580023078012
 30
0.0
 10
82.07168540043487
 20
95.33292240137258
 30
0.0
 10
81.97613654617611
 20
95.38316081418486
 30
0.0
 10
81.89563527739257
 20
95.44144804681353
 30
0.0
 10
81.84067304297895
 20
95.4908589835563
 30
0.0
 10
81.81642164981422
 20
95.51979626912188
 30
0.0
 10
81.81051517211002
 20
95.52684400575507
 30
0.0
  0
SPLINE
  5
D9
330
1F
100
AcDbEntity
  8
0
  6
Continuous
 62
     7
370
    25
100
AcDbSpline
210
0.0
220
0.0
230
1.0
 70
     8
 71
     3
 72
    14
 73
    10
 74
     0
 42
0.000000001
 43
0.00000001
 40
0.0
 40
0.0
 40
0.0
 40
0.0
 40
0.0390105743790213
 40
0.2032619114435693
 40
0.3815918537673201
 40
0.5714214593233614
 40
0.7704853797161162
 40
0.9754089613921089
 40
1.0
 40
1.0
 40
1.0
 40
1.0
 10
81.81188664486528
 20
78.52212294518311
 30
0.0
 10
81.81672610390717
 20
78.52797333672599
 30
0.0
 10
81.84194177198856
 20
78.55845639898865
 30
0.0
 10
81.90245829638485
 20
78.6120392168309
 30
0.0
 10
81.99431300747338
 20
78.67585697918118
 30
0.0
 10
82.10357271276632
 20
78.72840613811461
 30
0.0
 10
82.22534541623514
 20
78.76179347727371
 30
0.0
 10
82.31674779758937
 20
78.77654299200184
 30
0.0
 10
82.36552938934629
 20
78.77280473283429
 30
0.0
 10
82.37075602808838
 20
78.77240420202975
 30
0.0
  0
ARC
  5
DA
330
1F
100
AcDbEntity
  8
0
  6
Continuous
 62
     7
370
    25
100
AcDbCircle
 10
65.7550843581
 20
79.7737171642
 30
0.0
 40
0.5000000000000041
100
AcDbArc
 50
90.0
 51
150.0
  0
ARC
  5
DB
330
1F
100
AcDbEntity
  8
0
  6
Continuous
 62
     7
370
    25
100
AcDbCircle
 10
65.7550843581
 20
94.2737171642
 30
0.0
 40
0.5000000000000041
100
AcDbArc
 50
210.0
 51
270.0
  0
LINE
  5
DC
330
1F
100
AcDbEntity
  8
0
  6
Continuous
 62
     7
370
    25
100
AcDbLine
 10
60.4664092235
 20
93.7894046642
 30
0.0
 11
50.5551968773
 21
93.4796792784
 31
0.0
  0
LINE
  5
DD
330
1F
100
AcDbEntity
  8
0
  6
Continuous
 62
     7
370
    25
100
AcDbLine
 10
50.5551968773
 20
80.56775505
 30
0.0
 11
60.4664092235
 21
80.2580296642
 31
0.0
  0
LINE
  5
DE
330
1F
100
AcDbEntity
  8
0
  6
Continuous
 62
     7
370
    25
100
AcDbLine
 10
66.2664092235
 20
93.7737171642
 30
0.0
 11
65.7550843581
 21
93.7737171642
 31
0.0
  0
LINE
  5
DF
330
1F
100
AcDbEntity
  8
0
  6
Continuous
 62
     7
370
    25
100
AcDbLine
 10
65.7550843581
 20
80.2737171642
 30
0.0
 11
66.2664092235
 21
80.2737171642
 31
0.0
  0
LINE
  5
E0
330
1F
100
AcDbEntity
  8
0
  6
Continuous
 62
     7
370
    25
100
AcDbLine
 10
66.2664092235
 20
80.2737171642
 30
0.0
 11
66.4664092235
 21
80.4737171642
 31
0.0
  0
LINE
  5
E1
330
1F
100
AcDbEntity
  8
0
  6
Continuous
 62
     7
370
    25
100
AcDbLine
 10
66.4664092235
 20
93.5737171642
 30
0.0
 11
66.2664092235
 21
93.7737171642
 31
0.0
  0
LINE
  5
E2
330
1F
100
AcDbEntity
  8
0
  6
Continuous
 62
     7
370
    25
100
AcDbLine
 10
69.4664092235
 20
93.6022171642
 30
0.0
 11
68.4664092235
 21
92.6022171642
 31
0.0
  0
LINE
  5
E3
330
1F
100
AcDbEntity
  8
0
  6
Continuous
 62
     7
370
    25
100
AcDbLine
 10
68.4664092235
 20
81.4452171642
 30
0.0
 11
69.4664092235
 21
80.4452171642
 31
0.0
  0
LINE
  5
E4
330
1F
100
AcDbEntity
  8
0
  6
Continuous
 62
     7
370
    25
100
AcDbLine
 10
69.4664092235
 20
80.4452171642
 30
0.0
 11
70.4549355526
 21
80.4452171642
 31
0.0
  0
LINE
  5
E5
330
1F
100
AcDbEntity
  8
0
  6
Continuous
 62
     7
370
    25
100
AcDbLine
 10
70.4549355526
 20
93.6022171642
 30
0.0
 11
69.4664092235
 21
93.6022171642
 31
0.0
  0
LINE
  5
E6
330
1F
100
AcDbEntity
  8
0
  6
Continuous
 62
     7
370
    25
100
AcDbLine
 10
50.5551968773
 20
93.4796792784
 30
0.0
 11
48.4664092235
 21
92.2737171642
 31
0.0
  0
LINE
  5
E7
330
1F
100
AcDbEntity
  8
0
  6
Continuous
 62
     7
370
    25
100
AcDbLine
 10
48.4664092235
 20
81.7737171642
 30
0.0
 11
50.5551968773
 21
80.56775505
 31
0.0
  0
LINE
  5
E8
330
1F
100
AcDbEntity
  8
0
  6
Continuous
 62
     7
370
    25
100
AcDbLine
 10
66.4664092235
 20
81.5237171642
 30
0.0
 11
68.4664092235
 21
81.5237171642
 31
0.0
  0
LINE
  5
E9
330
1F
100
AcDbEntity
  8
0
  6
Continuous
 62
     7
370
    25
100
AcDbLine
 10
68.4664092235
 20
92.5237171642
 30
0.0
 11
66.4664092235
 21
92.5237171642
 31
0.0
  0
SPLINE
  5
EA
330
1F
100
AcDbEntity
  8
0
  6
Continuous
 62
     7
370
    25
100
AcDbSpline
210
0.0
220
0.0
230
1.0
 70
    24
 71
     3
 72
    12
 73
     8
 74
     0
 42
0.000000001
 43
0.00000001
 40
0.0
 40
0.0
 40
0.0
 40
0.0
 40
0.2421073201568707
 40
0.4302500878851865
 40
0.6190104766535429
 40
0.8093126071889297
 40
1.0
 40
1.0
 40
1.0
 40
1.0
 10
70.60260376508694
 20
78.52371716417913
 30
0.0
 10
70.61059023961884
 20
78.52371716417913
 30
0.0
 10
70.6247830420794
 20
78.52371716417913
 30
0.0
 10
70.7441803065725
 20
78.52371716417913
 30
0.0
 10
70.90120064563027
 20
78.52371716417913
 30
0.0
 10
71.10497164542316
 20
78.52371716417913
 30
0.0
 10
71.2739086035687
 20
78.52371716417913
 30
0.0
 10
71.35846249842452
 20
78.52371716417913
 30
0.0
  0
SPLINE
  5
EB
330
1F
100
AcDbEntity
  8
0
  6
Continuous
 62
     7
370
    25
100
AcDbSpline
210
0.0
220
0.0
230
1.0
 70
    24
 71
     3
 72
    12
 73
     8
 74
     0
 42
0.000000001
 43
0.00000001
 40
0.0
 40
0.0
 40
0.0
 40
0.0
 40
0.1884168136187937
 40
0.3771695029907186
 40
0.5672327457746703
 40
0.7578897749361241
 40
1.0
 40
1.0
 40
1.0
 40
1.0
 10
71.35846249842452
 20
95.52371716417909
 30
0.0
 10
71.27487630099449
 20
95.52371716417909
 30
0.0
 10
71.10755490363053
 20
95.5237171641791
 30
0.0
 10
70.90400959007343
 20
95.5237171641791
 30
0.0
 10
70.74541528519038
 20
95.52371716417912
 30
0.0
 10
70.6252384073393
 20
95.52371716417912
 30
0.0
 10
70.60964541148333
 20
95.52371716417912
 30
0.0
 10
70.60092196094669
 20
95.52371716417913
 30
0.0
  0
SPLINE
  5
EC
330
1F
100
AcDbEntity
  8
0
  6
Continuous
 62
     7
370
    25
100
AcDbSpline
210
0.0
220
0.0
230
1.0
 70
     8
 71
     3
 72
    16
 73
    12
 74
     0
 42
0.000000001
 43
0.00000001
 40
0.0
 40
0.0
 40
0.0
 40
0.0
 40
0.1322988555735026
 40
0.2645603055581353
 40
0.3546976504550872
 40
0.4449040512480977
 40
0.5350245245138253
 40
0.6502098333825367
 40
0.7654131100753919
 40
0.8826952156317986
 40
0.9999999999999999
 40
0.9999999999999999
 40
0.9999999999999999
 40
0.9999999999999999
 10
71.35846249842452
 20
87.02371716417903
 30
0.0
 10
71.24287789956328
 20
87.39094255218342
 30
0.0
 10
71.01174138171521
 20
88.12528950052247
 30
0.0
 10
70.79131623013204
 20
89.12873232795839
 30
0.0
 10
70.66151269921754
 20
90.02116341943275
 30
0.0
 10
70.60102340462304
 20
90.7977984665546
 30
0.0
 10
70.59342616427055
 20
91.64823689594004
 30
0.0
 10
70.66083278321169
 20
92.56924045557003
 30
0.0
 10
70.8182257331842
 20
93.56058052098928
 30
0.0
 10
71.04913251730409
 20
94.54746581266434
 30
0.0
 10
71.25534585945637
 20
95.19827907443529
 30
0.0
 10
71.35846249842452
 20
95.52371716417909
 30
0.0
  0
SPLINE
  5
ED
330
1F
100
AcDbEntity
  8
0
  6
Continuous
 62
     7
370
    25
100
AcDbSpline
210
0.0
220
0.0
230
1.0
 70
     8
 71
     3
 72
    16
 73
    12
 74
     0
 42
0.000000001
 43
0.00000001
 40
0.0
 40
0.0
 40
0.0
 40
0.0
 40
0.1322988555735043
 40
0.2645603055581387
 40
0.3546976504550919
 40
0.4449040512481036
 40
0.5350245245138324
 40
0.6502098333825423
 40
0.7654131100753957
 40
0.8826952156318008
 40
1.0
 40
1.0
 40
1.0
 40
1.0
 10
71.35846249842452
 20
78.52371716417913
 30
0.0
 10
71.24287789956328
 20
78.89094255218353
 30
0.0
 10
71.01174138171523
 20
79.62528950052256
 30
0.0
 10
70.79131623013204
 20
80.62873232795847
 30
0.0
 10
70.66151269921757
 20
81.52116341943282
 30
0.0
 10
70.60102340462305
 20
82.29779846655468
 30
0.0
 10
70.59342616427057
 20
83.1482368959401
 30
0.0
 10
70.66083278321172
 20
84.06924045557004
 30
0.0
 10
70.81822573318422
 20
85.06058052098928
 30
0.0
 10
71.0491325173041
 20
86.0474658126643
 30
0.0
 10
71.25534585945637
 20
86.69827907443522
 30
0.0
 10
71.35846249842452
 20
87.02371716417903
 30
0.0
  0
LINE
  5
EE
330
1F
100
AcDbEntity
  8
0
  6
Continuous
 62
     7
370
    25
100
AcDbLine
 10
70.4549355526
 20
78.7737171642
 30
0.0
 11
70.4549355526
 21
95.2737171642
 31
0.0
  0
SPLINE
  5
EF
330
1F
100
AcDbEntity
  8
0
  6
Continuous
 62
     7
370
    25
100
AcDbSpline
210
0.0
220
0.0
230
1.0
 70
     8
 71
     3
 72
    10
 73
     6
 74
     0
 42
0.000000001
 43
0.00000001
 40
0.0
 40
0.0
 40
0.0
 40
0.0
 40
0.308980890002988
 40
0.6190948628358302
 40
1.0
 40
1.0
 40
1.0
 40
1.0
 10
81.73842920162616
 20
92.54078809747364
 30
0.0
 10
81.76257620816287
 20
92.28020458275729
 30
0.0
 10
81.81095877220945
 20
91.75808195148701
 30
0.0
 10
81.8184138649261
 20
90.91108964076645
 30
0.0
 10
81.76685151712651
 20
90.32803754376009
 30
0.0
 10
81.73842920162616
 20
90.00664623088448
 30
0.0
  0
SPLINE
  5
F0
330
1F
100
AcDbEntity
  8
0
  6
Continuous
 62
     7
370
    25
100
AcDbSpline
210
0.0
220
0.0
230
1.0
 70
     8
 71
     3
 72
    11
 73
     7
 74
     0
 42
0.000000001
 43
0.00000001
 40
0.0
 40
0.0
 40
0.0
 40
0.0
 40
0.2485331657816015
 40
0.4977458539813224
 40
0.7486584446317364
 40
1.0
 40
1.0
 40
1.0
 40
1.0
 10
81.73842920162616
 20
90.00664623088448
 30
0.0
 10
81.70535183173746
 20
89.75589176103254
 30
0.0
 10
81.63910665407305
 20
89.2536972255726
 30
0.0
 10
81.48102857707399
 20
88.50559648353148
 30
0.0
 10
81.28813088818197
 20
87.76093637236228
 30
0.0
 10
81.13036094987095
 20
87.26959678118205
 30
0.0
 10
81.05140860672002
 20
87.02371716417903
 30
0.0
  0
LINE
  5
F1
330
1F
100
AcDbEntity
  8
0
  6
Continuous
 62
     7
370
    25
100
AcDbLine
 10
71.3584624984
 20
87.0237171642
 30
0.0
 11
81.0514086067
 21
87.0237171642
 31
0.0
  0
LINE
  5
F2
330
1F
100
AcDbEntity
  8
0
  6
Continuous
 62
     7
370
    25
100
AcDbLine
 10
71.3584624984
 20
95.5237171642
 30
0.0
 11
81.0514086067
 21
95.5237171642
 31
0.0
  0
SPLINE
  5
F3
330
1F
100
AcDbEntity
  8
0
  6
Continuous
 62
     7
370
    25
100
AcDbSpline
210
0.0
220
0.0
230
1.0
 70
     8
 71
     3
 72
    11
 73
     7
 74
     0
 42
0.000000001
 43
0.00000001
 40
0.0
 40
0.0
 40
0.0
 40
0.0
 40
0.2488261663104052
 40
0.4980307642143798
 40
0.7486902142220283
 40
1.0
 40
1.0
 40
1.0
 40
1.0
 10
81.05140860672002
 20
95.52371716417909
 30
0.0
 10
81.12959775306003
 20
95.2803055232443
 30
0.0
 10
81.28609496106031
 20
94.79311204455598
 30
0.0
 10
81.47878159066308
 20
94.05130855462698
 30
0.0
 10
81.63802114489124
 20
93.30078804640226
 30
0.0
 10
81.70493095395683
 20
92.79434012652135
 30
0.0
 10
81.73842920162616
 20
92.54078809747364
 30
0.0
  0
LINE
  5
F4
330
1F
100
AcDbEntity
  8
0
  6
Continuous
 62
     7
370
    25
100
AcDbLine
 10
81.7384292016
 20
84.0407880975
 30
0.0
 11
81.7384292016
 21
90.0066462309
 31
0.0
  0
SPLINE
  5
F5
330
1F
100
AcDbEntity
  8
0
  6
Continuous
 62
     7
370
    25
100
AcDbSpline
210
0.0
220
0.0
230
1.0
 70
     8
 71
     3
 72
    11
 73
     7
 74
     0
 42
0.000000001
 43
0.00000001
 40
0.0
 40
0.0
 40
0.0
 40
0.0
 40
0.2488261663104047
 40
0.4980307642143796
 40
0.7486902142220278
 40
1.0
 40
1.0
 40
1.0
 40
1.0
 10
81.05140860672002
 20
87.02371716417903
 30
0.0
 10
81.12959775306003
 20
86.78030552324421
 30
0.0
 10
81.28609496106031
 20
86.2931120445559
 30
0.0
 10
81.47878159066308
 20
85.55130855462687
 30
0.0
 10
81.63802114489124
 20
84.80078804640213
 30
0.0
 10
81.70493095395683
 20
84.2943401265212
 30
0.0
 10
81.73842920162616
 20
84.04078809747348
 30
0.0
  0
SPLINE
  5
F6
330
1F
100
AcDbEntity
  8
0
  6
Continuous
 62
     7
370
    25
100
AcDbSpline
210
0.0
220
0.0
230
1.0
 70
     8
 71
     3
 72
    10
 73
     6
 74
     0
 42
0.000000001
 43
0.00000001
 40
0.0
 40
0.0
 40
0.0
 40
0.0
 40
0.3089808900030066
 40
0.6190948628358673
 40
1.0
 40
1.0
 40
1.0
 40
1.0
 10
81.73842920162616
 20
84.04078809747348
 30
0.0
 10
81.76257620816286
 20
83.78020458275716
 30
0.0
 10
81.81095877220942
 20
83.25808195148691
 30
0.0
 10
81.81841386492607
 20
82.41108964076648
 30
0.0
 10
81.7668515171265
 20
81.82803754376019
 30
0.0
 10
81.73842920162616
 20
81.50664623088467
 30
0.0
  0
SPLINE
  5
F7
330
1F
100
AcDbEntity
  8
0
  6
Continuous
 62
     7
370
    25
100
AcDbSpline
210
0.0
220
0.0
230
1.0
 70
     8
 71
     3
 72
    11
 73
     7
 74
     0
 42
0.000000001
 43
0.00000001
 40
0.0
 40
0.0
 40
0.0
 40
0.0
 40
0.2485331657816017
 40
0.4977458539813222
 40
0.7486584446317363
 40
1.0
 40
1.0
 40
1.0
 40
1.0
 10
81.73842920162616
 20
81.50664623088467
 30
0.0
 10
81.70535183173746
 20
81.25589176103273
 30
0.0
 10
81.63910665407305
 20
80.75369722557275
 30
0.0
 10
81.48102857707401
 20
80.00559648353162
 30
0.0
 10
81.28813088818198
 20
79.26093637236241
 30
0.0
 10
81.13036094987095
 20
78.76959678118216
 30
0.0
 10
81.05140860672002
 20
78.52371716417913
 30
0.0
  0
LINE
  5
F8
330
1F
100
AcDbEntity
  8
0
  6
Continuous
 62
     7
370
    25
100
AcDbLine
 10
71.3584624984
 20
78.5237171642
 30
0.0
 11
81.0514086067
 21
78.5237171642
 31
0.0
  0
ARC
  5
F9
330
1F
100
AcDbEntity
  8
0
  6
Continuous
 62
     7
370
    25
100
AcDbCircle
 10
82.3256523901
 20
91.2562557532
 30
0.0
 40
1.380708162956275
100
AcDbArc
 50
244.8299789717
 51
272.5859934179
  0
LINE
  5
FA
330
1F
100
AcDbEntity
  8
0
  6
Continuous
 62
     7
370
    25
100
AcDbLine
 10
82.3879482545
 20
89.8769536628
 30
0.0
 11
82.3879482545
 21
84.1704806656
 31
0.0
  0
ARC
  5
FB
330
1F
100
AcDbEntity
  8
0
  6
Continuous
 62
     7
370
    25
100
AcDbCircle
 10
82.3256523901
 20
82.7911785752
 30
0.0
 40
1.38070816295649
100
AcDbArc
 50
87.4140065821
 51
115.1700210283
  0
LINE
  5
FC
330
1F
100
AcDbEntity
  8
0
  6
Continuous
 62
     7
370
    25
100
AcDbLine
 10
82.3879482545
 20
81.7465188802
 30
0.0
 11
82.3879482545
 21
78.8932823816
 31
0.0
  0
SPLINE
  5
FD
330
1F
100
AcDbEntity
  8
0
  6
Continuous
 62
     7
370
    25
100
AcDbSpline
210
0.0
220
0.0
230
1.0
 70
     8
 71
     3
 72
    11
 73
     7
 74
     0
 42
0.000000001
 43
0.00000001
 40
0.0
 40
0.0
 40
0.0
 40
0.0
 40
0.2858113857233211
 40
0.5527245545214226
 40
0.8220275582231139
 40
1.0
 40
1.0
 40
1.0
 40
1.0
 10
82.38794825446448
 20
84.17048066559111
 30
0.0
 10
82.38400795304196
 20
83.92161113888044
 30
0.0
 10
82.37638788800176
 20
83.44032765908837
 30
0.0
 10
82.36492679835084
 20
82.76375303135927
 30
0.0
 10
82.38236418759246
 20
82.20372444534297
 30
0.0
 10
82.3863587888517
 20
81.8766592492639
 30
0.0
 10
82.38794825446448
 20
81.74651888015833
 30
0.0
  0
SPLINE
  5
FE
330
1F
100
AcDbEntity
  8
0
  6
Continuous
 62
     7
370
    25
100
AcDbSpline
210
0.0
220
0.0
230
1.0
 70
     8
 71
     3
 72
    11
 73
     7
 74
     0
 42
0.000000001
 43
0.00000001
 40
0.0
 40
0.0
 40
0.0
 40
0.0
 40
0.2858113857233879
 40
0.5527245545213876
 40
0.8220275582229748
 40
1.0
 40
1.0
 40
1.0
 40
1.0
 10
82.38794825446448
 20
92.30091544819996
 30
0.0
 10
82.38400795304196
 20
92.09016385267202
 30
0.0
 10
82.37638788800176
 20
91.682595828543
 30
0.0
 10
82.36492679835082
 20
91.02237496701385
 30
0.0
 10
82.38236418759247
 20
90.42329120290734
 30
0.0
 10
82.3863587888517
 20
90.03246482567543
 30
0.0
 10
82.38794825446448
 20
89.87695366276687
 30
0.0
  0
LINE
  5
FF
330
1F
100
AcDbEntity
  8
0
  6
Continuous
 62
     7
370
    25
100
AcDbLine
 10
82.3879482545
 20
95.1541519468
 30
0.0
 11
82.3879482545
 21
92.3009154482
 31
0.0
  0
LINE
  5
100
330
1F
100
AcDbEntity
  8
0
  6
Continuous
 62
     7
370
    25
100
AcDbLine
 10
83.2549355526
 20
78.7737171642
 30
0.0
 11
83.2549355526
 21
95.2737171642
 31
0.0
  0
LINE
  5
101
330
1F
100
AcDbEntity
  8
0
  6
Continuous
 62
     7
370
    25
100
AcDbLine
 10
83.4549355526
 20
95.0737171642
 30
0.0
 11
83.4549355526
 21
78.9737171642
 31
0.0
  0
ARC
  5
102
330
1F
100
AcDbEntity
  8
0
  6
Continuous
 62
     7
370
    25
100
AcDbCircle
 10
82.346141155
 20
93.1870207917
 30
0.0
 40
0.8870910400316052
100
AcDbArc
 50
226.7595529446
 51
272.7012537052
  0
ARC
  5
103
330
1F
100
AcDbEntity
  8
0
  6
Continuous
 62
     7
370
    25
100
AcDbCircle
 10
82.346141155
 20
80.8604135367
 30
0.0
 40
0.8870910400313662
100
AcDbArc
 50
87.2987462947
 51
133.2404470554
  0
SPLINE
  5
104
330
1F
100
AcDbEntity
  8
0
  6
Continuous
 62
     7
370
    25
100
AcDbSpline
210
0.0
220
0.0
230
1.0
 70
    24
 71
     3
 72
    11
 73
     7
 74
     0
 42
0.000000001
 43
0.00000001
 40
0.0
 40
0.0
 40
0.0
 40
0.0
 40
0.2485331657816019
 40
0.4977458539813225
 40
0.7486584446317366
 40
0.9999999999999999
 40
0.9999999999999999
 40
0.9999999999999999
 40
0.9999999999999999
 10
81.73842920162616
 20
95.52371716417912
 30
0.0
 10
81.70535183173746
 20
95.52371716417912
 30
0.0
 10
81.63910665407305
 20
95.52371716417912
 30
0.0
 10
81.481028577074
 20
95.5237171641791
 30
0.0
 10
81.28813088818197
 20
95.52371716417909
 30
0.0
 10
81.13036094987095
 20
95.52371716417909
 30
0.0
 10
81.05140860672002
 20
95.52371716417909
 30
0.0
  0
LINE
  5
105
330
1F
100
AcDbEntity
  8
0
  6
Continuous
 62
     7
370
    25
100
AcDbLine
 10
81.7384292016
 20
92.5407880975
 30
0.0
 11
81.7384292016
 21
95.5237171642
 31
0.0
  0
ARC
  5
106
330
1F
100
AcDbEntity
  8
0
  6
Continuous
 62
     7
370
    25
100
AcDbCircle
 10
82.3859121197
 20
95.9061280624
 30
0.0
 40
0.7519788721912658
100
AcDbArc
 50
210.566590009
 51
270.1551400925
  0
LINE
  5
107
330
1F
100
AcDbEntity
  8
0
  6
Continuous
 62
     7
370
    25
100
AcDbLine
 10
81.7384292016
 20
78.5237171642
 30
0.0
 11
81.7384292016
 21
81.5066462309
 31
0.0
  0
ARC
  5
108
330
1F
100
AcDbEntity
  8
0
  6
Continuous
 62
     7
370
    25
100
AcDbCircle
 10
82.3859121197
 20
78.141306266
 30
0.0
 40
0.7519788721912192
100
AcDbArc
 50
89.8448599075
 51
149.433409991
  0
SPLINE
  5
109
330
1F
100
AcDbEntity
  8
0
  6
Continuous
 62
     7
370
    25
100
AcDbSpline
210
0.0
220
0.0
230
1.0
 70
    24
 71
     3
 72
    11
 73
     7
 74
     0
 42
0.000000001
 43
0.00000001
 40
0.0
 40
0.0
 40
0.0
 40
0.0
 40
0.248826166310405
 40
0.49803076421438
 40
0.7486902142220284
 40
1.0
 40
1.0
 40
1.0
 40
1.0
 10
81.05140860672002
 20
78.52371716417913
 30
0.0
 10
81.12959775306003
 20
78.52371716417913
 30
0.0
 10
81.28609496106031
 20
78.52371716417913
 30
0.0
 10
81.47878159066308
 20
78.52371716417913
 30
0.0
 10
81.63802114489124
 20
78.52371716417912
 30
0.0
 10
81.70493095395683
 20
78.52371716417913
 30
0.0
 10
81.73842920162616
 20
78.52371716417913
 30
0.0
  0
SPLINE
  5
10A
330
1F
100
AcDbEntity
  8
0
  6
Continuous
 62
     7
370
    25
100
AcDbSpline
210
0.0
220
0.0
230
1.0
 70
    24
 71
     3
 72
    10
 73
     6
 74
     0
 42
0.000000001
 43
0.00000001
 40
0.0
 40
0.0
 40
0.0
 40
0.0
 40
0.3337880412495625
 40
0.8305836926339328
 40
1.0
 40
1.0
 40
1.0
 40
1.0
 10
81.80684021216624
 20
95.52371716417913
 30
0.0
 10
81.80578325689838
 20
95.52371716417912
 30
0.0
 10
81.8031531752273
 20
95.52371716417912
 30
0.0
 10
81.77355735956723
 20
95.52371716417912
 30
0.0
 10
81.74555112777954
 20
95.52371716417912
 30
0.0
 10
81.73842920162616
 20
95.52371716417912
 30
0.0
  0
SPLINE
  5
10B
330
1F
100
AcDbEntity
  8
0
  6
Continuous
 62
     7
370
    25
100
AcDbSpline
210
0.0
220
0.0
230
1.0
 70
    24
 71
     3
 72
    10
 73
     6
 74
     0
 42
0.000000001
 43
0.00000001
 40
0.0
 40
0.0
 40
0.0
 40
0.0
 40
0.1478409698133993
 40
0.576942618824645
 40
1.0
 40
1.0
 40
1.0
 40
1.0
 10
81.73842920162616
 20
78.52371716417912
 30
0.0
 10
81.74557093135525
 20
78.52371716417912
 30
0.0
 10
81.7734412047851
 20
78.52371716417913
 30
0.0
 10
81.80603040854209
 20
78.52371716417913
 30
0.0
 10
81.8086966296016
 20
78.52371716417913
 30
0.0
 10
81.81002028452879
 20
78.52371716417913
 30
0.0
  0
LINE
  5
10C
330
1F
100
AcDbEntity
  8
0
  6
Continuous
 62
     7
370
    25
100
AcDbLine
 10
60.4664092235
 20
94.0237171642
 30
0.0
 11
60.4664092235
 21
87.0237171642
 31
0.0
  0
LINE
  5
10D
330
1F
100
AcDbEntity
  8
0
  6
Continuous
 62
     7
370
    25
100
AcDbLine
 10
64.6968568739
 20
94.0237171642
 30
0.0
 11
60.4664092235
 21
94.0237171642
 31
0.0
  0
SPLINE
  5
10E
330
1F
100
AcDbEntity
  8
0
  6
Continuous
 62
     7
370
    25
100
AcDbSpline
210
0.0
220
0.0
230
1.0
 70
     8
 71
     3
 72
    12
 73
     8
 74
     0
 42
0.000000001
 43
0.00000001
 40
0.0
 40
0.0
 40
0.0
 40
0.0
 40
0.25
 40
0.25
 40
0.5
 40
0.5
 40
1.0
 40
1.0
 40
1.0
 40
1.0
 10
65.32207165624972
 20
90.52371716417913
 30
0.0
 10
65.32207165624972
 20
90.82075096834957
 30
0.0
 10
65.30729389778922
 20
91.11911681855364
 30
0.0
 10
65.25010569679397
 20
91.70934674128345
 30
0.0
 10
65.20775022707114
 20
92.00248762091199
 30
0.0
 10
65.04438965219853
 20
92.87670382659466
 30
0.0
 10
64.88723160270806
 20
93.45259297778706
 30
0.0
 10
64.69685687391069
 20
94.02371716417916
 30
0.0
  0
SPLINE
  5
10F
330
1F
100
AcDbEntity
  8
0
  6
Continuous
 62
     7
370
    25
100
AcDbSpline
210
0.0
220
0.0
230
1.0
 70
     8
 71
     3
 72
    10
 73
     6
 74
     0
 42
0.000000001
 43
0.00000001
 40
0.0
 40
0.0
 40
0.0
 40
0.0
 40
0.5
 40
0.5
 40
1.0
 40
1.0
 40
1.0
 40
1.0
 10
64.69685687391093
 20
87.02371716417908
 30
0.0
 10
64.88770808756722
 20
87.59627080514795
 30
0.0
 10
65.04494120872386
 20
88.17300676490743
 30
0.0
 10
65.26248524585212
 20
89.33853646432492
 30
0.0
 10
65.32207165624972
 20
89.92742033739182
 30
0.0
 10
65.32207165624972
 20
90.52371716417913
 30
0.0
  0
LINE
  5
110
330
1F
100
AcDbEntity
  8
0
  6
Continuous
 62
     7
370
    25
100
AcDbLine
 10
64.6968568739
 20
87.0237171642
 30
0.0
 11
60.4664092235
 21
87.0237171642
 31
0.0
  0
LINE
  5
111
330
1F
100
AcDbEntity
  8
0
  6
Continuous
 62
     7
370
    25
100
AcDbLine
 10
65.3220716562
 20
83.5237171642
 30
0.0
 11
65.3220716562
 21
90.5237171642
 31
0.0
  0
SPLINE
  5
112
330
1F
100
AcDbEntity
  8
0
  6
Continuous
 62
     7
370
    25
100
AcDbSpline
210
0.0
220
0.0
230
1.0
 70
     8
 71
     3
 72
    12
 73
     8
 74
     0
 42
0.000000001
 43
0.00000001
 40
0.0
 40
0.0
 40
0.0
 40
0.0
 40
0.2499999999999999
 40
0.2499999999999999
 40
0.4999999999999999
 40
0.4999999999999999
 40
1.0
 40
1.0
 40
1.0
 40
1.0
 10
65.32207165624972
 20
83.52371716417913
 30
0.0
 10
65.32207165624972
 20
83.82075096834959
 30
0.0
 10
65.30729389778922
 20
84.11911681855365
 30
0.0
 10
65.25010569679397
 20
84.70934674128345
 30
0.0
 10
65.20775022707114
 20
85.002487620912
 30
0.0
 10
65.04438965219853
 20
85.87670382659465
 30
0.0
 10
64.88723160270806
 20
86.45259297778706
 30
0.0
 10
64.69685687391069
 20
87.02371716417917
 30
0.0
  0
SPLINE
  5
113
330
1F
100
AcDbEntity
  8
0
  6
Continuous
 62
     7
370
    25
100
AcDbSpline
210
0.0
220
0.0
230
1.0
 70
     8
 71
     3
 72
    10
 73
     6
 74
     0
 42
0.000000001
 43
0.00000001
 40
0.0
 40
0.0
 40
0.0
 40
0.0
 40
0.5
 40
0.5
 40
1.0
 40
1.0
 40
1.0
 40
1.0
 10
64.69685687391093
 20
80.02371716417906
 30
0.0
 10
64.88770808756722
 20
80.59627080514795
 30
0.0
 10
65.04494120872386
 20
81.17300676490743
 30
0.0
 10
65.26248524585212
 20
82.33853646432493
 30
0.0
 10
65.32207165624972
 20
82.92742033739181
 30
0.0
 10
65.32207165624972
 20
83.52371716417913
 30
0.0
  0
LINE
  5
114
330
1F
100
AcDbEntity
  8
0
  6
Continuous
 62
     7
370
    25
100
AcDbLine
 10
64.6968568739
 20
80.0237171642
 30
0.0
 11
60.4664092235
 21
80.0237171642
 31
0.0
  0
LINE
  5
115
330
1F
100
AcDbEntity
  8
0
  6
Continuous
 62
     7
370
    25
100
AcDbLine
 10
60.4664092235
 20
87.0237171642
 30
0.0
 11
60.4664092235
 21
80.0237171642
 31
0.0
  0
LINE
  5
116
330
1F
100
AcDbEntity
  8
0
  6
Continuous
 62
     7
370
    25
100
AcDbLine
 10
65.3220716562
 20
80.0237171642
 30
0.0
 11
65.3220716562
 21
83.5237171642
 31
0.0
  0
LINE
  5
117
330
1F
100
AcDbEntity
  8
0
  6
Continuous
 62
     7
370
    25
100
AcDbLine
 10
65.3220716562
 20
90.5237171642
 30
0.0
 11
65.3220716562
 21
94.0237171642
 31
0.0
  0
LINE
  5
118
330
1F
100
AcDbEntity
  8
0
  6
Continuous
 62
     7
370
    25
100
AcDbLine
 10
50.5551968773
 20
80.56775505
 30
0.0
 11
50.5551968773
 21
93.4796792784
 31
0.0
  0
LINE
  5
119
330
1F
100
AcDbEntity
  8
0
  6
Continuous
 62
     7
370
    25
100
AcDbLine
 10
66.2664092235
 20
80.2737171642
 30
0.0
 11
66.2664092235
 21
93.7737171642
 31
0.0
  0
LINE
  5
11A
330
1F
100
AcDbEntity
  8
0
  6
Continuous
 62
     7
370
    25
100
AcDbLine
 10
66.4664092235
 20
93.5737171642
 30
0.0
 11
66.4664092235
 21
80.4737171642
 31
0.0
  0
LINE
  5
11B
330
1F
100
AcDbEntity
  8
0
  6
Continuous
 62
     7
370
    25
100
AcDbLine
 10
68.4664092235
 20
81.4452171642
 30
0.0
 11
68.4664092235
 21
92.6022171642
 31
0.0
  0
LINE
  5
11C
330
1F
100
AcDbEntity
  8
0
  6
Continuous
 62
     7
370
    25
100
AcDbLine
 10
69.4664092235
 20
93.6022171642
 30
0.0
 11
69.4664092235
 21
80.4452171642
 31
0.0
  0
LINE
  5
11D
330
1F
100
AcDbEntity
  8
0
  6
Continuous
 62
     7
370
    25
100
AcDbLine
 10
48.4664092235
 20
81.7737171642
 30
0.0
 11
48.4664092235
 21
92.2737171642
 31
0.0
  0
SPLINE
  5
11E
330
1F
100
AcDbEntity
  8
0
  6
Continuous
 62
     7
370
    25
100
AcDbSpline
210
0.0
220
0.0
230
1.0
 70
    24
 71
     3
 72
    10
 73
     6
 74
     0
 42
0.000000001
 43
0.00000001
 40
0.0
 40
0.0
 40
0.0
 40
0.0
 40
0.5
 40
0.5
 40
1.0
 40
1.0
 40
1.0
 40
1.0
 10
65.32207165624972
 20
94.02371716417913
 30
0.0
 10
65.32207165624972
 20
94.02371716417913
 30
0.0
 10
65.26163551264383
 20
94.02371716417913
 30
0.0
 10
65.04258849183822
 20
94.02371716417913
 30
0.0
 10
64.88553268028461
 20
94.02371716417913
 30
0.0
 10
64.69685687391043
 20
94.02371716417913
 30
0.0
  0
SPLINE
  5
11F
330
1F
100
AcDbEntity
  8
0
  6
Continuous
 62
     7
370
    25
100
AcDbSpline
210
0.0
220
0.0
230
1.0
 70
    24
 71
     3
 72
    10
 73
     6
 74
     0
 42
0.000000001
 43
0.00000001
 40
0.0
 40
0.0
 40
0.0
 40
0.0
 40
0.5
 40
0.5
 40
1.0
 40
1.0
 40
1.0
 40
1.0
 10
65.32207165624972
 20
80.02371716417913
 30
0.0
 10
65.32207165624972
 20
80.02371716417913
 30
0.0
 10
65.26163551264358
 20
80.02371716417912
 30
0.0
 10
65.04258849183816
 20
80.02371716417913
 30
0.0
 10
64.88553268028467
 20
80.02371716417913
 30
0.0
 10
64.69685687391043
 20
80.02371716417913
 30
0.0
  0
SPLINE
  5
120
330
1F
100
AcDbEntity
  8
0
  6
Continuous
 62
     1
370
    25
100
AcDbSpline
210
0.0
220
0.0
230
1.0
 70
     8
 71
     3
 72
     9
 73
     5
 74
     0
 42
0.000000001
 43
0.00000001
 40
0.0
 40
0.0
 40
0.0
 40
0.0
 40
0.5716350575939367
 40
1.0
 40
1.0
 40
1.0
 40
1.0
 10
82.38794825446448
 20
78.89328238157044
 30
0.0
 10
82.38348884637911
 20
78.85356397582801
 30
0.0
 10
82.37568770117967
 20
78.78408187319137
 30
0.0
 10
82.37258180434625
 20
78.7806156960149
 30
0.0
 10
82.3712513470281
 20
78.77913090722834
 30
0.0
  0
SPLINE
  5
121
330
1F
100
AcDbEntity
  8
0
  6
Continuous
 62
     1
370
    25
100
AcDbSpline
210
0.0
220
0.0
230
1.0
 70
     8
 71
     3
 72
    10
 73
     6
 74
     0
 42
0.000000001
 43
0.00000001
 40
0.0
 40
0.0
 40
0.0
 40
0.0
 40
0.1054683351678374
 40
0.6440627664276316
 40
1.0
 40
1.0
 40
1.0
 40
1.0
 10
82.37125134702724
 20
95.26830342113301
 30
0.0
 10
82.37073640475101
 20
95.26998048017025
 30
0.0
 10
82.3675918102483
 20
95.28022176520864
 30
0.0
 10
82.38297045089665
 20
95.24101543402499
 30
0.0
 10
82.38653135746411
 20
95.17887703142213
 30
0.0
 10
82.38794825446448
 20
95.15415194678782
 30
0.0
  0
LINE
  5
122
330
1F
100
AcDbEntity
  8
0
  6
Continuous
 62
     1
370
    25
100
AcDbLine
 10
65.7550843581
 20
93.7737171642
 30
0.0
 11
65.7550843581
 21
80.2737171642
 31
0.0
  0
CIRCLE
  5
123
330
1F
100
AcDbEntity
  8
0
  6
Continuous
 62
     7
370
    25
100
AcDbCircle
 10
109.0182216418
 20
49.718130597
 30
0.0
 40
8.049999999999997
  0
CIRCLE
  5
124
330
1F
100
AcDbEntity
  8
0
  6
Continuous
 62
     7
370
    25
100
AcDbCircle
 10
109.0182216418
 20
49.718130597
 30
0.0
 40
8.249999999999986
  0
CIRCLE
  5
125
330
1F
100
AcDbEntity
  8
0
  6
Continuous
 62
     7
370
    25
100
AcDbCircle
 10
109.0182216418
 20
49.718130597
 30
0.0
 40
3.074999999999989
  0
CIRCLE
  5
126
330
1F
100
AcDbEntity
  8
0
  6
Continuous
 62
     7
370
    25
100
AcDbCircle
 10
109.0182216418
 20
49.718130597
 30
0.0
 40
3.174999999999997
  0
SPLINE
  5
127
330
1F
100
AcDbEntity
  8
0
  6
Continuous
 62
     7
370
    25
100
AcDbSpline
210
0.0
220
0.0
230
1.0
 70
    24
 71
     3
 72
    10
 73
     6
 74
     0
 42
0.000000001
 43
0.00000001
 40
0.0
 40
0.0
 40
0.0
 40
0.0
 40
0.3089808900030067
 40
0.6190948628358676
 40
1.0
 40
1.0
 40
1.0
 40
1.0
 10
106.0352925750854
 20
57.81089027360256
 30
0.0
 10
105.774709060369
 20
57.66044231123471
 30
0.0
 10
105.2525864290988
 20
57.35899466952083
 30
0.0
 10
104.4055941183784
 20
56.86998343092484
 30
0.0
 10
103.8225420213721
 20
56.53335814576669
 30
0.0
 10
103.5011507084966
 20
56.3478027847628
 30
0.0
  0
LINE
  5
128
330
1F
100
AcDbEntity
  8
0
  6
Continuous
 62
     7
370
    25
100
AcDbLine
 10
106.0352925751
 20
57.8108902736
 30
0.0
 11
106.1649851432
 21
57.4590311572
 31
0.0
  0
LINE
  5
129
330
1F
100
AcDbEntity
  8
0
  6
Continuous
 62
     7
370
    25
100
AcDbLine
 10
103.5011507085
 20
56.3478027848
 30
0.0
 11
103.7410233578
 21
56.0595561679
 31
0.0
  0
SPLINE
  5
12A
330
1F
100
AcDbEntity
  8
0
  6
Continuous
 62
     7
370
    25
100
AcDbSpline
210
0.0
220
0.0
230
1.0
 70
    24
 71
     3
 72
    10
 73
     6
 74
     0
 42
0.000000001
 43
0.00000001
 40
0.0
 40
0.0
 40
0.0
 40
0.0
 40
0.3089808900029879
 40
0.6190948628358303
 40
1.0
 40
1.0
 40
1.0
 40
1.0
 10
114.5352925750855
 20
56.34780278476274
 30
0.0
 10
114.2747090603692
 20
56.4982507471306
 30
0.0
 10
113.7525864290989
 20
56.79969838884449
 30
0.0
 10
112.9055941183783
 20
57.28870962744054
 30
0.0
 10
112.322542021372
 20
57.62533491259873
 30
0.0
 10
112.0011507084964
 20
57.81089027360267
 30
0.0
  0
LINE
  5
12B
330
1F
100
AcDbEntity
  8
0
  6
Continuous
 62
     7
370
    25
100
AcDbLine
 10
114.5352925751
 20
56.3478027848
 30
0.0
 11
114.2954199258
 21
56.0595561679
 31
0.0
  0
LINE
  5
12C
330
1F
100
AcDbEntity
  8
0
  6
Continuous
 62
     7
370
    25
100
AcDbLine
 10
112.0011507085
 20
57.8108902736
 30
0.0
 11
111.8714581404
 21
57.4590311572
 31
0.0
  0
LINE
  5
12D
330
1F
100
AcDbEntity
  8
0
  6
Continuous
 62
     7
370
    25
100
AcDbLine
 10
106.1649851432
 20
41.9772300368
 30
0.0
 11
106.0352925751
 21
41.6253709204
 31
0.0
  0
SPLINE
  5
12E
330
1F
100
AcDbEntity
  8
0
  6
Continuous
 62
     7
370
    25
100
AcDbSpline
210
0.0
220
0.0
230
1.0
 70
    24
 71
     3
 72
    10
 73
     6
 74
     0
 42
0.000000001
 43
0.00000001
 40
0.0
 40
0.0
 40
0.0
 40
0.0
 40
0.3089808900029875
 40
0.6190948628358297
 40
1.0
 40
1.0
 40
1.0
 40
1.0
 10
103.5011507084965
 20
43.08845840926718
 30
0.0
 10
103.7617342232128
 20
42.93801044689931
 30
0.0
 10
104.2838568544831
 20
42.63656280518542
 30
0.0
 10
105.1308491652036
 20
42.14755156658936
 30
0.0
 10
105.71390126221
 20
41.81092628143116
 30
0.0
 10
106.0352925750856
 20
41.62537092042722
 30
0.0
  0
LINE
  5
12F
330
1F
100
AcDbEntity
  8
0
  6
Continuous
 62
     7
370
    25
100
AcDbLine
 10
103.7410233578
 20
43.3767050261
 30
0.0
 11
103.5011507085
 21
43.0884584093
 31
0.0
  0
LINE
  5
130
330
1F
100
AcDbEntity
  8
0
  6
Continuous
 62
     7
370
    25
100
AcDbLine
 10
114.2954199258
 20
43.3767050261
 30
0.0
 11
114.5352925751
 21
43.0884584093
 31
0.0
  0
SPLINE
  5
131
330
1F
100
AcDbEntity
  8
0
  6
Continuous
 62
     7
370
    25
100
AcDbSpline
210
0.0
220
0.0
230
1.0
 70
    24
 71
     3
 72
    10
 73
     6
 74
     0
 42
0.000000001
 43
0.00000001
 40
0.0
 40
0.0
 40
0.0
 40
0.0
 40
0.3089808900029872
 40
0.6190948628358289
 40
1.0
 40
1.0
 40
1.0
 40
1.0
 10
112.0011507084965
 20
41.62537092042724
 30
0.0
 10
112.2617342232128
 20
41.77581888279511
 30
0.0
 10
112.7838568544831
 20
42.077266524509
 30
0.0
 10
113.6308491652037
 20
42.56627776310506
 30
0.0
 10
114.21390126221
 20
42.90290304826327
 30
0.0
 10
114.5352925750856
 20
43.0884584092672
 30
0.0
  0
LINE
  5
132
330
1F
100
AcDbEntity
  8
0
  6
Continuous
 62
     7
370
    25
100
AcDbLine
 10
111.8714581404
 20
41.9772300368
 30
0.0
 11
112.0011507085
 21
41.6253709204
 31
0.0
  0
LINE
  5
133
330
1F
100
AcDbEntity
  8
0
  6
Continuous
 62
     7
370
    25
100
AcDbLine
 10
100.8877868592
 20
48.3186556077
 30
0.0
 11
100.5182216418
 21
48.2550431082
 31
0.0
  0
SPLINE
  5
134
330
1F
100
AcDbEntity
  8
0
  6
Continuous
 62
     7
370
    25
100
AcDbSpline
210
0.0
220
0.0
230
1.0
 70
    24
 71
     3
 72
    12
 73
     8
 74
     0
 42
0.000000001
 43
0.00000001
 40
0.0
 40
0.0
 40
0.0
 40
0.0
 40
0.0789292290677931
 40
0.3080177042781792
 40
0.5375700022627363
 40
0.7685473095201499
 40
1.0
 40
1.0
 40
1.0
 40
1.0
 10
100.518221641791
 20
51.1812180858549
 30
0.0
 10
100.518221641791
 20
51.10444582728682
 30
0.0
 10
100.518221641791
 20
50.80484560167103
 30
0.0
 10
100.518221641791
 20
50.28039861088178
 30
0.0
 10
100.518221641791
 20
49.60663539568434
 30
0.0
 10
100.518221641791
 20
48.93055079254685
 30
0.0
 10
100.518221641791
 20
48.48036660109769
 30
0.0
 10
100.518221641791
 20
48.25504310817498
 30
0.0
  0
LINE
  5
135
330
1F
100
AcDbEntity
  8
0
  6
Continuous
 62
     7
370
    25
100
AcDbLine
 10
100.5182216418
 20
51.1812180859
 30
0.0
 11
100.8877868592
 21
51.1176055863
 31
0.0
  0
LINE
  5
136
330
1F
100
AcDbEntity
  8
0
  6
Continuous
 62
     7
370
    25
100
AcDbLine
 10
117.5182216418
 20
51.1812180859
 30
0.0
 11
117.1486564244
 21
51.1176055863
 31
0.0
  0
SPLINE
  5
137
330
1F
100
AcDbEntity
  8
0
  6
Continuous
 62
     7
370
    25
100
AcDbSpline
210
0.0
220
0.0
230
1.0
 70
    24
 71
     3
 72
    12
 73
     8
 74
     0
 42
0.000000001
 43
0.00000001
 40
0.0
 40
0.0
 40
0.0
 40
0.0
 40
0.2290973061183106
 40
0.4586493868636476
 40
0.6896190352345006
 40
0.9210707699905067
 40
0.9999999999999999
 40
0.9999999999999999
 40
0.9999999999999999
 40
0.9999999999999999
 10
117.518221641791
 20
48.25504310817504
 30
0.0
 10
117.518221641791
 20
48.47807045670866
 30
0.0
 10
117.518221641791
 20
48.92456787910064
 30
0.0
 10
117.518221641791
 20
49.59832590622963
 30
0.0
 10
117.518221641791
 20
50.27439979614416
 30
0.0
 10
117.518221641791
 20
50.80254690741707
 30
0.0
 10
117.518221641791
 20
51.10444582316565
 30
0.0
 10
117.518221641791
 20
51.18121808585495
 30
0.0
  0
LINE
  5
138
330
1F
100
AcDbEntity
  8
0
  6
Continuous
 62
     7
370
    25
100
AcDbLine
 10
117.1486564244
 20
48.3186556077
 30
0.0
 11
117.5182216418
 21
48.2550431082
 31
0.0
  0
ARC
  5
139
330
1F
100
AcDbEntity
  8
0
  6
Continuous
 62
     7
370
    25
100
AcDbCircle
 10
109.0182216418
 20
49.718130597
 30
0.0
 40
8.625000000000007
100
AcDbArc
 50
69.766500898
 51
110.233499102
  0
ARC
  5
13A
330
1F
100
AcDbEntity
  8
0
  6
Continuous
 62
     7
370
    25
100
AcDbCircle
 10
109.0182216418
 20
49.718130597
 30
0.0
 40
8.62500000000001
100
AcDbArc
 50
9.766500898
 51
50.233499102
  0
ARC
  5
13B
330
1F
100
AcDbEntity
  8
0
  6
Continuous
 62
     7
370
    25
100
AcDbCircle
 10
109.0182216418
 20
49.718130597
 30
0.0
 40
8.625000000000002
100
AcDbArc
 50
129.766500898
 51
170.233499102
  0
ARC
  5
13C
330
1F
100
AcDbEntity
  8
0
  6
Continuous
 62
     7
370
    25
100
AcDbCircle
 10
109.0182216418
 20
49.718130597
 30
0.0
 40
8.625000000000002
100
AcDbArc
 50
249.766500898
 51
290.233499102
  0
ARC
  5
13D
330
1F
100
AcDbEntity
  8
0
  6
Continuous
 62
     7
370
    25
100
AcDbCircle
 10
109.0182216418
 20
49.718130597
 30
0.0
 40
8.624999999999993
100
AcDbArc
 50
189.766500898
 51
230.233499102
  0
ARC
  5
13E
330
1F
100
AcDbEntity
  8
0
  6
Continuous
 62
     7
370
    25
100
AcDbCircle
 10
109.0182216418
 20
49.718130597
 30
0.0
 40
8.625000000000018
100
AcDbArc
 50
309.766500898
 51
350.233499102
  0
SPLINE
  5
13F
330
1F
100
AcDbEntity
  8
0
  6
Continuous
 62
     7
370
    25
100
AcDbSpline
210
0.0
220
0.0
230
1.0
 70
    24
 71
     3
 72
    11
 73
     7
 74
     0
 42
0.000000001
 43
0.00000001
 40
0.0
 40
0.0
 40
0.0
 40
0.0
 40
0.2485331657816019
 40
0.4977458539813225
 40
0.7486584446317366
 40
0.9999999999999999
 40
0.9999999999999999
 40
0.9999999999999999
 40
0.9999999999999999
 10
117.518221641791
 20
51.18121808585495
 30
0.0
 10
117.518221641791
 20
51.47076440719398
 30
0.0
 10
117.518221641791
 20
52.05064870766071
 30
0.0
 10
117.518221641791
 20
52.9144810372575
 30
0.0
 10
117.518221641791
 20
53.77434046853411
 30
0.0
 10
117.518221641791
 20
54.34169055899697
 30
0.0
 10
117.518221641791
 20
54.62560788512683
 30
0.0
  0
SPLINE
  5
140
330
1F
100
AcDbEntity
  8
0
  6
Continuous
 62
     7
370
    25
100
AcDbSpline
210
0.0
220
0.0
230
1.0
 70
    24
 71
     3
 72
    11
 73
     7
 74
     0
 42
0.000000001
 43
0.00000001
 40
0.0
 40
0.0
 40
0.0
 40
0.0
 40
0.2488261663104052
 40
0.4980307642143799
 40
0.7486902142220283
 40
0.9999999999999999
 40
0.9999999999999999
 40
0.9999999999999999
 40
0.9999999999999999
 10
117.518221641791
 20
54.62560788512683
 30
0.0
 10
117.2748100008562
 20
54.76614166154443
 30
0.0
 10
116.7876165221679
 20
55.04742294761255
 30
0.0
 10
116.0458130322389
 20
55.47570339220885
 30
0.0
 10
115.2952925240142
 20
55.90901660966471
 30
0.0
 10
114.7888446041332
 20
56.20141445253848
 30
0.0
 10
114.5352925750855
 20
56.34780278476274
 30
0.0
  0
SPLINE
  5
141
330
1F
100
AcDbEntity
  8
0
  6
Continuous
 62
     7
370
    25
100
AcDbSpline
210
0.0
220
0.0
230
1.0
 70
    24
 71
     3
 72
    11
 73
     7
 74
     0
 42
0.000000001
 43
0.00000001
 40
0.0
 40
0.0
 40
0.0
 40
0.0
 40
0.2485331718811619
 40
0.4983190599828378
 40
0.748658438463252
 40
1.0
 40
1.0
 40
1.0
 40
1.0
 10
103.5011507084966
 20
56.3478027847628
 30
0.0
 10
103.2503963313374
 20
56.20302967760949
 30
0.0
 10
102.7476236649495
 20
55.91275374332924
 30
0.0
 10
101.9995298948592
 20
55.48084160378849
 30
0.0
 10
101.2548799403338
 20
55.05091775209124
 30
0.0
 10
100.7641012093905
 20
54.76756651966856
 30
0.0
 10
100.518221641791
 20
54.62560788512677
 30
0.0
  0
SPLINE
  5
142
330
1F
100
AcDbEntity
  8
0
  6
Continuous
 62
     7
370
    25
100
AcDbSpline
210
0.0
220
0.0
230
1.0
 70
    24
 71
     3
 72
    11
 73
     7
 74
     0
 42
0.000000001
 43
0.00000001
 40
0.0
 40
0.0
 40
0.0
 40
0.0
 40
0.248826166310405
 40
0.49803076421438
 40
0.7486902142220284
 40
1.0
 40
1.0
 40
1.0
 40
1.0
 10
100.518221641791
 20
54.62560788512677
 30
0.0
 10
100.518221641791
 20
54.34454033229157
 30
0.0
 10
100.518221641791
 20
53.78197776015534
 30
0.0
 10
100.518221641791
 20
52.92541687096271
 30
0.0
 10
100.518221641791
 20
52.05879043605098
 30
0.0
 10
100.518221641791
 20
51.47399475030344
 30
0.0
 10
100.518221641791
 20
51.1812180858549
 30
0.0
  0
SPLINE
  5
143
330
1F
100
AcDbEntity
  8
0
  6
Continuous
 62
     7
370
    25
100
AcDbSpline
210
0.0
220
0.0
230
1.0
 70
    24
 71
     3
 72
    10
 73
     6
 74
     0
 42
0.000000001
 43
0.00000001
 40
0.0
 40
0.0
 40
0.0
 40
0.0
 40
0.3355445600395944
 40
0.6726666839999047
 40
1.0
 40
1.0
 40
1.0
 40
1.0
 10
100.518221641791
 20
48.25504310817498
 30
0.0
 10
100.518221641791
 20
47.86441354187154
 30
0.0
 10
100.518221641791
 20
47.08131786299464
 30
0.0
 10
100.518221641791
 20
45.93206589357985
 30
0.0
 10
100.518221641791
 20
45.18076811181896
 30
0.0
 10
100.518221641791
 20
44.81065330890311
 30
0.0
  0
SPLINE
  5
144
330
1F
100
AcDbEntity
  8
0
  6
Continuous
 62
     7
370
    25
100
AcDbSpline
210
0.0
220
0.0
230
1.0
 70
    24
 71
     3
 72
    11
 73
     7
 74
     0
 42
0.000000001
 43
0.00000001
 40
0.0
 40
0.0
 40
0.0
 40
0.0
 40
0.2488261663104052
 40
0.49803076421438
 40
0.7486902142220283
 40
0.9999999999999999
 40
0.9999999999999999
 40
0.9999999999999999
 40
0.9999999999999999
 10
100.518221641791
 20
44.81065330890311
 30
0.0
 10
100.7616332827258
 20
44.67011953248551
 30
0.0
 10
101.2488267614141
 20
44.38883824641739
 30
0.0
 10
101.9906302513431
 20
43.96055780182108
 30
0.0
 10
102.7411507595678
 20
43.52724458436521
 30
0.0
 10
103.2475986794487
 20
43.23484674149145
 30
0.0
 10
103.5011507084965
 20
43.08845840926718
 30
0.0
  0
SPLINE
  5
145
330
1F
100
AcDbEntity
  8
0
  6
Continuous
 62
     7
370
    25
100
AcDbSpline
210
0.0
220
0.0
230
1.0
 70
    24
 71
     3
 72
    11
 73
     7
 74
     0
 42
0.000000001
 43
0.00000001
 40
0.0
 40
0.0
 40
0.0
 40
0.0
 40
0.2485331718811624
 40
0.4983190599828385
 40
0.7486584384632524
 40
0.9999999999999999
 40
0.9999999999999999
 40
0.9999999999999999
 40
0.9999999999999999
 10
114.5352925750856
 20
43.0884584092672
 30
0.0
 10
114.7860469522448
 20
43.23323151642052
 30
0.0
 10
115.2888196186327
 20
43.52350745070074
 30
0.0
 10
116.036913388723
 20
43.95541959024148
 30
0.0
 10
116.7815633432483
 20
44.38534344193872
 30
0.0
 10
117.2723420741916
 20
44.66869467436138
 30
0.0
 10
117.5182216417911
 20
44.81065330890316
 30
0.0
  0
SPLINE
  5
146
330
1F
100
AcDbEntity
  8
0
  6
Continuous
 62
     7
370
    25
100
AcDbSpline
210
0.0
220
0.0
230
1.0
 70
    24
 71
     3
 72
    10
 73
     6
 74
     0
 42
0.000000001
 43
0.00000001
 40
0.0
 40
0.0
 40
0.0
 40
0.0
 40
0.3273333707077122
 40
0.6629523133412112
 40
1.0
 40
1.0
 40
1.0
 40
1.0
 10
117.5182216417911
 20
44.81065330890316
 30
0.0
 10
117.5182216417911
 20
45.18076809755443
 30
0.0
 10
117.5182216417911
 20
45.93036614436416
 30
0.0
 10
117.518221641791
 20
47.07957616492043
 30
0.0
 10
117.518221641791
 20
47.86266636585395
 30
0.0
 10
117.518221641791
 20
48.25504310817504
 30
0.0
  0
SPLINE
  5
147
330
1F
100
AcDbEntity
  8
0
  6
Continuous
 62
     7
370
    25
100
AcDbSpline
210
0.0
220
0.0
230
1.0
 70
    24
 71
     3
 72
    11
 73
     7
 74
     0
 42
0.000000001
 43
0.00000001
 40
0.0
 40
0.0
 40
0.0
 40
0.0
 40
0.248826166310405
 40
0.49803076421438
 40
0.7486902142220283
 40
1.0
 40
1.0
 40
1.0
 40
1.0
 10
109.0182216417911
 20
39.90317602079129
 30
0.0
 10
109.2616332827259
 20
40.04370979720889
 30
0.0
 10
109.7488267614142
 20
40.32499108327701
 30
0.0
 10
110.4906302513432
 20
40.75327152787334
 30
0.0
 10
111.2411507595679
 20
41.1865847453292
 30
0.0
 10
111.7475986794488
 20
41.47898258820297
 30
0.0
 10
112.0011507084965
 20
41.62537092042724
 30
0.0
  0
SPLINE
  5
148
330
1F
100
AcDbEntity
  8
0
  6
Continuous
 62
     7
370
    25
100
AcDbSpline
210
0.0
220
0.0
230
1.0
 70
    24
 71
     3
 72
    11
 73
     7
 74
     0
 42
0.000000001
 43
0.00000001
 40
0.0
 40
0.0
 40
0.0
 40
0.0
 40
0.2485331718811616
 40
0.4983190599828378
 40
0.7486584384632519
 40
1.0
 40
1.0
 40
1.0
 40
1.0
 10
106.0352925750856
 20
41.62537092042722
 30
0.0
 10
106.2860469522448
 20
41.48059781327392
 30
0.0
 10
106.7888196186326
 20
41.19032187899369
 30
0.0
 10
107.536913388723
 20
40.75840973945296
 30
0.0
 10
108.2815633432483
 20
40.32848588775573
 30
0.0
 10
108.7723420741916
 20
40.04513465533307
 30
0.0
 10
109.0182216417911
 20
39.90317602079129
 30
0.0
  0
SPLINE
  5
149
330
1F
100
AcDbEntity
  8
0
  6
Continuous
 62
     7
370
    25
100
AcDbSpline
210
0.0
220
0.0
230
1.0
 70
    24
 71
     3
 72
    11
 73
     7
 74
     0
 42
0.000000001
 43
0.00000001
 40
0.0
 40
0.0
 40
0.0
 40
0.0
 40
0.2488261663104048
 40
0.4980307642143796
 40
0.7486902142220278
 40
1.0
 40
1.0
 40
1.0
 40
1.0
 10
109.0182216417909
 20
59.53308517323858
 30
0.0
 10
108.7748100008561
 20
59.39255139682098
 30
0.0
 10
108.2876165221678
 20
59.11127011075286
 30
0.0
 10
107.5458130322388
 20
58.68298966615651
 30
0.0
 10
106.795292524014
 20
58.24967644870063
 30
0.0
 10
106.2888446041331
 20
57.95727860582684
 30
0.0
 10
106.0352925750854
 20
57.81089027360256
 30
0.0
  0
SPLINE
  5
14A
330
1F
100
AcDbEntity
  8
0
  6
Continuous
 62
     7
370
    25
100
AcDbSpline
210
0.0
220
0.0
230
1.0
 70
    24
 71
     3
 72
    11
 73
     7
 74
     0
 42
0.000000001
 43
0.00000001
 40
0.0
 40
0.0
 40
0.0
 40
0.0
 40
0.2485331718811617
 40
0.4983190599828382
 40
0.748658438463252
 40
1.0
 40
1.0
 40
1.0
 40
1.0
 10
112.0011507084964
 20
57.81089027360267
 30
0.0
 10
111.7503963313372
 20
57.95566338075597
 30
0.0
 10
111.2476236649493
 20
58.24593931503619
 30
0.0
 10
110.499529894859
 20
58.67785145457692
 30
0.0
 10
109.7548799403337
 20
59.10777530627415
 30
0.0
 10
109.2641012093904
 20
59.3911265386968
 30
0.0
 10
109.0182216417909
 20
59.53308517323858
 30
0.0
  0
CIRCLE
  5
14B
330
1F
100
AcDbEntity
  8
0
  6
Continuous
 62
     7
370
    25
100
AcDbCircle
 10
109.0182216418
 20
49.718130597
 30
0.0
 40
3.050000000000006
  0
CIRCLE
  5
14C
330
1F
100
AcDbEntity
  8
0
  6
Continuous
 62
     7
370
    25
100
AcDbCircle
 10
109.0182216418
 20
49.718130597
 30
0.0
 40
2.5
  0
ENDSEC
  0
SECTION
  2
OBJECTS
  0
DICTIONARY
  5
C
330
0
100
AcDbDictionary
281
     1
  3
ACAD_GROUP
350
D
  3
ACAD_LAYOUT
350
1A
  3
ACAD_MLINESTYLE
350
17
  3
ACAD_PLOTSETTINGS
350
19
  3
ACAD_PLOTSTYLENAME
350
E
  3
ACAD_SCALELIST
350
47
  0
DICTIONARY
  5
D
102
{ACAD_REACTORS
330
C
102
}
330
C
100
AcDbDictionary
281
     1
  0
DICTIONARY
  5
1A
102
{ACAD_REACTORS
330
C
102
}
330
C
100
AcDbDictionary
281
     1
  3
Layout1
350
1E
  3
Layout2
350
26
  3
Model
350
22
  0
DICTIONARY
  5
17
102
{ACAD_REACTORS
330
C
102
}
330
C
100
AcDbDictionary
281
     1
  3
Standard
350
18
  0
DICTIONARY
  5
19
102
{ACAD_REACTORS
330
C
102
}
330
C
100
AcDbDictionary
281
     1
  0
ACDBDICTIONARYWDFLT
  5
E
102
{ACAD_REACTORS
330
C
102
}
330
C
100
AcDbDictionary
281
     1
  3
Normal
350
F
100
AcDbDictionaryWithDefault
340
F
  0
DICTIONARY
  5
47
102
{ACAD_REACTORS
330
C
102
}
330
C
100
AcDbDictionary
281
     1
  3
A0
350
48
  3
A1
350
49
  3
A2
350
4A
  3
A3
350
4B
  3
A4
350
4C
  3
A5
350
4D
  3
A6
350
4E
  3
A7
350
4F
  3
A8
350
50
  3
A9
350
51
  3
B0
350
52
  3
B1
350
53
  3
B2
350
54
  3
B3
350
55
  3
B4
350
56
  3
B5
350
57
  3
B6
350
58
  3
B7
350
59
  3
B8
350
5A
  3
B9
350
5B
  3
C0
350
5C
  3
C1
350
5D
  3
C2
350
5E
  3
C3
350
5F
  3
C4
350
60
  3
C5
350
61
  3
C6
350
62
  3
C7
350
63
  3
C8
350
64
  3
C9
350
65
  3
D0
350
66
  3
D1
350
67
  3
D2
350
68
  0
LAYOUT
  5
1E
102
{ACAD_REACTORS
330
1A
102
}
330
1A
100
AcDbPlotSettings
  1

  2
none_device
  4

  6

 40
0.0
 41
0.0
 42
0.0
 43
0.0
 44
0.0
 45
0.0
 46
0.0
 47
0.0
 48
0.0
 49
0.0
140
0.0
141
0.0
142
1.0
143
1.0
 70
   688
 72
     1
 73
     0
 74
     5
  7

 75
    16
147
1.0
148
0.0
149
0.0
100
AcDbLayout
  1
Layout1
 70
     1
 71
     1
 10
0.0
 20
0.0
 11
420.0
 21
297.0
 12
0.0
 22
0.0
 32
0.0
 14
1.0000000000E+20
 24
1.0000000000E+20
 34
1.0000000000E+20
 15
-1.0000000000E+20
 25
-1.0000000000E+20
 35
-1.0000000000E+20
146
0.0
 13
0.0
 23
0.0
 33
0.0
 16
1.0
 26
0.0
 36
0.0
 17
0.0
 27
1.0
 37
0.0
 76
     0
330
1B
  0
LAYOUT
  5
26
102
{ACAD_REACTORS
330
1A
102
}
330
1A
100
AcDbPlotSettings
  1

  2
none_device
  4

  6

 40
0.0
 41
0.0
 42
0.0
 43
0.0
 44
0.0
 45
0.0
 46
0.0
 47
0.0
 48
0.0
 49
0.0
140
0.0
141
0.0
142
1.0
143
1.0
 70
   688
 72
     1
 73
     0
 74
     5
  7

 75
    16
147
1.0
148
0.0
149
0.0
100
AcDbLayout
  1
Layout2
 70
     1
 71
     2
 10
0.0
 20
0.0
 11
0.0
 21
0.0
 12
0.0
 22
0.0
 32
0.0
 14
0.0
 24
0.0
 34
0.0
 15
0.0
 25
0.0
 35
0.0
146
0.0
 13
0.0
 23
0.0
 33
0.0
 16
1.0
 26
0.0
 36
0.0
 17
0.0
 27
1.0
 37
0.0
 76
     0
330
23
  0
LAYOUT
  5
22
102
{ACAD_REACTORS
330
1A
102
}
330
1A
100
AcDbPlotSettings
  1

  2
none_device
  4
Letter_(8.50_x_11.00_Inches)
  6

 40
6.35
 41
6.35
 42
6.35000508
 43
6.35000508
 44
215.9
 45
279.4
 46
0.0
 47
0.0
 48
0.0
 49
0.0
140
0.0
141
0.0
142
1.0
143
1.0
 70
  1712
 72
     1
 73
     0
 74
     0
  7

 75
     0
147
1.0
148
0.0
149
0.0
100
AcDbLayout
  1
Model
 70
     1
 71
     0
 10
0.0
 20
0.0
 11
215.9
 21
139.7
 12
0.0
 22
0.0
 32
0.0
 14
0.0
 24
0.0
 34
0.0
 15
215.9
 25
139.7
 35
0.0
146
0.0
 13
0.0
 23
0.0
 33
0.0
 16
1.0
 26
0.0
 36
0.0
 17
0.0
 27
1.0
 37
0.0
 76
     0
330
1F
331
29
  0
MLINESTYLE
  5
18
102
{ACAD_REACTORS
330
17
102
}
330
17
100
AcDbMlineStyle
  2
Standard
 70
     0
  3

 62
   256
 51
90.0
 52
90.0
 71
     2
 49
0.5
 62
   256
  6
BYLAYER
 49
-0.5
 62
   256
  6
BYLAYER
  0
ACDBPLACEHOLDER
  5
F
102
{ACAD_REACTORS
330
E
102
}
330
E
  0
SCALE
  5
48
102
{ACAD_REACTORS
330
47
102
}
330
47
100
AcDbScale
 70
     0
300
1:1
140
1.0
141
1.0
290
     1
  0
SCALE
  5
49
102
{ACAD_REACTORS
330
47
102
}
330
47
100
AcDbScale
 70
     0
300
1:2
140
1.0
141
2.0
290
     0
  0
SCALE
  5
4A
102
{ACAD_REACTORS
330
47
102
}
330
47
100
AcDbScale
 70
     0
300
1:4
140
1.0
141
4.0
290
     0
  0
SCALE
  5
4B
102
{ACAD_REACTORS
330
47
102
}
330
47
100
AcDbScale
 70
     0
300
1:5
140
1.0
141
5.0
290
     0
  0
SCALE
  5
4C
102
{ACAD_REACTORS
330
47
102
}
330
47
100
AcDbScale
 70
     0
300
1:8
140
1.0
141
8.0
290
     0
  0
SCALE
  5
4D
102
{ACAD_REACTORS
330
47
102
}
330
47
100
AcDbScale
 70
     0
300
1:10
140
1.0
141
10.0
290
     0
  0
SCALE
  5
4E
102
{ACAD_REACTORS
330
47
102
}
330
47
100
AcDbScale
 70
     0
300
1:16
140
1.0
141
16.0
290
     0
  0
SCALE
  5
4F
102
{ACAD_REACTORS
330
47
102
}
330
47
100
AcDbScale
 70
     0
300
1:20
140
1.0
141
20.0
290
     0
  0
SCALE
  5
50
102
{ACAD_REACTORS
330
47
102
}
330
47
100
AcDbScale
 70
     0
300
1:30
140
1.0
141
30.0
290
     0
  0
SCALE
  5
51
102
{ACAD_REACTORS
330
47
102
}
330
47
100
AcDbScale
 70
     0
300
1:40
140
1.0
141
40.0
290
     0
  0
SCALE
  5
52
102
{ACAD_REACTORS
330
47
102
}
330
47
100
AcDbScale
 70
     0
300
1:50
140
1.0
141
50.0
290
     0
  0
SCALE
  5
53
102
{ACAD_REACTORS
330
47
102
}
330
47
100
AcDbScale
 70
     0
300
1:100
140
1.0
141
100.0
290
     0
  0
SCALE
  5
54
102
{ACAD_REACTORS
330
47
102
}
330
47
100
AcDbScale
 70
     0
300
2:1
140
2.0
141
1.0
290
     0
  0
SCALE
  5
55
102
{ACAD_REACTORS
330
47
102
}
330
47
100
AcDbScale
 70
     0
300
4:1
140
4.0
141
1.0
290
     0
  0
SCALE
  5
56
102
{ACAD_REACTORS
330
47
102
}
330
47
100
AcDbScale
 70
     0
300
8:1
140
8.0
141
1.0
290
     0
  0
SCALE
  5
57
102
{ACAD_REACTORS
330
47
102
}
330
47
100
AcDbScale
 70
     0
300
10:1
140
10.0
141
1.0
290
     0
  0
SCALE
  5
58
102
{ACAD_REACTORS
330
47
102
}
330
47
100
AcDbScale
 70
     0
300
100:1
140
100.0
141
1.0
290
     0
  0
SCALE
  5
59
102
{ACAD_REACTORS
330
47
102
}
330
47
100
AcDbScale
 70
     0
300
1/128" = 1'-0"
140
0.0078125
141
12.0
290
     0
  0
SCALE
  5
5A
102
{ACAD_REACTORS
330
47
102
}
330
47
100
AcDbScale
 70
     0
300
1/64" = 1'-0"
140
0.015625
141
12.0
290
     0
  0
SCALE
  5
5B
102
{ACAD_REACTORS
330
47
102
}
330
47
100
AcDbScale
 70
     0
300
1/32" = 1'-0"
140
0.03125
141
12.0
290
     0
  0
SCALE
  5
5C
102
{ACAD_REACTORS
330
47
102
}
330
47
100
AcDbScale
 70
     0
300
1/16" = 1'-0"
140
0.0625
141
12.0
290
     0
  0
SCALE
  5
5D
102
{ACAD_REACTORS
330
47
102
}
330
47
100
AcDbScale
 70
     0
300
3/32" = 1'-0"
140
0.09375
141
12.0
290
     0
  0
SCALE
  5
5E
102
{ACAD_REACTORS
330
47
102
}
330
47
100
AcDbScale
 70
     0
300
1/8" = 1'-0"
140
0.125
141
12.0
290
     0
  0
SCALE
  5
5F
102
{ACAD_REACTORS
330
47
102
}
330
47
100
AcDbScale
 70
     0
300
3/16" = 1'-0"
140
0.1875
141
12.0
290
     0
  0
SCALE
  5
60
102
{ACAD_REACTORS
330
47
102
}
330
47
100
AcDbScale
 70
     0
300
1/4" = 1'-0"
140
0.25
141
12.0
290
     0
  0
SCALE
  5
61
102
{ACAD_REACTORS
330
47
102
}
330
47
100
AcDbScale
 70
     0
300
3/8" = 1'-0"
140
0.375
141
12.0
290
     0
  0
SCALE
  5
62
102
{ACAD_REACTORS
330
47
102
}
330
47
100
AcDbScale
 70
     0
300
1/2" = 1'-0"
140
0.5
141
12.0
290
     0
  0
SCALE
  5
63
102
{ACAD_REACTORS
330
47
102
}
330
47
100
AcDbScale
 70
     0
300
3/4" = 1'-0"
140
0.75
141
12.0
290
     0
  0
SCALE
  5
64
102
{ACAD_REACTORS
330
47
102
}
330
47
100
AcDbScale
 70
     0
300
1" = 1'-0"
140
1.0
141
12.0
290
     0
  0
SCALE
  5
65
102
{ACAD_REACTORS
330
47
102
}
330
47
100
AcDbScale
 70
     0
300
1-1/2" = 1'-0"
140
1.5
141
12.0
290
     0
  0
SCALE
  5
66
102
{ACAD_REACTORS
330
47
102
}
330
47
100
AcDbScale
 70
     0
300
3" = 1'-0"
140
3.0
141
12.0
290
     0
  0
SCALE
  5
67
102
{ACAD_REACTORS
330
47
102
}
330
47
100
AcDbScale
 70
     0
300
6" = 1'-0"
140
6.0
141
12.0
290
     0
  0
SCALE
  5
68
102
{ACAD_REACTORS
330
47
102
}
330
47
100
AcDbScale
 70
     0
300
1'-0" = 1'-0"
140
12.0
141
12.0
290
     0
  0
ENDSEC
  0
EOF
