  0
SECTION
  2
HEADER
  9
$ACADVER
  1
AC1015
  9
$ACADMAINTVER
 70
     6
  9
$DWGCODEPAGE
  3
DOS932
  9
$INSBASE
 10
0.0
 20
0.0
 30
0.0
  9
$EXTMIN
 10
0.0
 20
0.0
 30
0.0
  9
$EXTMAX
 10
215.9
 20
139.7
 30
0.0
  9
$LIMMIN
 10
0.0
 20
0.0
  9
$LIMMAX
 10
215.9
 20
139.7
  9
$ORTHOMODE
 70
     0
  9
$REGENMODE
 70
     1
  9
$FILLMODE
 70
     1
  9
$QTEXTMODE
 70
     0
  9
$MIRRTEXT
 70
     1
  9
$LTSCALE
 40
0.5
  9
$ATTMODE
 70
     1
  9
$TEXTSIZE
 40
1.75
  9
$TRACEWID
 40
1.0
  9
$TEXTSTYLE
  7
Standard
  9
$CLAYER
  8
0
  9
$CELTYPE
  6
ByLayer
  9
$CECOLOR
 62
   256
  9
$CELTSCALE
 40
1.0
  9
$DISPSILH
 70
     0
  9
$DIMSCALE
 40
1.0
  9
$DIMASZ
 40
1.778
  9
$DIMEXO
 40
0.5
  9
$DIMDLI
 40
3.75
  9
$DIMRND
 40
0.0
  9
$DIMDLE
 40
0.0
  9
$DIMEXE
 40
0.5
  9
$DIMTP
 40
0.0
  9
$DIMTM
 40
0.0
  9
$DIMTXT
 40
1.75
  9
$DIMCEN
 40
2.5
  9
$DIMTSZ
 40
0.0
  9
$DIMTOL
 70
     0
  9
$DIMLIM
 70
     0
  9
$DIMTIH
 70
     1
  9
$DIMTOH
 70
     1
  9
$DIMSE1
 70
     0
  9
$DIMSE2
 70
     0
  9
$DIMTAD
 70
     1
  9
$DIMZIN
 70
     1
  9
$DIMBLK
  1

  9
$DIMASO
 70
     1
  9
$DIMSHO
 70
     1
  9
$DIMPOST
  1

  9
$DIMAPOST
  1

  9
$DIMALT
 70
     0
  9
$DIMALTD
 70
     3
  9
$DIMALTF
 40
0.0393700787
  9
$DIMLFAC
 40
1.0
  9
$DIMTOFL
 70
     1
  9
$DIMTVP
 40
0.0
  9
$DIMTIX
 70
     0
  9
$DIMSOXD
 70
     0
  9
$DIMSAH
 70
     0
  9
$DIMBLK1
  1

  9
$DIMBLK2
  1

  9
$DIMSTYLE
  2
ISO-25
  9
$DIMCLRD
 70
     0
  9
$DIMCLRE
 70
     0
  9
$DIMCLRT
 70
     0
  9
$DIMTFAC
 40
1.0
  9
$DIMGAP
 40
0.762
  9
$DIMJUST
 70
     0
  9
$DIMSD1
 70
     0
  9
$DIMSD2
 70
     0
  9
$DIMTOLJ
 70
     0
  9
$DIMTZIN
 70
     1
  9
$DIMALTZ
 70
     0
  9
$DIMALTTZ
 70
     0
  9
$DIMUPT
 70
     0
  9
$DIMDEC
 70
     2
  9
$DIMTDEC
 70
     2
  9
$DIMALTU
 70
     2
  9
$DIMALTTD
 70
     3
  9
$DIMTXSTY
  7
Standard
  9
$DIMAUNIT
 70
     0
  9
$DIMADEC
 70
     2
  9
$DIMALTRND
 40
0.0
  9
$DIMAZIN
 70
     0
  9
$DIMDSEP
 70
    44
  9
$DIMATFIT
 70
     3
  9
$DIMFRAC
 70
     0
  9
$DIMLDRBLK
  1

  9
$DIMLUNIT
 70
     2
  9
$DIMLWD
 70
    -2
  9
$DIMLWE
 70
    -2
  9
$DIMTMOVE
 70
     0
  9
$LUNITS
 70
     2
  9
$LUPREC
 70
     2
  9
$SKETCHINC
 40
1.0
  9
$FILLETRAD
 40
10.0
  9
$AUNITS
 70
     0
  9
$AUPREC
 70
     2
  9
$MENU
  1
.
  9
$ELEVATION
 40
0.0
  9
$PELEVATION
 40
0.0
  9
$THICKNESS
 40
0.0
  9
$LIMCHECK
 70
     0
  9
$CHAMFERA
 40
0.0
  9
$CHAMFERB
 40
0.0
  9
$CHAMFERC
 40
0.0
  9
$CHAMFERD
 40
0.0
  9
$SKPOLY
 70
     0
  9
$TDCREATE
 40
2459388.564078079
  9
$TDUCREATE
 40
2459388.189078079
  9
$TDUPDATE
 40
2459388.564078565
  9
$TDUUPDATE
 40
2459388.189078565
  9
$TDINDWG
 40
0.0000000116
  9
$TDUSRTIMER
 40
0.0000000116
  9
$USRTIMER
 70
     1
  9
$ANGBASE
 50
0.0
  9
$ANGDIR
 70
     0
  9
$PDMODE
 70
     0
  9
$PDSIZE
 40
-1.0
  9
$PLINEWID
 40
0.0
  9
$SPLFRAME
 70
     0
  9
$SPLINETYPE
 70
     6
  9
$SPLINESEGS
 70
     8
  9
$HANDSEED
  5
123
  9
$SURFTAB1
 70
     6
  9
$SURFTAB2
 70
     6
  9
$SURFTYPE
 70
     6
  9
$SURFU
 70
     6
  9
$SURFV
 70
     6
  9
$UCSBASE
  2

  9
$UCSNAME
  2

  9
$UCSORG
 10
0.0
 20
0.0
 30
0.0
  9
$UCSXDIR
 10
1.0
 20
0.0
 30
0.0
  9
$UCSYDIR
 10
0.0
 20
1.0
 30
0.0
  9
$UCSORTHOREF
  2

  9
$UCSORTHOVIEW
 70
     0
  9
$UCSORGTOP
 10
0.0
 20
0.0
 30
0.0
  9
$UCSORGBOTTOM
 10
0.0
 20
0.0
 30
0.0
  9
$UCSORGLEFT
 10
0.0
 20
0.0
 30
0.0
  9
$UCSORGRIGHT
 10
0.0
 20
0.0
 30
0.0
  9
$UCSORGFRONT
 10
0.0
 20
0.0
 30
0.0
  9
$UCSORGBACK
 10
0.0
 20
0.0
 30
0.0
  9
$PUCSBASE
  2

  9
$PUCSNAME
  2

  9
$PUCSORG
 10
0.0
 20
0.0
 30
0.0
  9
$PUCSXDIR
 10
1.0
 20
0.0
 30
0.0
  9
$PUCSYDIR
 10
0.0
 20
1.0
 30
0.0
  9
$PUCSORTHOREF
  2

  9
$PUCSORTHOVIEW
 70
     0
  9
$PUCSORGTOP
 10
0.0
 20
0.0
 30
0.0
  9
$PUCSORGBOTTOM
 10
0.0
 20
0.0
 30
0.0
  9
$PUCSORGLEFT
 10
0.0
 20
0.0
 30
0.0
  9
$PUCSORGRIGHT
 10
0.0
 20
0.0
 30
0.0
  9
$PUCSORGFRONT
 10
0.0
 20
0.0
 30
0.0
  9
$PUCSORGBACK
 10
0.0
 20
0.0
 30
0.0
  9
$USERI1
 70
     0
  9
$USERI2
 70
     0
  9
$USERI3
 70
     0
  9
$USERI4
 70
     0
  9
$USERI5
 70
     0
  9
$USERR1
 40
0.0
  9
$USERR2
 40
0.0
  9
$USERR3
 40
0.0
  9
$USERR4
 40
0.0
  9
$USERR5
 40
0.0
  9
$WORLDVIEW
 70
     1
  9
$SHADEDGE
 70
     3
  9
$SHADEDIF
 70
    70
  9
$TILEMODE
 70
     1
  9
$MAXACTVP
 70
    64
  9
$PINSBASE
 10
0.0
 20
0.0
 30
0.0
  9
$PLIMCHECK
 70
     0
  9
$PEXTMIN
 10
1.0000000000E+20
 20
1.0000000000E+20
 30
1.0000000000E+20
  9
$PEXTMAX
 10
-1.0000000000E+20
 20
-1.0000000000E+20
 30
-1.0000000000E+20
  9
$PLIMMIN
 10
0.0
 20
0.0
  9
$PLIMMAX
 10
420.0
 20
297.0
  9
$UNITMODE
 70
     0
  9
$VISRETAIN
 70
     1
  9
$PLINEGEN
 70
     0
  9
$PSLTSCALE
 70
     1
  9
$TREEDEPTH
 70
  3020
  9
$CMLSTYLE
  2
Standard
  9
$CMLJUST
 70
     0
  9
$CMLSCALE
 40
20.0
  9
$PROXYGRAPHICS
 70
     1
  9
$MEASUREMENT
 70
     1
  9
$CELWEIGHT
370
    -1
  9
$ENDCAPS
280
     0
  9
$JOINSTYLE
280
     0
  9
$LWDISPLAY
290
     1
  9
$INSUNITS
 70
     4
  9
$HYPERLINKBASE
  1

  9
$STYLESHEET
  1

  9
$XEDIT
290
     1
  9
$CEPSNTYPE
380
     0
  9
$PSTYLEMODE
290
     1
  9
$FINGERPRINTGUID
  2
{5C9CF77A-7540-47E0-8D69-3965613D4CC8}
  9
$VERSIONGUID
  2
{FAEB1C32-E019-11D5-929B-00C0DF256EC4}
  9
$EXTNAMES
290
     1
  9
$PSVPSCALE
 40
0.0
  9
$OLESTARTUP
290
     0
  0
ENDSEC
  0
SECTION
  2
CLASSES
  0
CLASS
  1
ACDBDICTIONARYWDFLT
  2
AcDbDictionaryWithDefault
  3
ObjectDBX Classes
 90
        0
280
     0
281
     0
  0
CLASS
  1
VISUALSTYLE
  2
AcDbVisualStyle
  3
ObjectDBX Classes
 90
     4095
280
     0
281
     0
  0
CLASS
  1
MATERIAL
  2
AcDbMaterial
  3
ObjectDBX Classes
 90
     1153
280
     0
281
     0
  0
CLASS
  1
SCALE
  2
AcDbScale
  3
ObjectDBX Classes
 90
     1153
280
     0
281
     0
  0
CLASS
  1
TABLESTYLE
  2
AcDbTableStyle
  3
ObjectDBX Classes
 90
     4095
280
     0
281
     0
  0
CLASS
  1
MLEADERSTYLE
  2
AcDbMLeaderStyle
  3
ACDB_MLEADERSTYLE_CLASS
 90
     4095
280
     0
281
     0
  0
CLASS
  1
SUN
  2
AcDbSun
  3
SCENEOE
 90
     1153
280
     0
281
     0
  0
CLASS
  1
ACDBPLACEHOLDER
  2
AcDbPlaceHolder
  3
ObjectDBX Classes
 90
        0
280
     0
281
     0
  0
CLASS
  1
LAYOUT
  2
AcDbLayout
  3
ObjectDBX Classes
 90
        0
280
     0
281
     0
  0
ENDSEC
  0
SECTION
  2
TABLES
  0
TABLE
  2
VPORT
  5
8
330
0
100
AcDbSymbolTable
 70
     1
  0
VPORT
  5
29
330
8
100
AcDbSymbolTableRecord
100
AcDbViewportTableRecord
  2
*Active
 70
     0
 10
0.0
 20
0.0
 11
1.0
 21
1.0
 12
107.95
 22
69.85
 13
0.0
 23
0.0
 14
10.0
 24
10.0
 15
10.0
 25
10.0
 16
0.0
 26
0.0
 36
1.0
 17
0.0
 27
0.0
 37
0.0
 40
139.7
 41
1.5454545455
 42
50.0
 43
0.0
 44
0.0
 50
0.0
 51
0.0
 71
     0
 72
  2000
 73
     1
 74
     3
 75
     0
 76
     0
 77
     0
 78
     0
281
     0
 65
     1
110
0.0
120
0.0
130
0.0
111
1.0
121
0.0
131
0.0
112
0.0
122
1.0
132
0.0
 79
     0
146
0.0
  0
ENDTAB
  0
TABLE
  2
LTYPE
  5
5
330
0
100
AcDbSymbolTable
 70
     6
  0
LTYPE
  5
14
330
5
100
AcDbSymbolTableRecord
100
AcDbLinetypeTableRecord
  2
ByBlock
 70
     0
  3

 72
    65
 73
     0
 40
0.0
  0
LTYPE
  5
15
330
5
100
AcDbSymbolTableRecord
100
AcDbLinetypeTableRecord
  2
ByLayer
 70
     0
  3

 72
    65
 73
     0
 40
0.0
  0
LTYPE
  5
16
330
5
100
AcDbSymbolTableRecord
100
AcDbLinetypeTableRecord
  2
Continuous
 70
     0
  3
Solid line
 72
    65
 73
     0
 40
0.0
  0
LTYPE
  5
6E
330
5
100
AcDbSymbolTableRecord
100
AcDbLinetypeTableRecord
  2
HIDDEN
 70
     0
  3
Hidden __ __ __ __ __ __ __ __ __ __ __ __ __ __
 72
    65
 73
     2
 40
1.905
 49
1.27
 74
     0
 49
-0.635
 74
     0
  0
LTYPE
  5
6F
330
5
100
AcDbSymbolTableRecord
100
AcDbLinetypeTableRecord
  2
PHANTOM
 70
     0
  3
Phantom ______  __  __  ______  __  __  ______
 72
    65
 73
     6
 40
12.7
 49
6.35
 74
     0
 49
-1.27
 74
     0
 49
1.27
 74
     0
 49
-1.27
 74
     0
 49
1.27
 74
     0
 49
-1.27
 74
     0
  0
LTYPE
  5
70
330
5
100
AcDbSymbolTableRecord
100
AcDbLinetypeTableRecord
  2
CENTER
 70
     0
  3
Center ____ _ ____ _ ____ _ ____ _ ____ _ ____
 72
    65
 73
     4
 40
10.16
 49
6.35
 74
     0
 49
-1.27
 74
     0
 49
1.27
 74
     0
 49
-1.27
 74
     0
  0
LTYPE
  5
71
330
5
100
AcDbSymbolTableRecord
100
AcDbLinetypeTableRecord
  2
CENTERX2
 70
     0
  3
Center (2x) ________  __  ________  __  _____
 72
    65
 73
     4
 40
20.32
 49
12.7
 74
     0
 49
-2.54
 74
     0
 49
2.54
 74
     0
 49
-2.54
 74
     0
  0
LTYPE
  5
72
330
5
100
AcDbSymbolTableRecord
100
AcDbLinetypeTableRecord
  2
DOT2
 70
     0
  3
Dot (.5x) ........................................
 72
    65
 73
     2
 40
0.635
 49
0.0
 74
     0
 49
-0.635
 74
     0
  0
ENDTAB
  0
TABLE
  2
LAYER
  5
2
330
0
100
AcDbSymbolTable
 70
     1
  0
LAYER
  5
10
330
2
100
AcDbSymbolTableRecord
100
AcDbLayerTableRecord
  2
0
 70
     0
 62
     7
  6
Continuous
370
    -3
390
F
  0
ENDTAB
  0
TABLE
  2
STYLE
  5
3
330
0
100
AcDbSymbolTable
 70
     2
  0
STYLE
  5
11
330
3
100
AcDbSymbolTableRecord
100
AcDbTextStyleTableRecord
  2
Standard
 70
     0
 40
0.0
 41
1.0
 50
0.0
 71
     0
 42
1.75
  3
txt
  4
bigfont
  0
STYLE
  5
73
330
3
100
AcDbSymbolTableRecord
100
AcDbTextStyleTableRecord
  2
SLDTEXTSTYLE0
 70
     0
 40
0.0
 41
0.75
 50
0.0
 71
     0
 42
1.75
  3
TXT
  4
bigfont
  0
ENDTAB
  0
TABLE
  2
VIEW
  5
6
330
0
100
AcDbSymbolTable
 70
     0
  0
ENDTAB
  0
TABLE
  2
UCS
  5
7
330
0
100
AcDbSymbolTable
 70
     0
  0
ENDTAB
  0
TABLE
  2
APPID
  5
9
330
0
100
AcDbSymbolTable
 70
     1
  0
APPID
  5
12
330
9
100
AcDbSymbolTableRecord
100
AcDbRegAppTableRecord
  2
ACAD
 70
     0
  0
ENDTAB
  0
TABLE
  2
DIMSTYLE
  5
A
330
0
100
AcDbSymbolTable
 70
     1
100
AcDbDimStyleTable
  0
DIMSTYLE
105
27
330
A
100
AcDbSymbolTableRecord
100
AcDbDimStyleTableRecord
  2
ISO-25
 70
     0
 41
2.5
 42
0.625
 43
3.75
 44
1.25
 73
     0
 74
     0
 77
     1
 78
     8
140
2.5
141
2.5
143
0.0393700787
147
0.625
171
     3
172
     1
178
     0
271
     2
272
     2
274
     3
278
    44
283
     0
284
     8
340
11
  0
ENDTAB
  0
TABLE
  2
BLOCK_RECORD
  5
1
330
0
100
AcDbSymbolTable
 70
     1
  0
BLOCK_RECORD
  5
1F
330
1
100
AcDbSymbolTableRecord
100
AcDbBlockTableRecord
  2
*Model_Space
340
22
  0
BLOCK_RECORD
  5
1B
330
1
100
AcDbSymbolTableRecord
100
AcDbBlockTableRecord
  2
*Paper_Space
340
1E
  0
BLOCK_RECORD
  5
23
330
1
100
AcDbSymbolTableRecord
100
AcDbBlockTableRecord
  2
*Paper_Space0
340
26
  0
ENDTAB
  0
ENDSEC
  0
SECTION
  2
BLOCKS
  0
BLOCK
  5
20
330
1F
100
AcDbEntity
  8
0
100
AcDbBlockBegin
  2
*Model_Space
 70
     0
 10
0.0
 20
0.0
 30
0.0
  3
*Model_Space
  1

  0
ENDBLK
  5
21
330
1F
100
AcDbEntity
  8
0
100
AcDbBlockEnd
  0
BLOCK
  5
1C
330
1B
100
AcDbEntity
 67
     1
  8
0
100
AcDbBlockBegin
  2
*Paper_Space
 70
     0
 10
0.0
 20
0.0
 30
0.0
  3
*Paper_Space
  1

  0
ENDBLK
  5
1D
330
1B
100
AcDbEntity
 67
     1
  8
0
100
AcDbBlockEnd
  0
BLOCK
  5
24
330
23
100
AcDbEntity
  8
0
100
AcDbBlockBegin
  2
*Paper_Space0
 70
     0
 10
0.0
 20
0.0
 30
0.0
  3
*Paper_Space0
  1

  0
ENDBLK
  5
25
330
23
100
AcDbEntity
  8
0
100
AcDbBlockEnd
  0
ENDSEC
  0
SECTION
  2
ENTITIES
  0
MTEXT
  5
74
330
1F
100
AcDbEntity
  8
0
  6
Continuous
 62
     7
370
     0
100
AcDbMText
 10
93.8987768657
 20
64.0630888104
 30
0.0
 40
2.6458333333
 41
0.0
 71
     1
 72
     1
  1
5R-RS1106
  7
SLDTEXTSTYLE0
 73
     1
 44
1.0
  0
LINE
  5
75
330
1F
100
AcDbEntity
  8
0
  6
Continuous
 62
     7
370
    25
100
AcDbLine
 10
82.3407096437
 20
56.9750174094
 30
0.0
 11
81.6604736915
 21
55.7968141791
 31
0.0
  0
LINE
  5
76
330
1F
100
AcDbEntity
  8
0
  6
Continuous
 62
     7
370
    25
100
AcDbLine
 10
81.6604736915
 20
44.2968141791
 30
0.0
 11
82.3407096437
 21
43.1186109488
 31
0.0
  0
ARC
  5
77
330
1F
100
AcDbEntity
  8
0
  6
Continuous
 62
     7
370
    25
100
AcDbCircle
 10
91.9491488261
 20
56.2968141791
 30
0.0
 40
0.5000000000000024
100
AcDbArc
 50
210.0
 51
270.0
  0
ARC
  5
78
330
1F
100
AcDbEntity
  8
0
  6
Continuous
 62
     7
370
    25
100
AcDbCircle
 10
91.9491488261
 20
43.7968141791
 30
0.0
 40
0.5000000000000024
100
AcDbArc
 50
90.0
 51
150.0
  0
LINE
  5
79
330
1F
100
AcDbEntity
  8
0
  6
Continuous
 62
     7
370
    25
100
AcDbLine
 10
92.4604736915
 20
55.7968141791
 30
0.0
 11
91.9491488261
 21
55.7968141791
 31
0.0
  0
LINE
  5
7A
330
1F
100
AcDbEntity
  8
0
  6
Continuous
 62
     7
370
    25
100
AcDbLine
 10
91.9491488261
 20
44.2968141791
 30
0.0
 11
92.4604736915
 21
44.2968141791
 31
0.0
  0
LINE
  5
7B
330
1F
100
AcDbEntity
  8
0
  6
Continuous
 62
     7
370
    25
100
AcDbLine
 10
92.4604736915
 20
44.2968141791
 30
0.0
 11
92.6604736915
 21
44.4968141791
 31
0.0
  0
LINE
  5
7C
330
1F
100
AcDbEntity
  8
0
  6
Continuous
 62
     7
370
    25
100
AcDbLine
 10
92.6604736915
 20
55.5968141791
 30
0.0
 11
92.4604736915
 21
55.7968141791
 31
0.0
  0
LINE
  5
7D
330
1F
100
AcDbEntity
  8
0
  6
Continuous
 62
     7
370
    25
100
AcDbLine
 10
91.5161361242
 20
56.0468141791
 30
0.0
 11
90.9802377393
 21
56.9750174094
 31
0.0
  0
LINE
  5
7E
330
1F
100
AcDbEntity
  8
0
  6
Continuous
 62
     7
370
    25
100
AcDbLine
 10
90.9802377393
 20
43.1186109488
 30
0.0
 11
91.5161361242
 21
44.0468141791
 31
0.0
  0
ARC
  5
7F
330
1F
100
AcDbEntity
  8
0
  6
Continuous
 62
     7
370
    25
100
AcDbCircle
 10
78.2008148759
 20
43.7968141791
 30
0.0
 40
0.5000000000000006
100
AcDbArc
 50
90.0
 51
150.0
  0
ARC
  5
80
330
1F
100
AcDbEntity
  8
0
  6
Continuous
 62
     7
370
    25
100
AcDbCircle
 10
78.2008148759
 20
56.2968141791
 30
0.0
 40
0.5000000000000006
100
AcDbArc
 50
210.0
 51
270.0
  0
LINE
  5
81
330
1F
100
AcDbEntity
  8
0
  6
Continuous
 62
     7
370
    25
100
AcDbLine
 10
78.7121397413
 20
44.2968141791
 30
0.0
 11
78.9121397413
 21
44.4968141791
 31
0.0
  0
LINE
  5
82
330
1F
100
AcDbEntity
  8
0
  6
Continuous
 62
     7
370
    25
100
AcDbLine
 10
78.9121397413
 20
55.5968141791
 30
0.0
 11
78.7121397413
 21
55.7968141791
 31
0.0
  0
LINE
  5
83
330
1F
100
AcDbEntity
  8
0
  6
Continuous
 62
     7
370
    25
100
AcDbLine
 10
78.7121397413
 20
55.7968141791
 30
0.0
 11
78.2008148759
 21
55.7968141791
 31
0.0
  0
LINE
  5
84
330
1F
100
AcDbEntity
  8
0
  6
Continuous
 62
     7
370
    25
100
AcDbLine
 10
78.2008148759
 20
44.2968141791
 30
0.0
 11
78.7121397413
 21
44.2968141791
 31
0.0
  0
LINE
  5
85
330
1F
100
AcDbEntity
  8
0
  6
Continuous
 62
     7
370
    25
100
AcDbLine
 10
72.9121397413
 20
55.0680016791
 30
0.0
 11
65.2670878008
 21
54.829093806
 31
0.0
  0
LINE
  5
86
330
1F
100
AcDbEntity
  8
0
  6
Continuous
 62
     7
370
    25
100
AcDbLine
 10
65.2670878008
 20
45.2645345522
 30
0.0
 11
72.9121397413
 21
45.0256266791
 31
0.0
  0
LINE
  5
87
330
1F
100
AcDbEntity
  8
0
  6
Continuous
 62
     7
370
    25
100
AcDbLine
 10
81.1121397413
 20
54.9108141791
 30
0.0
 11
80.4121397413
 21
54.2108141791
 31
0.0
  0
LINE
  5
88
330
1F
100
AcDbEntity
  8
0
  6
Continuous
 62
     7
370
    25
100
AcDbLine
 10
80.4121397413
 20
45.8828141791
 30
0.0
 11
81.1121397413
 21
45.1828141791
 31
0.0
  0
LINE
  5
89
330
1F
100
AcDbEntity
  8
0
  6
Continuous
 62
     7
370
    25
100
AcDbLine
 10
81.1121397413
 20
45.1828141791
 30
0.0
 11
81.6604736915
 21
45.1828141791
 31
0.0
  0
LINE
  5
8A
330
1F
100
AcDbEntity
  8
0
  6
Continuous
 62
     7
370
    25
100
AcDbLine
 10
81.6604736915
 20
54.9108141791
 30
0.0
 11
81.1121397413
 21
54.9108141791
 31
0.0
  0
LINE
  5
8B
330
1F
100
AcDbEntity
  8
0
  6
Continuous
 62
     7
370
    25
100
AcDbLine
 10
65.2670878008
 20
54.829093806
 30
0.0
 11
63.9121397413
 21
54.0468141791
 31
0.0
  0
LINE
  5
8C
330
1F
100
AcDbEntity
  8
0
  6
Continuous
 62
     7
370
    25
100
AcDbLine
 10
63.9121397413
 20
46.0468141791
 30
0.0
 11
65.2670878008
 21
45.2645345522
 31
0.0
  0
LINE
  5
8D
330
1F
100
AcDbEntity
  8
0
  6
Continuous
 62
     7
370
    25
100
AcDbLine
 10
78.9121397413
 20
46.1468141791
 30
0.0
 11
80.4121397413
 21
46.1468141791
 31
0.0
  0
LINE
  5
8E
330
1F
100
AcDbEntity
  8
0
  6
Continuous
 62
     7
370
    25
100
AcDbLine
 10
80.4121397413
 20
53.9468141791
 30
0.0
 11
78.9121397413
 21
53.9468141791
 31
0.0
  0
LINE
  5
8F
330
1F
100
AcDbEntity
  8
0
  6
Continuous
 62
     7
370
    25
100
AcDbLine
 10
77.767802174
 20
56.0468141791
 30
0.0
 11
77.2319037892
 21
56.9750174094
 31
0.0
  0
LINE
  5
90
330
1F
100
AcDbEntity
  8
0
  6
Continuous
 62
     7
370
    25
100
AcDbLine
 10
77.2319037892
 20
43.1186109488
 30
0.0
 11
77.767802174
 21
44.0468141791
 31
0.0
  0
SPLINE
  5
91
330
1F
100
AcDbEntity
  8
0
  6
Continuous
 62
     7
370
    25
100
AcDbSpline
210
0.0
220
0.0
230
1.0
 70
     8
 71
     3
 72
    16
 73
    12
 74
     0
 42
0.000000001
 43
0.00000001
 40
0.0
 40
0.0
 40
0.0
 40
0.0
 40
0.1130223886251227
 40
0.2387024512201667
 40
0.3643500542235876
 40
0.4930894900811555
 40
0.6218274355442566
 40
0.7158584889512427
 40
0.8098993986606198
 40
0.9049449862565128
 40
1.0
 40
1.0
 40
1.0
 40
1.0
 10
82.34070964365779
 20
46.58271256396674
 30
0.0
 10
82.27045260088107
 20
46.83824539410377
 30
0.0
 10
82.12207024469225
 20
47.37792884676241
 30
0.0
 10
81.95256691395505
 20
48.21590433022171
 30
0.0
 10
81.8349760311111
 20
49.09992293616119
 30
0.0
 10
81.79234330095193
 20
49.99824169490988
 30
0.0
 10
81.82390865022867
 20
50.82273739861287
 30
0.0
 10
81.90721268557687
 20
51.56119561906857
 30
0.0
 10
82.01877167774772
 20
52.21575169302391
 30
0.0
 10
82.16215574968439
 20
52.86660769087966
 30
0.0
 10
82.28118971156506
 20
53.29613932700568
 30
0.0
 10
82.34070964365779
 20
53.51091579424227
 30
0.0
  0
SPLINE
  5
92
330
1F
100
AcDbEntity
  8
0
  6
Continuous
 62
     7
370
    25
100
AcDbSpline
210
0.0
220
0.0
230
1.0
 70
     8
 71
     3
 72
    15
 73
    11
 74
     0
 42
0.000000001
 43
0.00000001
 40
0.0
 40
0.0
 40
0.0
 40
0.0
 40
0.1323034284088744
 40
0.2645694515465797
 40
0.3997942148562055
 40
0.5349945762150088
 40
0.6501872613016998
 40
0.7653979157221119
 40
0.8826876171264815
 40
1.0
 40
1.0
 40
1.0
 40
1.0
 10
82.3407096436578
 20
43.11861094882898
 30
0.0
 10
82.25913189330167
 20
43.26827186455053
 30
0.0
 10
82.0959994565259
 20
43.56755138335517
 30
0.0
 10
81.9204740188689
 20
44.02841511821667
 30
0.0
 10
81.81493352777771
 20
44.49796606937132
 30
0.0
 10
81.79402825737978
 20
44.95051225013844
 30
0.0
 10
81.84825163853309
 20
45.37861420075874
 30
0.0
 10
81.95936365390598
 20
45.78264176830935
 30
0.0
 10
82.12235500528442
 20
46.18484267365385
 30
0.0
 10
82.2679200730942
 20
46.45008071940507
 30
0.0
 10
82.34070964365779
 20
46.58271256396674
 30
0.0
  0
SPLINE
  5
93
330
1F
100
AcDbEntity
  8
0
  6
Continuous
 62
     7
370
    25
100
AcDbSpline
210
0.0
220
0.0
230
1.0
 70
     8
 71
     3
 72
    15
 73
    11
 74
     0
 42
0.000000001
 43
0.00000001
 40
0.0
 40
0.0
 40
0.0
 40
0.0
 40
0.1323034284088758
 40
0.2645694515465826
 40
0.3997942148562103
 40
0.5349945762150153
 40
0.6501872613017048
 40
0.7653979157221152
 40
0.8826876171264832
 40
1.0
 40
1.0
 40
1.0
 40
1.0
 10
82.34070964365779
 20
53.51091579424227
 30
0.0
 10
82.25913189330166
 20
53.66057670996383
 30
0.0
 10
82.0959994565259
 20
53.95985622876846
 30
0.0
 10
81.92047401886892
 20
54.42071996362996
 30
0.0
 10
81.81493352777773
 20
54.89027091478461
 30
0.0
 10
81.79402825737981
 20
55.34281709555173
 30
0.0
 10
81.8482516385331
 20
55.77091904617202
 30
0.0
 10
81.959363653906
 20
56.17494661372262
 30
0.0
 10
82.12235500528443
 20
56.57714751906712
 30
0.0
 10
82.2679200730942
 20
56.84238556481833
 30
0.0
 10
82.3407096436578
 20
56.97501740938
 30
0.0
  0
LINE
  5
94
330
1F
100
AcDbEntity
  8
0
  6
Continuous
 62
     7
370
    25
100
AcDbLine
 10
81.6604736915
 20
50.0468141791
 30
0.0
 11
81.6604736915
 21
55.7968141791
 31
0.0
  0
LINE
  5
95
330
1F
100
AcDbEntity
  8
0
  6
Continuous
 62
     7
370
    25
100
AcDbLine
 10
81.6604736915
 20
44.2968141791
 30
0.0
 11
81.6604736915
 21
50.0468141791
 31
0.0
  0
SPLINE
  5
96
330
1F
100
AcDbEntity
  8
0
  6
Continuous
 62
     7
370
    25
100
AcDbSpline
210
0.0
220
0.0
230
1.0
 70
     8
 71
     3
 72
    12
 73
     8
 74
     0
 42
0.000000001
 43
0.00000001
 40
0.0
 40
0.0
 40
0.0
 40
0.0
 40
0.0700388419389851
 40
0.3004119028624834
 40
0.5308209005332588
 40
0.765387770009328
 40
0.9999999999999999
 40
0.9999999999999999
 40
0.9999999999999999
 40
0.9999999999999999
 10
91.51613612420071
 20
55.24296660181113
 30
0.0
 10
91.51553311283445
 20
55.20191732134454
 30
0.0
 10
91.51294666527228
 20
55.0258479844636
 30
0.0
 10
91.47235996381254
 20
54.71500046854413
 30
0.0
 10
91.36167508216553
 20
54.31099031412757
 30
0.0
 10
91.19856936432313
 20
53.908784746359
 30
0.0
 10
91.05301963827809
 20
53.64354732605173
 30
0.0
 10
90.98023773933849
 20
53.51091579424227
 30
0.0
  0
LINE
  5
97
330
1F
100
AcDbEntity
  8
0
  6
Continuous
 62
     7
370
    25
100
AcDbLine
 10
91.5161361242
 20
50.0468141791
 30
0.0
 11
91.5161361242
 21
55.2429666018
 31
0.0
  0
SPLINE
  5
98
330
1F
100
AcDbEntity
  8
0
  6
Continuous
 62
     7
370
    25
100
AcDbSpline
210
0.0
220
0.0
230
1.0
 70
     8
 71
     3
 72
    12
 73
     8
 74
     0
 42
0.000000001
 43
0.00000001
 40
0.0
 40
0.0
 40
0.0
 40
0.0
 40
0.1874471619102472
 40
0.3748765475261017
 40
0.5640623755679541
 40
0.7532279557308604
 40
0.9999999999999999
 40
0.9999999999999999
 40
0.9999999999999999
 40
0.9999999999999999
 10
90.98023773933849
 20
53.51091579424227
 30
0.0
 10
91.03894555523964
 20
53.29914882052481
 30
0.0
 10
91.15635561956678
 20
52.87563495572024
 30
0.0
 10
91.29950065720742
 20
52.22974094309696
 30
0.0
 10
91.41117195434535
 20
51.57583452220926
 30
0.0
 10
91.49704661366619
 20
50.84733396102057
 30
0.0
 10
91.5092360351077
 20
50.33616983366428
 30
0.0
 10
91.51613612420073
 20
50.04681417910451
 30
0.0
  0
SPLINE
  5
99
330
1F
100
AcDbEntity
  8
0
  6
Continuous
 62
     7
370
    25
100
AcDbSpline
210
0.0
220
0.0
230
1.0
 70
     8
 71
     3
 72
    12
 73
     8
 74
     0
 42
0.000000001
 43
0.00000001
 40
0.0
 40
0.0
 40
0.0
 40
0.0
 40
0.1911385458921326
 40
0.3822891756203943
 40
0.5761623698022401
 40
0.7700589757435052
 40
1.0
 40
1.0
 40
1.0
 40
1.0
 10
91.51613612420073
 20
50.04681417910451
 30
0.0
 10
91.51187045300632
 20
49.8227219941687
 30
0.0
 10
91.50333884094049
 20
49.37452345712204
 30
0.0
 10
91.43652125781995
 20
48.70175240942068
 30
0.0
 10
91.33175396548258
 20
48.03104579864567
 30
0.0
 10
91.1834047713524
 20
47.32183912106473
 30
0.0
 10
91.0516937820192
 20
46.84267136873402
 30
0.0
 10
90.98023773933849
 20
46.58271256396674
 30
0.0
  0
LINE
  5
9A
330
1F
100
AcDbEntity
  8
0
  6
Continuous
 62
     7
370
    25
100
AcDbLine
 10
82.3407096437
 20
46.582712564
 30
0.0
 11
90.9802377393
 21
46.582712564
 31
0.0
  0
LINE
  5
9B
330
1F
100
AcDbEntity
  8
0
  6
Continuous
 62
     7
370
    25
100
AcDbLine
 10
82.3407096437
 20
53.5109157942
 30
0.0
 11
90.9802377393
 21
53.5109157942
 31
0.0
  0
LINE
  5
9C
330
1F
100
AcDbEntity
  8
0
  6
Continuous
 62
     7
370
    25
100
AcDbLine
 10
91.5161361242
 20
44.8506617564
 30
0.0
 11
91.5161361242
 21
50.0468141791
 31
0.0
  0
SPLINE
  5
9D
330
1F
100
AcDbEntity
  8
0
  6
Continuous
 62
     7
370
    25
100
AcDbSpline
210
0.0
220
0.0
230
1.0
 70
     8
 71
     3
 72
    11
 73
     7
 74
     0
 42
0.000000001
 43
0.00000001
 40
0.0
 40
0.0
 40
0.0
 40
0.0
 40
0.2477111816679852
 40
0.495365492733121
 40
0.7477052806358118
 40
1.0
 40
1.0
 40
1.0
 40
1.0
 10
90.98023773933849
 20
46.58271256396674
 30
0.0
 10
91.05695245934136
 20
46.44264971438214
 30
0.0
 10
91.21036428685039
 20
46.16255617144679
 30
0.0
 10
91.37908487261562
 20
45.7322268049971
 30
0.0
 10
91.49376867802194
 20
45.29440518663158
 30
0.0
 10
91.50868075273662
 20
44.99856742612449
 30
0.0
 10
91.51613612420073
 20
44.85066175639787
 30
0.0
  0
LINE
  5
9E
330
1F
100
AcDbEntity
  8
0
  6
Continuous
 62
     7
370
    25
100
AcDbLine
 10
82.3407096437
 20
56.9750174094
 30
0.0
 11
90.9802377393
 21
56.9750174094
 31
0.0
  0
SPLINE
  5
9F
330
1F
100
AcDbEntity
  8
0
  6
Continuous
 62
     7
370
    25
100
AcDbSpline
210
0.0
220
0.0
230
1.0
 70
     8
 71
     3
 72
    11
 73
     7
 74
     0
 42
0.000000001
 43
0.00000001
 40
0.0
 40
0.0
 40
0.0
 40
0.0
 40
0.2477111816679851
 40
0.4953654927331209
 40
0.7477052806358114
 40
0.9999999999999999
 40
0.9999999999999999
 40
0.9999999999999999
 40
0.9999999999999999
 10
90.98023773933849
 20
56.97501740938
 30
0.0
 10
91.05695245934135
 20
56.83495455979539
 30
0.0
 10
91.21036428685039
 20
56.55486101686004
 30
0.0
 10
91.37908487261562
 20
56.12453165041035
 30
0.0
 10
91.49376867802192
 20
55.68671003204484
 30
0.0
 10
91.50868075273661
 20
55.39087227153775
 30
0.0
 10
91.51613612420071
 20
55.24296660181113
 30
0.0
  0
SPLINE
  5
A0
330
1F
100
AcDbEntity
  8
0
  6
Continuous
 62
     7
370
    25
100
AcDbSpline
210
0.0
220
0.0
230
1.0
 70
     8
 71
     3
 72
    12
 73
     8
 74
     0
 42
0.000000001
 43
0.00000001
 40
0.0
 40
0.0
 40
0.0
 40
0.0
 40
0.070038841938972
 40
0.3004119028624735
 40
0.5308209005332518
 40
0.7653877700093245
 40
1.0
 40
1.0
 40
1.0
 40
1.0
 10
91.51613612420073
 20
44.85066175639787
 30
0.0
 10
91.51553311283446
 20
44.80961247593128
 30
0.0
 10
91.5129466652723
 20
44.63354313905035
 30
0.0
 10
91.47235996381255
 20
44.32269562313086
 30
0.0
 10
91.36167508216555
 20
43.9186854687143
 30
0.0
 10
91.19856936432315
 20
43.51647990094571
 30
0.0
 10
91.05301963827809
 20
43.25124248063845
 30
0.0
 10
90.98023773933849
 20
43.11861094882898
 30
0.0
  0
LINE
  5
A1
330
1F
100
AcDbEntity
  8
0
  6
Continuous
 62
     7
370
    25
100
AcDbLine
 10
82.3407096437
 20
43.1186109488
 30
0.0
 11
90.9802377393
 21
43.1186109488
 31
0.0
  0
LINE
  5
A2
330
1F
100
AcDbEntity
  8
0
  6
Continuous
 62
     7
370
    25
100
AcDbLine
 10
92.4604736915
 20
50.0468141791
 30
0.0
 11
92.4604736915
 21
55.7968141791
 31
0.0
  0
LINE
  5
A3
330
1F
100
AcDbEntity
  8
0
  6
Continuous
 62
     7
370
    25
100
AcDbLine
 10
92.4604736915
 20
44.2968141791
 30
0.0
 11
92.4604736915
 21
50.0468141791
 31
0.0
  0
LINE
  5
A4
330
1F
100
AcDbEntity
  8
0
  6
Continuous
 62
     7
370
    25
100
AcDbLine
 10
92.6604736915
 20
50.0468141791
 30
0.0
 11
92.6604736915
 21
44.4968141791
 31
0.0
  0
LINE
  5
A5
330
1F
100
AcDbEntity
  8
0
  6
Continuous
 62
     7
370
    25
100
AcDbLine
 10
92.6604736915
 20
55.5968141791
 30
0.0
 11
92.6604736915
 21
50.0468141791
 31
0.0
  0
LINE
  5
A6
330
1F
100
AcDbEntity
  8
0
  6
Continuous
 62
     7
370
    25
100
AcDbLine
 10
72.9121397413
 20
56.9750174094
 30
0.0
 11
72.9121397413
 21
53.5109157942
 31
0.0
  0
LINE
  5
A7
330
1F
100
AcDbEntity
  8
0
  6
Continuous
 62
     7
370
    25
100
AcDbLine
 10
77.2319037892
 20
56.9750174094
 30
0.0
 11
72.9121397413
 21
56.9750174094
 31
0.0
  0
SPLINE
  5
A8
330
1F
100
AcDbEntity
  8
0
  6
Continuous
 62
     7
370
    25
100
AcDbSpline
210
0.0
220
0.0
230
1.0
 70
     8
 71
     3
 72
    12
 73
     8
 74
     0
 42
0.000000001
 43
0.00000001
 40
0.0
 40
0.0
 40
0.0
 40
0.0
 40
0.2500000000000001
 40
0.2500000000000001
 40
0.5000000000000001
 40
0.5000000000000001
 40
1.0
 40
1.0
 40
1.0
 40
1.0
 10
77.76780217404027
 20
55.24296660181112
 30
0.0
 10
77.76780217404027
 20
55.38996031175368
 30
0.0
 10
77.75513551454775
 20
55.53761309636216
 30
0.0
 10
77.70611705076958
 20
55.82970114459611
 30
0.0
 10
77.66981236088813
 20
55.97476825096428
 30
0.0
 10
77.52978901082766
 20
56.40739305220821
 30
0.0
 10
77.39508211721939
 20
56.69238425451873
 30
0.0
 10
77.2319037891783
 20
56.97501740938003
 30
0.0
  0
SPLINE
  5
A9
330
1F
100
AcDbEntity
  8
0
  6
Continuous
 62
     7
370
    25
100
AcDbSpline
210
0.0
220
0.0
230
1.0
 70
     8
 71
     3
 72
     8
 73
     4
 74
     0
 42
0.000000001
 43
0.00000001
 40
0.0
 40
0.0
 40
0.0
 40
0.0
 40
1.0
 40
1.0
 40
1.0
 40
1.0
 10
77.23190378917859
 20
53.51091579424219
 30
0.0
 10
77.55907719751006
 20
54.07759676035779
 30
0.0
 10
77.76780217404027
 20
54.65278558293631
 30
0.0
 10
77.76780217404027
 20
55.24296660181112
 30
0.0
  0
LINE
  5
AA
330
1F
100
AcDbEntity
  8
0
  6
Continuous
 62
     7
370
    25
100
AcDbLine
 10
77.2319037892
 20
53.5109157942
 30
0.0
 11
72.9121397413
 21
53.5109157942
 31
0.0
  0
LINE
  5
AB
330
1F
100
AcDbEntity
  8
0
  6
Continuous
 62
     7
370
    25
100
AcDbLine
 10
72.9121397413
 20
53.5109157942
 30
0.0
 11
72.9121397413
 21
46.582712564
 31
0.0
  0
SPLINE
  5
AC
330
1F
100
AcDbEntity
  8
0
  6
Continuous
 62
     7
370
    25
100
AcDbSpline
210
0.0
220
0.0
230
1.0
 70
     8
 71
     3
 72
    10
 73
     6
 74
     0
 42
0.000000001
 43
0.00000001
 40
0.0
 40
0.0
 40
0.0
 40
0.0
 40
0.5
 40
0.5
 40
1.0
 40
1.0
 40
1.0
 40
1.0
 10
77.76780217404026
 20
50.04681417910447
 30
0.0
 10
77.76780217404026
 20
50.63304300559673
 30
0.0
 10
77.71599528758242
 20
51.22693633317556
 30
0.0
 10
77.52824494782314
 20
52.38328950813991
 30
0.0
 10
77.39362760610499
 20
52.95068805881925
 30
0.0
 10
77.231903789178
 20
53.51091579424224
 30
0.0
  0
SPLINE
  5
AD
330
1F
100
AcDbEntity
  8
0
  6
Continuous
 62
     7
370
    25
100
AcDbSpline
210
0.0
220
0.0
230
1.0
 70
     8
 71
     3
 72
    10
 73
     6
 74
     0
 42
0.000000001
 43
0.00000001
 40
0.0
 40
0.0
 40
0.0
 40
0.0
 40
0.5
 40
0.5
 40
1.0
 40
1.0
 40
1.0
 40
1.0
 10
77.23190378917802
 20
46.58271256396669
 30
0.0
 10
77.39467273339798
 20
47.14656072653329
 30
0.0
 10
77.53099689500607
 20
47.72342360544113
 30
0.0
 10
77.71741767830926
 20
48.87940417817608
 30
0.0
 10
77.76780217404026
 20
49.46099258906592
 30
0.0
 10
77.76780217404026
 20
50.04681417910447
 30
0.0
  0
LINE
  5
AE
330
1F
100
AcDbEntity
  8
0
  6
Continuous
 62
     7
370
    25
100
AcDbLine
 10
77.2319037892
 20
46.582712564
 30
0.0
 11
72.9121397413
 21
46.582712564
 31
0.0
  0
LINE
  5
AF
330
1F
100
AcDbEntity
  8
0
  6
Continuous
 62
     7
370
    25
100
AcDbLine
 10
77.767802174
 20
44.8506617564
 30
0.0
 11
77.767802174
 21
50.0468141791
 31
0.0
  0
SPLINE
  5
B0
330
1F
100
AcDbEntity
  8
0
  6
Continuous
 62
     7
370
    25
100
AcDbSpline
210
0.0
220
0.0
230
1.0
 70
     8
 71
     3
 72
    12
 73
     8
 74
     0
 42
0.000000001
 43
0.00000001
 40
0.0
 40
0.0
 40
0.0
 40
0.0
 40
0.25
 40
0.25
 40
0.5
 40
0.5
 40
1.0
 40
1.0
 40
1.0
 40
1.0
 10
77.76780217404027
 20
44.85066175639784
 30
0.0
 10
77.76780217404027
 20
44.9976554663404
 30
0.0
 10
77.75513551454775
 20
45.14530825094888
 30
0.0
 10
77.70611705076958
 20
45.43739629918282
 30
0.0
 10
77.66981236088813
 20
45.58246340555099
 30
0.0
 10
77.52978901082766
 20
46.01508820679491
 30
0.0
 10
77.39508211721939
 20
46.30007940910544
 30
0.0
 10
77.2319037891783
 20
46.58271256396673
 30
0.0
  0
LINE
  5
B1
330
1F
100
AcDbEntity
  8
0
  6
Continuous
 62
     7
370
    25
100
AcDbLine
 10
77.767802174
 20
50.0468141791
 30
0.0
 11
77.767802174
 21
55.2429666018
 31
0.0
  0
SPLINE
  5
B2
330
1F
100
AcDbEntity
  8
0
  6
Continuous
 62
     7
370
    25
100
AcDbSpline
210
0.0
220
0.0
230
1.0
 70
     8
 71
     3
 72
     8
 73
     4
 74
     0
 42
0.000000001
 43
0.00000001
 40
0.0
 40
0.0
 40
0.0
 40
0.0
 40
1.0
 40
1.0
 40
1.0
 40
1.0
 10
77.23190378917859
 20
43.11861094882893
 30
0.0
 10
77.55907719751006
 20
43.68529191494451
 30
0.0
 10
77.76780217404027
 20
44.26048073752304
 30
0.0
 10
77.76780217404027
 20
44.85066175639784
 30
0.0
  0
LINE
  5
B3
330
1F
100
AcDbEntity
  8
0
  6
Continuous
 62
     7
370
    25
100
AcDbLine
 10
77.2319037892
 20
43.1186109488
 30
0.0
 11
72.9121397413
 21
43.1186109488
 31
0.0
  0
LINE
  5
B4
330
1F
100
AcDbEntity
  8
0
  6
Continuous
 62
     7
370
    25
100
AcDbLine
 10
72.9121397413
 20
46.582712564
 30
0.0
 11
72.9121397413
 21
43.1186109488
 31
0.0
  0
LINE
  5
B5
330
1F
100
AcDbEntity
  8
0
  6
Continuous
 62
     7
370
    25
100
AcDbLine
 10
78.9121397413
 20
55.5968141791
 30
0.0
 11
78.9121397413
 21
44.4968141791
 31
0.0
  0
LINE
  5
B6
330
1F
100
AcDbEntity
  8
0
  6
Continuous
 62
     7
370
    25
100
AcDbLine
 10
78.7121397413
 20
44.2968141791
 30
0.0
 11
78.7121397413
 21
55.7968141791
 31
0.0
  0
LINE
  5
B7
330
1F
100
AcDbEntity
  8
0
  6
Continuous
 62
     7
370
    25
100
AcDbLine
 10
65.2670878008
 20
54.829093806
 30
0.0
 11
65.2670878008
 21
45.2645345522
 31
0.0
  0
LINE
  5
B8
330
1F
100
AcDbEntity
  8
0
  6
Continuous
 62
     7
370
    25
100
AcDbLine
 10
80.4121397413
 20
45.8828141791
 30
0.0
 11
80.4121397413
 21
54.2108141791
 31
0.0
  0
LINE
  5
B9
330
1F
100
AcDbEntity
  8
0
  6
Continuous
 62
     7
370
    25
100
AcDbLine
 10
81.1121397413
 20
54.9108141791
 30
0.0
 11
81.1121397413
 21
45.1828141791
 31
0.0
  0
LINE
  5
BA
330
1F
100
AcDbEntity
  8
0
  6
Continuous
 62
     7
370
    25
100
AcDbLine
 10
63.9121397413
 20
54.0468141791
 30
0.0
 11
63.9121397413
 21
46.0468141791
 31
0.0
  0
LINE
  5
BB
330
1F
100
AcDbEntity
  8
0
  6
Continuous
 62
     1
370
    25
100
AcDbLine
 10
91.9491488261
 20
55.7968141791
 30
0.0
 11
91.9491488261
 21
44.2968141791
 31
0.0
  0
LINE
  5
BC
330
1F
100
AcDbEntity
  8
0
  6
Continuous
 62
     1
370
    25
100
AcDbLine
 10
91.5161361242
 20
55.2429666018
 30
0.0
 11
91.5161361242
 21
56.0468141791
 31
0.0
  0
LINE
  5
BD
330
1F
100
AcDbEntity
  8
0
  6
Continuous
 62
     1
370
    25
100
AcDbLine
 10
91.5161361242
 20
44.0468141791
 30
0.0
 11
91.5161361242
 21
44.8506617564
 31
0.0
  0
LINE
  5
BE
330
1F
100
AcDbEntity
  8
0
  6
Continuous
 62
     1
370
    25
100
AcDbLine
 10
77.767802174
 20
55.2429666018
 30
0.0
 11
77.767802174
 21
56.0468141791
 31
0.0
  0
LINE
  5
BF
330
1F
100
AcDbEntity
  8
0
  6
Continuous
 62
     1
370
    25
100
AcDbLine
 10
77.767802174
 20
44.0468141791
 30
0.0
 11
77.767802174
 21
44.8506617564
 31
0.0
  0
LINE
  5
C0
330
1F
100
AcDbEntity
  8
0
  6
Continuous
 62
     1
370
    25
100
AcDbLine
 10
78.2008148759
 20
50.0468141791
 30
0.0
 11
78.2008148759
 21
44.2968141791
 31
0.0
  0
LINE
  5
C1
330
1F
100
AcDbEntity
  8
0
  6
Continuous
 62
     1
370
    25
100
AcDbLine
 10
78.2008148759
 20
55.7968141791
 30
0.0
 11
78.2008148759
 21
50.0468141791
 31
0.0
  0
LINE
  5
C2
330
1F
100
AcDbEntity
  8
0
  6
Continuous
 62
     7
370
     0
100
AcDbLine
 10
85.7121397413
 20
45.6828141791
 30
0.0
 11
80.6121397413
 21
45.6828141791
 31
0.0
  0
LINE
  5
C3
330
1F
100
AcDbEntity
  8
0
  6
Continuous
 62
     7
370
     0
100
AcDbLine
 10
85.7121397413
 20
54.4108141791
 30
0.0
 11
80.6121397413
 21
54.4108141791
 31
0.0
  0
LINE
  5
C4
330
1F
100
AcDbEntity
  8
0
  6
Continuous
 62
     7
370
     0
100
AcDbLine
 10
64.4303595921
 20
54.3460085494
 30
0.0
 11
72.9121397413
 21
54.6110641791
 31
0.0
  0
LINE
  5
C5
330
1F
100
AcDbEntity
  8
0
  6
Continuous
 62
     7
370
     0
100
AcDbLine
 10
64.4303595921
 20
45.7476198088
 30
0.0
 11
72.9121397413
 21
45.4825641791
 31
0.0
  0
LINE
  5
C6
330
1F
100
AcDbEntity
  8
0
  6
Continuous
 62
     7
370
    25
100
AcDbLine
 10
81.8048112588
 20
84.6422858209
 30
0.0
 11
81.6604736915
 21
84.3922858209
 31
0.0
  0
LINE
  5
C7
330
1F
100
AcDbEntity
  8
0
  6
Continuous
 62
     7
370
    25
100
AcDbLine
 10
81.6604736915
 20
72.8922858209
 30
0.0
 11
81.8048112588
 21
72.6422858209
 31
0.0
  0
ARC
  5
C8
330
1F
100
AcDbEntity
  8
0
  6
Continuous
 62
     7
370
    25
100
AcDbCircle
 10
91.9491488261
 20
84.8922858209
 30
0.0
 40
0.5000000000000112
100
AcDbArc
 50
210.0
 51
270.0
  0
ARC
  5
C9
330
1F
100
AcDbEntity
  8
0
  6
Continuous
 62
     7
370
    25
100
AcDbCircle
 10
91.9491488261
 20
72.3922858209
 30
0.0
 40
0.5000000000000041
100
AcDbArc
 50
90.0
 51
150.0
  0
LINE
  5
CA
330
1F
100
AcDbEntity
  8
0
  6
Continuous
 62
     7
370
    25
100
AcDbLine
 10
92.4604736915
 20
72.8922858209
 30
0.0
 11
92.6604736915
 21
73.0922858209
 31
0.0
  0
LINE
  5
CB
330
1F
100
AcDbEntity
  8
0
  6
Continuous
 62
     7
370
    25
100
AcDbLine
 10
92.6604736915
 20
84.1922858209
 30
0.0
 11
92.4604736915
 21
84.3922858209
 31
0.0
  0
LINE
  5
CC
330
1F
100
AcDbEntity
  8
0
  6
Continuous
 62
     7
370
    25
100
AcDbLine
 10
92.4604736915
 20
84.3922858209
 30
0.0
 11
91.9491488261
 21
84.3922858209
 31
0.0
  0
LINE
  5
CD
330
1F
100
AcDbEntity
  8
0
  6
Continuous
 62
     7
370
    25
100
AcDbLine
 10
91.9491488261
 20
72.8922858209
 30
0.0
 11
92.4604736915
 21
72.8922858209
 31
0.0
  0
ARC
  5
CE
330
1F
100
AcDbEntity
  8
0
  6
Continuous
 62
     7
370
    25
100
AcDbCircle
 10
78.2008148759
 20
72.3922858209
 30
0.0
 40
0.5000000000000041
100
AcDbArc
 50
90.0
 51
150.0
  0
ARC
  5
CF
330
1F
100
AcDbEntity
  8
0
  6
Continuous
 62
     7
370
    25
100
AcDbCircle
 10
78.2008148759
 20
84.8922858209
 30
0.0
 40
0.5
100
AcDbArc
 50
210.0
 51
270.0
  0
LINE
  5
D0
330
1F
100
AcDbEntity
  8
0
  6
Continuous
 62
     7
370
    25
100
AcDbLine
 10
78.7121397413
 20
84.3922858209
 30
0.0
 11
78.2008148759
 21
84.3922858209
 31
0.0
  0
LINE
  5
D1
330
1F
100
AcDbEntity
  8
0
  6
Continuous
 62
     7
370
    25
100
AcDbLine
 10
78.2008148759
 20
72.8922858209
 30
0.0
 11
78.7121397413
 21
72.8922858209
 31
0.0
  0
LINE
  5
D2
330
1F
100
AcDbEntity
  8
0
  6
Continuous
 62
     7
370
    25
100
AcDbLine
 10
78.7121397413
 20
72.8922858209
 30
0.0
 11
78.9121397413
 21
73.0922858209
 31
0.0
  0
LINE
  5
D3
330
1F
100
AcDbEntity
  8
0
  6
Continuous
 62
     7
370
    25
100
AcDbLine
 10
78.9121397413
 20
84.1922858209
 30
0.0
 11
78.7121397413
 21
84.3922858209
 31
0.0
  0
LINE
  5
D4
330
1F
100
AcDbEntity
  8
0
  6
Continuous
 62
     7
370
    25
100
AcDbLine
 10
72.9121397413
 20
83.6634733209
 30
0.0
 11
65.2670878008
 21
83.4245654478
 31
0.0
  0
LINE
  5
D5
330
1F
100
AcDbEntity
  8
0
  6
Continuous
 62
     7
370
    25
100
AcDbLine
 10
65.2670878008
 20
73.860006194
 30
0.0
 11
72.9121397413
 21
73.6210983209
 31
0.0
  0
LINE
  5
D6
330
1F
100
AcDbEntity
  8
0
  6
Continuous
 62
     7
370
    25
100
AcDbLine
 10
81.1121397413
 20
73.7782858209
 30
0.0
 11
81.6604736915
 21
73.7782858209
 31
0.0
  0
LINE
  5
D7
330
1F
100
AcDbEntity
  8
0
  6
Continuous
 62
     7
370
    25
100
AcDbLine
 10
81.6604736915
 20
83.5062858209
 30
0.0
 11
81.1121397413
 21
83.5062858209
 31
0.0
  0
LINE
  5
D8
330
1F
100
AcDbEntity
  8
0
  6
Continuous
 62
     7
370
    25
100
AcDbLine
 10
81.1121397413
 20
83.5062858209
 30
0.0
 11
80.4121397413
 21
82.8062858209
 31
0.0
  0
LINE
  5
D9
330
1F
100
AcDbEntity
  8
0
  6
Continuous
 62
     7
370
    25
100
AcDbLine
 10
80.4121397413
 20
74.4782858209
 30
0.0
 11
81.1121397413
 21
73.7782858209
 31
0.0
  0
LINE
  5
DA
330
1F
100
AcDbEntity
  8
0
  6
Continuous
 62
     7
370
    25
100
AcDbLine
 10
65.2670878008
 20
83.4245654478
 30
0.0
 11
63.9121397413
 21
82.6422858209
 31
0.0
  0
LINE
  5
DB
330
1F
100
AcDbEntity
  8
0
  6
Continuous
 62
     7
370
    25
100
AcDbLine
 10
63.9121397413
 20
74.6422858209
 30
0.0
 11
65.2670878008
 21
73.860006194
 31
0.0
  0
LINE
  5
DC
330
1F
100
AcDbEntity
  8
0
  6
Continuous
 62
     7
370
    25
100
AcDbLine
 10
78.9121397413
 20
74.7422858209
 30
0.0
 11
80.4121397413
 21
74.7422858209
 31
0.0
  0
LINE
  5
DD
330
1F
100
AcDbEntity
  8
0
  6
Continuous
 62
     7
370
    25
100
AcDbLine
 10
80.4121397413
 20
82.5422858209
 30
0.0
 11
78.9121397413
 21
82.5422858209
 31
0.0
  0
SPLINE
  5
DE
330
1F
100
AcDbEntity
  8
0
  6
Continuous
 62
     7
370
    25
100
AcDbSpline
210
0.0
220
0.0
230
1.0
 70
     8
 71
     3
 72
    12
 73
     8
 74
     0
 42
0.000000001
 43
0.00000001
 40
0.0
 40
0.0
 40
0.0
 40
0.0
 40
0.0700385718644583
 40
0.2997996769400305
 40
0.530822494558588
 40
0.7650211555547353
 40
1.0
 40
1.0
 40
1.0
 40
1.0
 10
91.51613612420073
 20
81.6422858208955
 30
0.0
 10
91.51552949830433
 20
81.57118661879588
 30
0.0
 10
91.51293283987849
 20
81.26684692064482
 30
0.0
 10
91.47274351380382
 20
80.72841731502992
 30
0.0
 10
91.36178882061971
 20
80.02904618598075
 30
0.0
 10
91.19870814362311
 20
79.33177340552157
 30
0.0
 10
91.05314189358285
 20
78.87236965940788
 30
0.0
 10
90.98023773933849
 20
78.64228582089548
 30
0.0
  0
LINE
  5
DF
330
1F
100
AcDbEntity
  8
0
  6
Continuous
 62
     7
370
    25
100
AcDbLine
 10
82.3407096437
 20
78.6422858209
 30
0.0
 11
90.9802377393
 21
78.6422858209
 31
0.0
  0
SPLINE
  5
E0
330
1F
100
AcDbEntity
  8
0
  6
Continuous
 62
     7
370
    25
100
AcDbSpline
210
0.0
220
0.0
230
1.0
 70
     8
 71
     3
 72
    15
 73
    11
 74
     0
 42
0.000000001
 43
0.00000001
 40
0.0
 40
0.0
 40
0.0
 40
0.0
 40
0.1323034284088744
 40
0.2645694515465797
 40
0.3997942148562054
 40
0.5349945762150088
 40
0.6501872613016997
 40
0.7653979157221118
 40
0.8826876171264814
 40
0.9999999999999999
 40
0.9999999999999999
 40
0.9999999999999999
 40
0.9999999999999999
 10
82.3407096436578
 20
78.64228582089548
 30
0.0
 10
82.25913189330167
 20
78.9015061308325
 30
0.0
 10
82.0959994565259
 20
79.41987346306689
 30
0.0
 10
81.9204740188689
 20
80.21811286721298
 30
0.0
 10
81.81493352777771
 20
81.0313989713551
 30
0.0
 10
81.7940282573798
 20
81.81523194921502
 30
0.0
 10
81.84825163853309
 20
82.55672627850873
 30
0.0
 10
81.959363653906
 20
83.25652255316483
 30
0.0
 10
82.12235500528442
 20
83.95315495607173
 30
0.0
 10
82.2679200730942
 20
84.41256072741311
 30
0.0
 10
82.3407096436578
 20
84.64228582089551
 30
0.0
  0
LINE
  5
E1
330
1F
100
AcDbEntity
  8
0
  6
Continuous
 62
     7
370
    25
100
AcDbLine
 10
82.3407096437
 20
84.6422858209
 30
0.0
 11
90.9802377393
 21
84.6422858209
 31
0.0
  0
SPLINE
  5
E2
330
1F
100
AcDbEntity
  8
0
  6
Continuous
 62
     7
370
    25
100
AcDbSpline
210
0.0
220
0.0
230
1.0
 70
     8
 71
     3
 72
    11
 73
     7
 74
     0
 42
0.000000001
 43
0.00000001
 40
0.0
 40
0.0
 40
0.0
 40
0.0
 40
0.2472686137512652
 40
0.4953625653849101
 40
0.7468740051198234
 40
0.9999999999999999
 40
0.9999999999999999
 40
0.9999999999999999
 40
0.9999999999999999
 10
90.98023773933849
 20
84.64228582089551
 30
0.0
 10
91.0568410213486
 20
84.4001265337051
 30
0.0
 10
91.21030327326065
 20
83.91499967544925
 30
0.0
 10
91.37870818240252
 20
83.17045696031833
 30
0.0
 10
91.49411793674587
 20
82.41174892242732
 30
0.0
 10
91.50878109044213
 20
81.89932001589295
 30
0.0
 10
91.51613612420073
 20
81.6422858208955
 30
0.0
  0
SPLINE
  5
E3
330
1F
100
AcDbEntity
  8
0
  6
Continuous
 62
     7
370
    25
100
AcDbSpline
210
0.0
220
0.0
230
1.0
 70
    24
 71
     3
 72
    12
 73
     8
 74
     0
 42
0.000000001
 43
0.00000001
 40
0.0
 40
0.0
 40
0.0
 40
0.0
 40
0.2437070786217334
 40
0.4314597764332023
 40
0.6198254874358171
 40
0.8097214913316884
 40
1.0
 40
1.0
 40
1.0
 40
1.0
 10
81.8069314367503
 20
72.64228582089555
 30
0.0
 10
81.81275272254042
 20
72.64228582089555
 30
0.0
 10
81.82305874516302
 20
72.64228582089555
 30
0.0
 10
81.90770879784228
 20
72.64228582089555
 30
0.0
 10
82.01851356692192
 20
72.64228582089555
 30
0.0
 10
82.16214199875127
 20
72.64228582089555
 30
0.0
 10
82.28114718381524
 20
72.64228582089557
 30
0.0
 10
82.3407096436578
 20
72.64228582089557
 30
0.0
  0
SPLINE
  5
E4
330
1F
100
AcDbEntity
  8
0
  6
Continuous
 62
     7
370
    25
100
AcDbSpline
210
0.0
220
0.0
230
1.0
 70
    24
 71
     3
 72
    12
 73
     8
 74
     0
 42
0.000000001
 43
0.00000001
 40
0.0
 40
0.0
 40
0.0
 40
0.0
 40
0.1880244591829763
 40
0.3763825138844549
 40
0.56604164444167
 40
0.7562900361515422
 40
1.0
 40
1.0
 40
1.0
 40
1.0
 10
82.3407096436578
 20
84.64228582089551
 30
0.0
 10
82.281825409656
 20
84.64228582089551
 30
0.0
 10
82.16395246845428
 20
84.64228582089551
 30
0.0
 10
82.02048378143692
 20
84.64228582089551
 30
0.0
 10
81.9085769659639
 20
84.64228582089552
 30
0.0
 10
81.82338006987275
 20
84.64228582089552
 30
0.0
 10
81.8120820274952
 20
84.64228582089552
 30
0.0
 10
81.80573707419695
 20
84.64228582089552
 30
0.0
  0
SPLINE
  5
E5
330
1F
100
AcDbEntity
  8
0
  6
Continuous
 62
     7
370
    25
100
AcDbSpline
210
0.0
220
0.0
230
1.0
 70
     8
 71
     3
 72
    15
 73
    11
 74
     0
 42
0.000000001
 43
0.00000001
 40
0.0
 40
0.0
 40
0.0
 40
0.0
 40
0.1323034284088758
 40
0.2645694515465826
 40
0.3997942148562104
 40
0.5349945762150152
 40
0.6501872613017045
 40
0.7653979157221151
 40
0.8826876171264831
 40
0.9999999999999999
 40
0.9999999999999999
 40
0.9999999999999999
 40
0.9999999999999999
 10
82.3407096436578
 20
72.64228582089555
 30
0.0
 10
82.25913189330167
 20
72.90150613083257
 30
0.0
 10
82.0959994565259
 20
73.41987346306696
 30
0.0
 10
81.92047401886892
 20
74.21811286721302
 30
0.0
 10
81.81493352777773
 20
75.03139897135516
 30
0.0
 10
81.79402825737981
 20
75.81523194921506
 30
0.0
 10
81.8482516385331
 20
76.55672627850876
 30
0.0
 10
81.95936365390601
 20
77.25652255316484
 30
0.0
 10
82.12235500528443
 20
77.95315495607171
 30
0.0
 10
82.26792007309422
 20
78.4125607274131
 30
0.0
 10
82.3407096436578
 20
78.64228582089548
 30
0.0
  0
LINE
  5
E6
330
1F
100
AcDbEntity
  8
0
  6
Continuous
 62
     7
370
    25
100
AcDbLine
 10
81.6604736915
 20
72.8922858209
 30
0.0
 11
81.6604736915
 21
84.3922858209
 31
0.0
  0
LINE
  5
E7
330
1F
100
AcDbEntity
  8
0
  6
Continuous
 62
     7
370
    25
100
AcDbLine
 10
91.5161361242
 20
75.6422858209
 30
0.0
 11
91.5161361242
 21
81.6422858209
 31
0.0
  0
SPLINE
  5
E8
330
1F
100
AcDbEntity
  8
0
  6
Continuous
 62
     7
370
    25
100
AcDbSpline
210
0.0
220
0.0
230
1.0
 70
     8
 71
     3
 72
    11
 73
     7
 74
     0
 42
0.000000001
 43
0.00000001
 40
0.0
 40
0.0
 40
0.0
 40
0.0
 40
0.247268613751265
 40
0.4953625653849103
 40
0.7468740051198235
 40
1.0
 40
1.0
 40
1.0
 40
1.0
 10
90.98023773933849
 20
78.64228582089548
 30
0.0
 10
91.0568410213486
 20
78.40012653370506
 30
0.0
 10
91.21030327326064
 20
77.91499967544924
 30
0.0
 10
91.3787081824025
 20
77.17045696031832
 30
0.0
 10
91.49411793674585
 20
76.41174892242732
 30
0.0
 10
91.50878109044211
 20
75.89932001589297
 30
0.0
 10
91.51613612420071
 20
75.64228582089552
 30
0.0
  0
SPLINE
  5
E9
330
1F
100
AcDbEntity
  8
0
  6
Continuous
 62
     7
370
    25
100
AcDbSpline
210
0.0
220
0.0
230
1.0
 70
     8
 71
     3
 72
    12
 73
     8
 74
     0
 42
0.000000001
 43
0.00000001
 40
0.0
 40
0.0
 40
0.0
 40
0.0
 40
0.0700385718644716
 40
0.2997996769400406
 40
0.5308224945585952
 40
0.765021155554739
 40
1.0
 40
1.0
 40
1.0
 40
1.0
 10
91.51613612420071
 20
75.64228582089552
 30
0.0
 10
91.51552949830432
 20
75.57118661879589
 30
0.0
 10
91.51293283987846
 20
75.26684692064484
 30
0.0
 10
91.4727435138038
 20
74.72841731502992
 30
0.0
 10
91.3617888206197
 20
74.02904618598077
 30
0.0
 10
91.19870814362311
 20
73.3317734055216
 30
0.0
 10
91.05314189358285
 20
72.87236965940792
 30
0.0
 10
90.98023773933849
 20
72.64228582089557
 30
0.0
  0
LINE
  5
EA
330
1F
100
AcDbEntity
  8
0
  6
Continuous
 62
     7
370
    25
100
AcDbLine
 10
82.3407096437
 20
72.6422858209
 30
0.0
 11
90.9802377393
 21
72.6422858209
 31
0.0
  0
LINE
  5
EB
330
1F
100
AcDbEntity
  8
0
  6
Continuous
 62
     7
370
    25
100
AcDbLine
 10
91.5161361242
 20
72.6422858209
 30
0.0
 11
91.5161361242
 21
75.6422858209
 31
0.0
  0
LINE
  5
EC
330
1F
100
AcDbEntity
  8
0
  6
Continuous
 62
     7
370
    25
100
AcDbLine
 10
91.5161361242
 20
81.6422858209
 30
0.0
 11
91.5161361242
 21
84.6422858209
 31
0.0
  0
LINE
  5
ED
330
1F
100
AcDbEntity
  8
0
  6
Continuous
 62
     7
370
    25
100
AcDbLine
 10
92.6604736915
 20
84.1922858209
 30
0.0
 11
92.6604736915
 21
73.0922858209
 31
0.0
  0
LINE
  5
EE
330
1F
100
AcDbEntity
  8
0
  6
Continuous
 62
     7
370
    25
100
AcDbLine
 10
92.4604736915
 20
72.8922858209
 30
0.0
 11
92.4604736915
 21
84.3922858209
 31
0.0
  0
SPLINE
  5
EF
330
1F
100
AcDbEntity
  8
0
  6
Continuous
 62
     7
370
    25
100
AcDbSpline
210
0.0
220
0.0
230
1.0
 70
    24
 71
     3
 72
    12
 73
     8
 74
     0
 42
0.000000001
 43
0.00000001
 40
0.0
 40
0.0
 40
0.0
 40
0.0
 40
0.2467717232827324
 40
0.4337771387112416
 40
0.6213867515395265
 40
0.8105047604015168
 40
1.0
 40
1.0
 40
1.0
 40
1.0
 10
91.51613612420073
 20
84.64228582089552
 30
0.0
 10
91.50922975889839
 20
84.64228582089552
 30
0.0
 10
91.49708969949491
 20
84.64228582089552
 30
0.0
 10
91.41213263541142
 20
84.64228582089552
 30
0.0
 10
91.30129657077754
 20
84.64228582089551
 30
0.0
 10
91.15810114171443
 20
84.64228582089551
 30
0.0
 10
91.03956490792945
 20
84.64228582089551
 30
0.0
 10
90.98023773933849
 20
84.64228582089551
 30
0.0
  0
SPLINE
  5
F0
330
1F
100
AcDbEntity
  8
0
  6
Continuous
 62
     7
370
    25
100
AcDbSpline
210
0.0
220
0.0
230
1.0
 70
    24
 71
     3
 72
    12
 73
     8
 74
     0
 42
0.000000001
 43
0.00000001
 40
0.0
 40
0.0
 40
0.0
 40
0.0
 40
0.1872734889728915
 40
0.3748762106130479
 40
0.5637618838290638
 40
0.7532281671094972
 40
1.0
 40
1.0
 40
1.0
 40
1.0
 10
90.98023773933849
 20
72.64228582089557
 30
0.0
 10
91.03889471578043
 20
72.64228582089555
 30
0.0
 10
91.15631178946865
 20
72.64228582089555
 30
0.0
 10
91.29936569842374
 20
72.64228582089555
 30
0.0
 10
91.41121546079691
 20
72.64228582089555
 30
0.0
 10
91.49700442928341
 20
72.64228582089555
 30
0.0
 10
91.50922383335119
 20
72.64228582089555
 30
0.0
 10
91.51613612420073
 20
72.64228582089555
 30
0.0
  0
LINE
  5
F1
330
1F
100
AcDbEntity
  8
0
  6
Continuous
 62
     7
370
    25
100
AcDbLine
 10
77.2319037892
 20
84.6422858209
 30
0.0
 11
72.9121397413
 21
84.6422858209
 31
0.0
  0
SPLINE
  5
F2
330
1F
100
AcDbEntity
  8
0
  6
Continuous
 62
     7
370
    25
100
AcDbSpline
210
0.0
220
0.0
230
1.0
 70
     8
 71
     3
 72
    12
 73
     8
 74
     0
 42
0.000000001
 43
0.00000001
 40
0.0
 40
0.0
 40
0.0
 40
0.0
 40
0.2500000000000004
 40
0.2500000000000004
 40
0.5000000000000004
 40
0.5000000000000004
 40
1.0
 40
1.0
 40
1.0
 40
1.0
 10
77.76780217404026
 20
81.64228582089551
 30
0.0
 10
77.76780217404026
 20
81.89688639490906
 30
0.0
 10
77.75513551454773
 20
82.15262851973
 30
0.0
 10
77.70611705076956
 20
82.6585398595548
 30
0.0
 10
77.66981236088812
 20
82.90980345829148
 30
0.0
 10
77.52978901082766
 20
83.65913159466035
 30
0.0
 10
77.39508211721939
 20
84.1527508367723
 30
0.0
 10
77.2319037891783
 20
84.64228582089554
 30
0.0
  0
SPLINE
  5
F3
330
1F
100
AcDbEntity
  8
0
  6
Continuous
 62
     7
370
    25
100
AcDbSpline
210
0.0
220
0.0
230
1.0
 70
     8
 71
     3
 72
     8
 73
     4
 74
     0
 42
0.000000001
 43
0.00000001
 40
0.0
 40
0.0
 40
0.0
 40
0.0
 40
1.0
 40
1.0
 40
1.0
 40
1.0
 10
77.23190378917859
 20
78.64228582089547
 30
0.0
 10
77.55907719751005
 20
79.62380604588986
 30
0.0
 10
77.76780217404026
 20
80.6200623105416
 30
0.0
 10
77.76780217404026
 20
81.64228582089551
 30
0.0
  0
LINE
  5
F4
330
1F
100
AcDbEntity
  8
0
  6
Continuous
 62
     7
370
    25
100
AcDbLine
 10
77.2319037892
 20
78.6422858209
 30
0.0
 11
72.9121397413
 21
78.6422858209
 31
0.0
  0
LINE
  5
F5
330
1F
100
AcDbEntity
  8
0
  6
Continuous
 62
     7
370
    25
100
AcDbLine
 10
72.9121397413
 20
84.6422858209
 30
0.0
 11
72.9121397413
 21
78.6422858209
 31
0.0
  0
LINE
  5
F6
330
1F
100
AcDbEntity
  8
0
  6
Continuous
 62
     7
370
    25
100
AcDbLine
 10
77.767802174
 20
75.6422858209
 30
0.0
 11
77.767802174
 21
81.6422858209
 31
0.0
  0
SPLINE
  5
F7
330
1F
100
AcDbEntity
  8
0
  6
Continuous
 62
     7
370
    25
100
AcDbSpline
210
0.0
220
0.0
230
1.0
 70
     8
 71
     3
 72
    12
 73
     8
 74
     0
 42
0.000000001
 43
0.00000001
 40
0.0
 40
0.0
 40
0.0
 40
0.0
 40
0.2500000000000001
 40
0.2500000000000001
 40
0.5000000000000001
 40
0.5000000000000001
 40
1.0
 40
1.0
 40
1.0
 40
1.0
 10
77.76780217404027
 20
75.64228582089554
 30
0.0
 10
77.76780217404027
 20
75.89688639490909
 30
0.0
 10
77.75513551454775
 20
76.15262851973002
 30
0.0
 10
77.70611705076958
 20
76.65853985955482
 30
0.0
 10
77.66981236088813
 20
76.90980345829149
 30
0.0
 10
77.52978901082766
 20
77.65913159466037
 30
0.0
 10
77.39508211721939
 20
78.15275083677233
 30
0.0
 10
77.2319037891783
 20
78.64228582089558
 30
0.0
  0
SPLINE
  5
F8
330
1F
100
AcDbEntity
  8
0
  6
Continuous
 62
     7
370
    25
100
AcDbSpline
210
0.0
220
0.0
230
1.0
 70
     8
 71
     3
 72
     8
 73
     4
 74
     0
 42
0.000000001
 43
0.00000001
 40
0.0
 40
0.0
 40
0.0
 40
0.0
 40
1.0
 40
1.0
 40
1.0
 40
1.0
 10
77.23190378917859
 20
72.64228582089545
 30
0.0
 10
77.55907719751006
 20
73.62380604588986
 30
0.0
 10
77.76780217404027
 20
74.62006231054161
 30
0.0
 10
77.76780217404027
 20
75.64228582089554
 30
0.0
  0
LINE
  5
F9
330
1F
100
AcDbEntity
  8
0
  6
Continuous
 62
     7
370
    25
100
AcDbLine
 10
77.2319037892
 20
72.6422858209
 30
0.0
 11
72.9121397413
 21
72.6422858209
 31
0.0
  0
LINE
  5
FA
330
1F
100
AcDbEntity
  8
0
  6
Continuous
 62
     7
370
    25
100
AcDbLine
 10
72.9121397413
 20
78.6422858209
 30
0.0
 11
72.9121397413
 21
72.6422858209
 31
0.0
  0
LINE
  5
FB
330
1F
100
AcDbEntity
  8
0
  6
Continuous
 62
     7
370
    25
100
AcDbLine
 10
77.767802174
 20
72.6422858209
 30
0.0
 11
77.767802174
 21
75.6422858209
 31
0.0
  0
LINE
  5
FC
330
1F
100
AcDbEntity
  8
0
  6
Continuous
 62
     7
370
    25
100
AcDbLine
 10
77.767802174
 20
81.6422858209
 30
0.0
 11
77.767802174
 21
84.6422858209
 31
0.0
  0
LINE
  5
FD
330
1F
100
AcDbEntity
  8
0
  6
Continuous
 62
     7
370
    25
100
AcDbLine
 10
78.7121397413
 20
72.8922858209
 30
0.0
 11
78.7121397413
 21
84.3922858209
 31
0.0
  0
LINE
  5
FE
330
1F
100
AcDbEntity
  8
0
  6
Continuous
 62
     7
370
    25
100
AcDbLine
 10
78.9121397413
 20
84.1922858209
 30
0.0
 11
78.9121397413
 21
73.0922858209
 31
0.0
  0
SPLINE
  5
FF
330
1F
100
AcDbEntity
  8
0
  6
Continuous
 62
     7
370
    25
100
AcDbSpline
210
0.0
220
0.0
230
1.0
 70
    24
 71
     3
 72
    10
 73
     6
 74
     0
 42
0.000000001
 43
0.00000001
 40
0.0
 40
0.0
 40
0.0
 40
0.0
 40
0.5
 40
0.5
 40
1.0
 40
1.0
 40
1.0
 40
1.0
 10
77.76780217404026
 20
84.64228582089552
 30
0.0
 10
77.76780217404026
 20
84.64228582089552
 30
0.0
 10
77.71599528758267
 20
84.64228582089552
 30
0.0
 10
77.52824494782318
 20
84.64228582089551
 30
0.0
 10
77.39362760610494
 20
84.6422858208955
 30
0.0
 10
77.231903789178
 20
84.6422858208955
 30
0.0
  0
SPLINE
  5
100
330
1F
100
AcDbEntity
  8
0
  6
Continuous
 62
     7
370
    25
100
AcDbSpline
210
0.0
220
0.0
230
1.0
 70
    24
 71
     3
 72
    10
 73
     6
 74
     0
 42
0.000000001
 43
0.00000001
 40
0.0
 40
0.0
 40
0.0
 40
0.0
 40
0.5
 40
0.5
 40
1.0
 40
1.0
 40
1.0
 40
1.0
 10
77.76780217404026
 20
72.64228582089554
 30
0.0
 10
77.76780217404026
 20
72.64228582089554
 30
0.0
 10
77.71599528758242
 20
72.64228582089554
 30
0.0
 10
77.52824494782314
 20
72.64228582089554
 30
0.0
 10
77.39362760610499
 20
72.64228582089552
 30
0.0
 10
77.231903789178
 20
72.64228582089552
 30
0.0
  0
LINE
  5
101
330
1F
100
AcDbEntity
  8
0
  6
Continuous
 62
     7
370
    25
100
AcDbLine
 10
65.2670878008
 20
83.4245654478
 30
0.0
 11
65.2670878008
 21
73.860006194
 31
0.0
  0
LINE
  5
102
330
1F
100
AcDbEntity
  8
0
  6
Continuous
 62
     7
370
    25
100
AcDbLine
 10
81.1121397413
 20
83.5062858209
 30
0.0
 11
81.1121397413
 21
73.7782858209
 31
0.0
  0
LINE
  5
103
330
1F
100
AcDbEntity
  8
0
  6
Continuous
 62
     7
370
    25
100
AcDbLine
 10
80.4121397413
 20
74.4782858209
 30
0.0
 11
80.4121397413
 21
82.8062858209
 31
0.0
  0
LINE
  5
104
330
1F
100
AcDbEntity
  8
0
  6
Continuous
 62
     7
370
    25
100
AcDbLine
 10
63.9121397413
 20
82.6422858209
 30
0.0
 11
63.9121397413
 21
74.6422858209
 31
0.0
  0
LINE
  5
105
330
1F
100
AcDbEntity
  8
0
  6
Continuous
 62
     1
370
    25
100
AcDbLine
 10
91.9491488261
 20
84.3922858209
 30
0.0
 11
91.9491488261
 21
72.8922858209
 31
0.0
  0
LINE
  5
106
330
1F
100
AcDbEntity
  8
0
  6
Continuous
 62
     1
370
    25
100
AcDbLine
 10
78.2008148759
 20
84.3922858209
 30
0.0
 11
78.2008148759
 21
72.8922858209
 31
0.0
  0
LINE
  5
107
330
1F
100
AcDbEntity
  8
0
  6
Continuous
 62
     7
370
     0
100
AcDbLine
 10
85.7121397413
 20
74.2782858209
 30
0.0
 11
80.6121397413
 21
74.2782858209
 31
0.0
  0
LINE
  5
108
330
1F
100
AcDbEntity
  8
0
  6
Continuous
 62
     7
370
     0
100
AcDbLine
 10
85.7121397413
 20
83.0062858209
 30
0.0
 11
80.6121397413
 21
83.0062858209
 31
0.0
  0
LINE
  5
109
330
1F
100
AcDbEntity
  8
0
  6
Continuous
 62
     7
370
     0
100
AcDbLine
 10
64.4303595921
 20
82.9414801912
 30
0.0
 11
72.9121397413
 21
83.2065358209
 31
0.0
  0
LINE
  5
10A
330
1F
100
AcDbEntity
  8
0
  6
Continuous
 62
     7
370
     0
100
AcDbLine
 10
64.4303595921
 20
74.3430914506
 30
0.0
 11
72.9121397413
 21
74.0780358209
 31
0.0
  0
CIRCLE
  5
10B
330
1F
100
AcDbEntity
  8
0
  6
Continuous
 62
     7
370
    25
100
AcDbCircle
 10
115.2632097015
 20
50.0468141791
 30
0.0
 40
5.550000000000011
  0
CIRCLE
  5
10C
330
1F
100
AcDbEntity
  8
0
  6
Continuous
 62
     7
370
    25
100
AcDbCircle
 10
115.2632097015
 20
50.0468141791
 30
0.0
 40
3.174999999999997
  0
CIRCLE
  5
10D
330
1F
100
AcDbEntity
  8
0
  6
Continuous
 62
     7
370
    25
100
AcDbCircle
 10
115.2632097015
 20
50.0468141791
 30
0.0
 40
3.075000000000003
  0
CIRCLE
  5
10E
330
1F
100
AcDbEntity
  8
0
  6
Continuous
 62
     7
370
    25
100
AcDbCircle
 10
115.2632097015
 20
50.0468141791
 30
0.0
 40
5.75
  0
ARC
  5
10F
330
1F
100
AcDbEntity
  8
0
  6
Continuous
 62
     7
370
    25
100
AcDbCircle
 10
115.2632097015
 20
50.0468141791
 30
0.0
 40
6.0
100
AcDbArc
 50
180.0
 51
240.0
  0
ARC
  5
110
330
1F
100
AcDbEntity
  8
0
  6
Continuous
 62
     7
370
    25
100
AcDbCircle
 10
115.2632097015
 20
50.0468141791
 30
0.0
 40
6.000000000000027
100
AcDbArc
 50
120.0
 51
180.0
  0
ARC
  5
111
330
1F
100
AcDbEntity
  8
0
  6
Continuous
 62
     7
370
    25
100
AcDbCircle
 10
115.2632097015
 20
50.0468141791
 30
0.0
 40
6.000000000000027
100
AcDbArc
 50
60.0
 51
120.0
  0
ARC
  5
112
330
1F
100
AcDbEntity
  8
0
  6
Continuous
 62
     7
370
    25
100
AcDbCircle
 10
115.2632097015
 20
50.0468141791
 30
0.0
 40
5.999999999999991
100
AcDbArc
 50
0.0
 51
60.0
  0
ARC
  5
113
330
1F
100
AcDbEntity
  8
0
  6
Continuous
 62
     7
370
    25
100
AcDbCircle
 10
115.2632097015
 20
50.0468141791
 30
0.0
 40
5.999999999999988
100
AcDbArc
 50
300.0
 51
0.0
  0
ARC
  5
114
330
1F
100
AcDbEntity
  8
0
  6
Continuous
 62
     7
370
    25
100
AcDbCircle
 10
115.2632097015
 20
50.0468141791
 30
0.0
 40
5.999999999999988
100
AcDbArc
 50
240.0
 51
300.0
  0
SPLINE
  5
115
330
1F
100
AcDbEntity
  8
0
  6
Continuous
 62
     7
370
    25
100
AcDbSpline
210
0.0
220
0.0
230
1.0
 70
    24
 71
     3
 72
    12
 73
     8
 74
     0
 42
0.000000001
 43
0.00000001
 40
0.0
 40
0.0
 40
0.0
 40
0.0
 40
0.229940626658086
 40
0.420962790787128
 40
0.6124858037083587
 40
0.8058577968207262
 40
1.0
 40
1.0
 40
1.0
 40
1.0
 10
121.2632097014925
 20
46.58271256396675
 30
0.0
 10
121.2632097014925
 20
46.84267195253558
 30
0.0
 10
121.2632097014925
 20
47.3185914596437
 30
0.0
 10
121.2632097014925
 20
48.02172041572159
 30
0.0
 10
121.2632097014925
 20
48.68883261532977
 30
0.0
 10
121.2632097014925
 20
49.36486346711187
 30
0.0
 10
121.2632097014925
 20
49.81919626961989
 30
0.0
 10
121.2632097014925
 20
50.04681417910451
 30
0.0
  0
SPLINE
  5
116
330
1F
100
AcDbEntity
  8
0
  6
Continuous
 62
     7
370
    25
100
AcDbSpline
210
0.0
220
0.0
230
1.0
 70
    24
 71
     3
 72
    12
 73
     8
 74
     0
 42
0.000000001
 43
0.00000001
 40
0.0
 40
0.0
 40
0.0
 40
0.0
 40
0.0700385718644578
 40
0.2997996769400301
 40
0.5308224945585881
 40
0.7650211555547354
 40
1.0
 40
1.0
 40
1.0
 40
1.0
 10
118.2632097014925
 20
44.85066175639787
 30
0.0
 10
118.3343089035921
 20
44.89171089986925
 30
0.0
 10
118.6386486017432
 20
45.06742150652185
 30
0.0
 10
119.1770782073581
 20
45.37828398426328
 30
0.0
 10
119.8764493364073
 20
45.78206609388328
 30
0.0
 10
120.5737221168664
 20
46.18463672137998
 30
0.0
 10
121.0331258629802
 20
46.44987359786545
 30
0.0
 10
121.2632097014925
 20
46.58271256396675
 30
0.0
  0
SPLINE
  5
117
330
1F
100
AcDbEntity
  8
0
  6
Continuous
 62
     7
370
    25
100
AcDbSpline
210
0.0
220
0.0
230
1.0
 70
    24
 71
     3
 72
    12
 73
     8
 74
     0
 42
0.000000001
 43
0.00000001
 40
0.0
 40
0.0
 40
0.0
 40
0.0
 40
0.0700385718644585
 40
0.2997996769400308
 40
0.5308224945585881
 40
0.7650211555547353
 40
0.9999999999999999
 40
0.9999999999999999
 40
0.9999999999999999
 40
0.9999999999999999
 10
112.2632097014925
 20
44.85066175639788
 30
0.0
 10
112.3343089035921
 20
44.80961261292649
 30
0.0
 10
112.6386486017432
 20
44.63390200627389
 30
0.0
 10
113.1770782073581
 20
44.32303952853245
 30
0.0
 10
113.8764493364073
 20
43.91925741891247
 30
0.0
 10
114.5737221168664
 20
43.51668679141576
 30
0.0
 10
115.0331258629801
 20
43.25144991493029
 30
0.0
 10
115.2632097014925
 20
43.11861094882898
 30
0.0
  0
SPLINE
  5
118
330
1F
100
AcDbEntity
  8
0
  6
Continuous
 62
     7
370
    25
100
AcDbSpline
210
0.0
220
0.0
230
1.0
 70
    24
 71
     3
 72
    11
 73
     7
 74
     0
 42
0.000000001
 43
0.00000001
 40
0.0
 40
0.0
 40
0.0
 40
0.0
 40
0.2472686137512649
 40
0.4953625653849102
 40
0.7468740051198233
 40
1.0
 40
1.0
 40
1.0
 40
1.0
 10
115.2632097014925
 20
43.11861094882898
 30
0.0
 10
115.5053689886829
 20
43.25842167847514
 30
0.0
 10
115.9904958469388
 20
43.53850980068027
 30
0.0
 10
116.7350385620697
 20
43.96837173768428
 30
0.0
 10
117.4937465999607
 20
44.40641202759699
 30
0.0
 10
118.0061755064951
 20
44.70226299472515
 30
0.0
 10
118.2632097014925
 20
44.85066175639787
 30
0.0
  0
SPLINE
  5
119
330
1F
100
AcDbEntity
  8
0
  6
Continuous
 62
     7
370
    25
100
AcDbSpline
210
0.0
220
0.0
230
1.0
 70
    24
 71
     3
 72
    12
 73
     8
 74
     0
 42
0.000000001
 43
0.00000001
 40
0.0
 40
0.0
 40
0.0
 40
0.0
 40
0.0700385718644583
 40
0.2997996769400305
 40
0.530822494558588
 40
0.7650211555547353
 40
1.0
 40
1.0
 40
1.0
 40
1.0
 10
118.2632097014925
 20
55.24296660181113
 30
0.0
 10
118.1921104993929
 20
55.28401574528252
 30
0.0
 10
117.8877708012418
 20
55.45972635193511
 30
0.0
 10
117.3493411956269
 20
55.77058882967655
 30
0.0
 10
116.6499700665777
 20
56.17437093929652
 30
0.0
 10
115.9526972861185
 20
56.57694156679323
 30
0.0
 10
115.4932935400049
 20
56.84217844327869
 30
0.0
 10
115.2632097014925
 20
56.97501740938
 30
0.0
  0
SPLINE
  5
11A
330
1F
100
AcDbEntity
  8
0
  6
Continuous
 62
     7
370
    25
100
AcDbSpline
210
0.0
220
0.0
230
1.0
 70
    24
 71
     3
 72
    11
 73
     7
 74
     0
 42
0.000000001
 43
0.00000001
 40
0.0
 40
0.0
 40
0.0
 40
0.0
 40
0.2472686137512649
 40
0.4953625653849102
 40
0.7468740051198234
 40
0.9999999999999999
 40
0.9999999999999999
 40
0.9999999999999999
 40
0.9999999999999999
 10
115.2632097014925
 20
56.97501740938
 30
0.0
 10
115.0210504143021
 20
56.83520667973384
 30
0.0
 10
114.5359235560462
 20
56.55511855752872
 30
0.0
 10
113.7913808409153
 20
56.12525662052471
 30
0.0
 10
113.0326728030243
 20
55.68721633061201
 30
0.0
 10
112.52024389649
 20
55.39136536348385
 30
0.0
 10
112.2632097014925
 20
55.24296660181113
 30
0.0
  0
SPLINE
  5
11B
330
1F
100
AcDbEntity
  8
0
  6
Continuous
 62
     7
370
    25
100
AcDbSpline
210
0.0
220
0.0
230
1.0
 70
    24
 71
     3
 72
    11
 73
     7
 74
     0
 42
0.000000001
 43
0.00000001
 40
0.0
 40
0.0
 40
0.0
 40
0.0
 40
0.2472686137512653
 40
0.4953625653849102
 40
0.7468740051198233
 40
0.9999999999999999
 40
0.9999999999999999
 40
0.9999999999999999
 40
0.9999999999999999
 10
121.2632097014925
 20
53.51091579424227
 30
0.0
 10
121.0210504143021
 20
53.65072652388843
 30
0.0
 10
120.5359235560462
 20
53.93081464609355
 30
0.0
 10
119.7913808409153
 20
54.36067658309755
 30
0.0
 10
119.0326728030243
 20
54.79871687301026
 30
0.0
 10
118.5202438964899
 20
55.09456784013842
 30
0.0
 10
118.2632097014925
 20
55.24296660181113
 30
0.0
  0
SPLINE
  5
11C
330
1F
100
AcDbEntity
  8
0
  6
Continuous
 62
     7
370
    25
100
AcDbSpline
210
0.0
220
0.0
230
1.0
 70
    24
 71
     3
 72
    12
 73
     8
 74
     0
 42
0.000000001
 43
0.00000001
 40
0.0
 40
0.0
 40
0.0
 40
0.0
 40
0.2467717232827323
 40
0.4337771387112416
 40
0.6213867515395264
 40
0.8105047604015166
 40
1.0
 40
1.0
 40
1.0
 40
1.0
 10
121.2632097014925
 20
50.04681417910451
 30
0.0
 10
121.2632097014925
 20
50.33616867267028
 30
0.0
 10
121.2632097014925
 20
50.84479811620012
 30
0.0
 10
121.2632097014925
 20
51.56897961207905
 30
0.0
 10
121.2632097014925
 20
52.22059197894617
 30
0.0
 10
121.2632097014925
 20
52.86907764293267
 30
0.0
 10
121.2632097014925
 20
53.29682768110492
 30
0.0
 10
121.2632097014925
 20
53.51091579424227
 30
0.0
  0
SPLINE
  5
11D
330
1F
100
AcDbEntity
  8
0
  6
Continuous
 62
     7
370
    25
100
AcDbSpline
210
0.0
220
0.0
230
1.0
 70
    24
 71
     3
 72
    12
 73
     8
 74
     0
 42
0.000000001
 43
0.00000001
 40
0.0
 40
0.0
 40
0.0
 40
0.0
 40
0.0700385718644716
 40
0.2997996769400406
 40
0.5308224945585952
 40
0.765021155554739
 40
1.0
 40
1.0
 40
1.0
 40
1.0
 10
112.2632097014925
 20
55.24296660181113
 30
0.0
 10
112.1921104993929
 20
55.20191745833974
 30
0.0
 10
111.8877708012418
 20
55.02620685168714
 30
0.0
 10
111.3493411956269
 20
54.7153443739457
 30
0.0
 10
110.6499700665778
 20
54.31156226432573
 30
0.0
 10
109.9526972861186
 20
53.90899163682903
 30
0.0
 10
109.4932935400049
 20
53.64375476034358
 30
0.0
 10
109.2632097014925
 20
53.51091579424227
 30
0.0
  0
SPLINE
  5
11E
330
1F
100
AcDbEntity
  8
0
  6
Continuous
 62
     7
370
    25
100
AcDbSpline
210
0.0
220
0.0
230
1.0
 70
    24
 71
     3
 72
    12
 73
     8
 74
     0
 42
0.000000001
 43
0.00000001
 40
0.0
 40
0.0
 40
0.0
 40
0.0
 40
0.1872734889728916
 40
0.3748762106130479
 40
0.5637618838290638
 40
0.7532281671094971
 40
0.9999999999999999
 40
0.9999999999999999
 40
0.9999999999999999
 40
0.9999999999999999
 10
109.2632097014925
 20
53.51091579424227
 30
0.0
 10
109.2632097014925
 20
53.29934567655831
 30
0.0
 10
109.2632097014925
 20
52.8758334942878
 30
0.0
 10
109.2632097014925
 20
52.23028091536001
 30
0.0
 10
109.2632097014925
 20
51.57619741059984
 30
0.0
 10
109.2632097014925
 20
50.84768259597482
 30
0.0
 10
109.2632097014925
 20
50.33616833478962
 30
0.0
 10
109.2632097014925
 20
50.04681417910451
 30
0.0
  0
SPLINE
  5
11F
330
1F
100
AcDbEntity
  8
0
  6
Continuous
 62
     7
370
    25
100
AcDbSpline
210
0.0
220
0.0
230
1.0
 70
    24
 71
     3
 72
    11
 73
     7
 74
     0
 42
0.000000001
 43
0.00000001
 40
0.0
 40
0.0
 40
0.0
 40
0.0
 40
0.2472686137512654
 40
0.4953625653849105
 40
0.7468740051198235
 40
1.0
 40
1.0
 40
1.0
 40
1.0
 10
109.2632097014925
 20
46.58271256396675
 30
0.0
 10
109.5053689886829
 20
46.44290183432059
 30
0.0
 10
109.9904958469388
 20
46.16281371211546
 30
0.0
 10
110.7350385620697
 20
45.73295177511145
 30
0.0
 10
111.4937465999607
 20
45.29491148519875
 30
0.0
 10
112.0061755064951
 20
44.99906051807059
 30
0.0
 10
112.2632097014925
 20
44.85066175639788
 30
0.0
  0
SPLINE
  5
120
330
1F
100
AcDbEntity
  8
0
  6
Continuous
 62
     7
370
    25
100
AcDbSpline
210
0.0
220
0.0
230
1.0
 70
    24
 71
     3
 72
    12
 73
     8
 74
     0
 42
0.000000001
 43
0.00000001
 40
0.0
 40
0.0
 40
0.0
 40
0.0
 40
0.190762328010727
 40
0.3822900697926657
 40
0.5758896407802039
 40
0.7700595067491237
 40
1.0
 40
1.0
 40
1.0
 40
1.0
 10
109.2632097014925
 20
50.04681417910451
 30
0.0
 10
109.2632097014925
 20
49.82316016279546
 30
0.0
 10
109.2632097014925
 20
49.37495474196736
 30
0.0
 10
109.2632097014925
 20
48.70251471262556
 30
0.0
 10
109.2632097014925
 20
48.03135020748066
 30
0.0
 10
109.2632097014925
 20
47.32215241690048
 30
0.0
 10
109.2632097014925
 20
46.84267272435896
 30
0.0
 10
109.2632097014925
 20
46.58271256396675
 30
0.0
  0
CIRCLE
  5
121
330
1F
100
AcDbEntity
  8
0
  6
Continuous
 62
     7
370
    25
100
AcDbCircle
 10
115.2632097015
 20
50.0468141791
 30
0.0
 40
3.05
  0
CIRCLE
  5
122
330
1F
100
AcDbEntity
  8
0
  6
Continuous
 62
     7
370
    25
100
AcDbCircle
 10
115.2632097015
 20
50.0468141791
 30
0.0
 40
2.499999999999986
  0
ENDSEC
  0
SECTION
  2
OBJECTS
  0
DICTIONARY
  5
C
330
0
100
AcDbDictionary
281
     1
  3
ACAD_GROUP
350
D
  3
ACAD_LAYOUT
350
1A
  3
ACAD_MLINESTYLE
350
17
  3
ACAD_PLOTSETTINGS
350
19
  3
ACAD_PLOTSTYLENAME
350
E
  3
ACAD_SCALELIST
350
47
  0
DICTIONARY
  5
D
102
{ACAD_REACTORS
330
C
102
}
330
C
100
AcDbDictionary
281
     1
  0
DICTIONARY
  5
1A
102
{ACAD_REACTORS
330
C
102
}
330
C
100
AcDbDictionary
281
     1
  3
Layout1
350
1E
  3
Layout2
350
26
  3
Model
350
22
  0
DICTIONARY
  5
17
102
{ACAD_REACTORS
330
C
102
}
330
C
100
AcDbDictionary
281
     1
  3
Standard
350
18
  0
DICTIONARY
  5
19
102
{ACAD_REACTORS
330
C
102
}
330
C
100
AcDbDictionary
281
     1
  0
ACDBDICTIONARYWDFLT
  5
E
102
{ACAD_REACTORS
330
C
102
}
330
C
100
AcDbDictionary
281
     1
  3
Normal
350
F
100
AcDbDictionaryWithDefault
340
F
  0
DICTIONARY
  5
47
102
{ACAD_REACTORS
330
C
102
}
330
C
100
AcDbDictionary
281
     1
  3
A0
350
48
  3
A1
350
49
  3
A2
350
4A
  3
A3
350
4B
  3
A4
350
4C
  3
A5
350
4D
  3
A6
350
4E
  3
A7
350
4F
  3
A8
350
50
  3
A9
350
51
  3
B0
350
52
  3
B1
350
53
  3
B2
350
54
  3
B3
350
55
  3
B4
350
56
  3
B5
350
57
  3
B6
350
58
  3
B7
350
59
  3
B8
350
5A
  3
B9
350
5B
  3
C0
350
5C
  3
C1
350
5D
  3
C2
350
5E
  3
C3
350
5F
  3
C4
350
60
  3
C5
350
61
  3
C6
350
62
  3
C7
350
63
  3
C8
350
64
  3
C9
350
65
  3
D0
350
66
  3
D1
350
67
  3
D2
350
68
  0
LAYOUT
  5
1E
102
{ACAD_REACTORS
330
1A
102
}
330
1A
100
AcDbPlotSettings
  1

  2
none_device
  4

  6

 40
0.0
 41
0.0
 42
0.0
 43
0.0
 44
0.0
 45
0.0
 46
0.0
 47
0.0
 48
0.0
 49
0.0
140
0.0
141
0.0
142
1.0
143
1.0
 70
   688
 72
     1
 73
     0
 74
     5
  7

 75
    16
147
1.0
148
0.0
149
0.0
100
AcDbLayout
  1
Layout1
 70
     1
 71
     1
 10
0.0
 20
0.0
 11
420.0
 21
297.0
 12
0.0
 22
0.0
 32
0.0
 14
1.0000000000E+20
 24
1.0000000000E+20
 34
1.0000000000E+20
 15
-1.0000000000E+20
 25
-1.0000000000E+20
 35
-1.0000000000E+20
146
0.0
 13
0.0
 23
0.0
 33
0.0
 16
1.0
 26
0.0
 36
0.0
 17
0.0
 27
1.0
 37
0.0
 76
     0
330
1B
  0
LAYOUT
  5
26
102
{ACAD_REACTORS
330
1A
102
}
330
1A
100
AcDbPlotSettings
  1

  2
none_device
  4

  6

 40
0.0
 41
0.0
 42
0.0
 43
0.0
 44
0.0
 45
0.0
 46
0.0
 47
0.0
 48
0.0
 49
0.0
140
0.0
141
0.0
142
1.0
143
1.0
 70
   688
 72
     1
 73
     0
 74
     5
  7

 75
    16
147
1.0
148
0.0
149
0.0
100
AcDbLayout
  1
Layout2
 70
     1
 71
     2
 10
0.0
 20
0.0
 11
0.0
 21
0.0
 12
0.0
 22
0.0
 32
0.0
 14
0.0
 24
0.0
 34
0.0
 15
0.0
 25
0.0
 35
0.0
146
0.0
 13
0.0
 23
0.0
 33
0.0
 16
1.0
 26
0.0
 36
0.0
 17
0.0
 27
1.0
 37
0.0
 76
     0
330
23
  0
LAYOUT
  5
22
102
{ACAD_REACTORS
330
1A
102
}
330
1A
100
AcDbPlotSettings
  1

  2
none_device
  4
Letter_(8.50_x_11.00_Inches)
  6

 40
6.35
 41
6.35
 42
6.35000508
 43
6.35000508
 44
215.9
 45
279.4
 46
0.0
 47
0.0
 48
0.0
 49
0.0
140
0.0
141
0.0
142
1.0
143
1.0
 70
  1712
 72
     1
 73
     0
 74
     0
  7

 75
     0
147
1.0
148
0.0
149
0.0
100
AcDbLayout
  1
Model
 70
     1
 71
     0
 10
0.0
 20
0.0
 11
215.9
 21
139.7
 12
0.0
 22
0.0
 32
0.0
 14
0.0
 24
0.0
 34
0.0
 15
215.9
 25
139.7
 35
0.0
146
0.0
 13
0.0
 23
0.0
 33
0.0
 16
1.0
 26
0.0
 36
0.0
 17
0.0
 27
1.0
 37
0.0
 76
     0
330
1F
331
29
  0
MLINESTYLE
  5
18
102
{ACAD_REACTORS
330
17
102
}
330
17
100
AcDbMlineStyle
  2
Standard
 70
     0
  3

 62
   256
 51
90.0
 52
90.0
 71
     2
 49
0.5
 62
   256
  6
BYLAYER
 49
-0.5
 62
   256
  6
BYLAYER
  0
ACDBPLACEHOLDER
  5
F
102
{ACAD_REACTORS
330
E
102
}
330
E
  0
SCALE
  5
48
102
{ACAD_REACTORS
330
47
102
}
330
47
100
AcDbScale
 70
     0
300
1:1
140
1.0
141
1.0
290
     1
  0
SCALE
  5
49
102
{ACAD_REACTORS
330
47
102
}
330
47
100
AcDbScale
 70
     0
300
1:2
140
1.0
141
2.0
290
     0
  0
SCALE
  5
4A
102
{ACAD_REACTORS
330
47
102
}
330
47
100
AcDbScale
 70
     0
300
1:4
140
1.0
141
4.0
290
     0
  0
SCALE
  5
4B
102
{ACAD_REACTORS
330
47
102
}
330
47
100
AcDbScale
 70
     0
300
1:5
140
1.0
141
5.0
290
     0
  0
SCALE
  5
4C
102
{ACAD_REACTORS
330
47
102
}
330
47
100
AcDbScale
 70
     0
300
1:8
140
1.0
141
8.0
290
     0
  0
SCALE
  5
4D
102
{ACAD_REACTORS
330
47
102
}
330
47
100
AcDbScale
 70
     0
300
1:10
140
1.0
141
10.0
290
     0
  0
SCALE
  5
4E
102
{ACAD_REACTORS
330
47
102
}
330
47
100
AcDbScale
 70
     0
300
1:16
140
1.0
141
16.0
290
     0
  0
SCALE
  5
4F
102
{ACAD_REACTORS
330
47
102
}
330
47
100
AcDbScale
 70
     0
300
1:20
140
1.0
141
20.0
290
     0
  0
SCALE
  5
50
102
{ACAD_REACTORS
330
47
102
}
330
47
100
AcDbScale
 70
     0
300
1:30
140
1.0
141
30.0
290
     0
  0
SCALE
  5
51
102
{ACAD_REACTORS
330
47
102
}
330
47
100
AcDbScale
 70
     0
300
1:40
140
1.0
141
40.0
290
     0
  0
SCALE
  5
52
102
{ACAD_REACTORS
330
47
102
}
330
47
100
AcDbScale
 70
     0
300
1:50
140
1.0
141
50.0
290
     0
  0
SCALE
  5
53
102
{ACAD_REACTORS
330
47
102
}
330
47
100
AcDbScale
 70
     0
300
1:100
140
1.0
141
100.0
290
     0
  0
SCALE
  5
54
102
{ACAD_REACTORS
330
47
102
}
330
47
100
AcDbScale
 70
     0
300
2:1
140
2.0
141
1.0
290
     0
  0
SCALE
  5
55
102
{ACAD_REACTORS
330
47
102
}
330
47
100
AcDbScale
 70
     0
300
4:1
140
4.0
141
1.0
290
     0
  0
SCALE
  5
56
102
{ACAD_REACTORS
330
47
102
}
330
47
100
AcDbScale
 70
     0
300
8:1
140
8.0
141
1.0
290
     0
  0
SCALE
  5
57
102
{ACAD_REACTORS
330
47
102
}
330
47
100
AcDbScale
 70
     0
300
10:1
140
10.0
141
1.0
290
     0
  0
SCALE
  5
58
102
{ACAD_REACTORS
330
47
102
}
330
47
100
AcDbScale
 70
     0
300
100:1
140
100.0
141
1.0
290
     0
  0
SCALE
  5
59
102
{ACAD_REACTORS
330
47
102
}
330
47
100
AcDbScale
 70
     0
300
1/128" = 1'-0"
140
0.0078125
141
12.0
290
     0
  0
SCALE
  5
5A
102
{ACAD_REACTORS
330
47
102
}
330
47
100
AcDbScale
 70
     0
300
1/64" = 1'-0"
140
0.015625
141
12.0
290
     0
  0
SCALE
  5
5B
102
{ACAD_REACTORS
330
47
102
}
330
47
100
AcDbScale
 70
     0
300
1/32" = 1'-0"
140
0.03125
141
12.0
290
     0
  0
SCALE
  5
5C
102
{ACAD_REACTORS
330
47
102
}
330
47
100
AcDbScale
 70
     0
300
1/16" = 1'-0"
140
0.0625
141
12.0
290
     0
  0
SCALE
  5
5D
102
{ACAD_REACTORS
330
47
102
}
330
47
100
AcDbScale
 70
     0
300
3/32" = 1'-0"
140
0.09375
141
12.0
290
     0
  0
SCALE
  5
5E
102
{ACAD_REACTORS
330
47
102
}
330
47
100
AcDbScale
 70
     0
300
1/8" = 1'-0"
140
0.125
141
12.0
290
     0
  0
SCALE
  5
5F
102
{ACAD_REACTORS
330
47
102
}
330
47
100
AcDbScale
 70
     0
300
3/16" = 1'-0"
140
0.1875
141
12.0
290
     0
  0
SCALE
  5
60
102
{ACAD_REACTORS
330
47
102
}
330
47
100
AcDbScale
 70
     0
300
1/4" = 1'-0"
140
0.25
141
12.0
290
     0
  0
SCALE
  5
61
102
{ACAD_REACTORS
330
47
102
}
330
47
100
AcDbScale
 70
     0
300
3/8" = 1'-0"
140
0.375
141
12.0
290
     0
  0
SCALE
  5
62
102
{ACAD_REACTORS
330
47
102
}
330
47
100
AcDbScale
 70
     0
300
1/2" = 1'-0"
140
0.5
141
12.0
290
     0
  0
SCALE
  5
63
102
{ACAD_REACTORS
330
47
102
}
330
47
100
AcDbScale
 70
     0
300
3/4" = 1'-0"
140
0.75
141
12.0
290
     0
  0
SCALE
  5
64
102
{ACAD_REACTORS
330
47
102
}
330
47
100
AcDbScale
 70
     0
300
1" = 1'-0"
140
1.0
141
12.0
290
     0
  0
SCALE
  5
65
102
{ACAD_REACTORS
330
47
102
}
330
47
100
AcDbScale
 70
     0
300
1-1/2" = 1'-0"
140
1.5
141
12.0
290
     0
  0
SCALE
  5
66
102
{ACAD_REACTORS
330
47
102
}
330
47
100
AcDbScale
 70
     0
300
3" = 1'-0"
140
3.0
141
12.0
290
     0
  0
SCALE
  5
67
102
{ACAD_REACTORS
330
47
102
}
330
47
100
AcDbScale
 70
     0
300
6" = 1'-0"
140
6.0
141
12.0
290
     0
  0
SCALE
  5
68
102
{ACAD_REACTORS
330
47
102
}
330
47
100
AcDbScale
 70
     0
300
1'-0" = 1'-0"
140
12.0
141
12.0
290
     0
  0
ENDSEC
  0
EOF
