  0
SECTION
  2
HEADER
  9
$ACADVER
  1
AC1015
  9
$ACADMAINTVER
 70
     6
  9
$DWGCODEPAGE
  3
DOS932
  9
$INSBASE
 10
0.0
 20
0.0
 30
0.0
  9
$EXTMIN
 10
0.0
 20
0.0
 30
0.0
  9
$EXTMAX
 10
297.0
 20
210.0
 30
0.0
  9
$LIMMIN
 10
0.0
 20
0.0
  9
$LIMMAX
 10
297.0
 20
210.0
  9
$ORTHOMODE
 70
     0
  9
$REGENMODE
 70
     1
  9
$FILLMODE
 70
     1
  9
$QTEXTMODE
 70
     0
  9
$MIRRTEXT
 70
     1
  9
$LTSCALE
 40
1.0
  9
$ATTMODE
 70
     1
  9
$TEXTSIZE
 40
3.5277777778
  9
$TRACEWID
 40
1.0
  9
$TEXTSTYLE
  7
Standard
  9
$CLAYER
  8
0
  9
$CELTYPE
  6
ByLayer
  9
$CECOLOR
 62
   256
  9
$CELTSCALE
 40
1.0
  9
$DISPSILH
 70
     0
  9
$DIMSCALE
 40
1.0
  9
$DIMASZ
 40
2.728515625
  9
$DIMEXO
 40
1.0
  9
$DIMDLI
 40
3.75
  9
$DIMRND
 40
0.0
  9
$DIMDLE
 40
0.0
  9
$DIMEXE
 40
1.0
  9
$DIMTP
 40
0.0
  9
$DIMTM
 40
0.0
  9
$DIMTXT
 40
3.5277777778
  9
$DIMCEN
 40
2.5
  9
$DIMTSZ
 40
0.0
  9
$DIMTOL
 70
     0
  9
$DIMLIM
 70
     0
  9
$DIMTIH
 70
     1
  9
$DIMTOH
 70
     1
  9
$DIMSE1
 70
     0
  9
$DIMSE2
 70
     0
  9
$DIMTAD
 70
     1
  9
$DIMZIN
 70
     0
  9
$DIMBLK
  1

  9
$DIMASO
 70
     1
  9
$DIMSHO
 70
     1
  9
$DIMPOST
  1

  9
$DIMAPOST
  1

  9
$DIMALT
 70
     0
  9
$DIMALTD
 70
     3
  9
$DIMALTF
 40
0.0393700787
  9
$DIMLFAC
 40
0.5
  9
$DIMTOFL
 70
     1
  9
$DIMTVP
 40
0.0
  9
$DIMTIX
 70
     0
  9
$DIMSOXD
 70
     0
  9
$DIMSAH
 70
     0
  9
$DIMBLK1
  1

  9
$DIMBLK2
  1

  9
$DIMSTYLE
  2
ISO-25
  9
$DIMCLRD
 70
     0
  9
$DIMCLRE
 70
     0
  9
$DIMCLRT
 70
     0
  9
$DIMTFAC
 40
1.0
  9
$DIMGAP
 40
1.524
  9
$DIMJUST
 70
     0
  9
$DIMSD1
 70
     0
  9
$DIMSD2
 70
     0
  9
$DIMTOLJ
 70
     0
  9
$DIMTZIN
 70
     0
  9
$DIMALTZ
 70
     0
  9
$DIMALTTZ
 70
     0
  9
$DIMUPT
 70
     0
  9
$DIMDEC
 70
     2
  9
$DIMTDEC
 70
     2
  9
$DIMALTU
 70
     2
  9
$DIMALTTD
 70
     3
  9
$DIMTXSTY
  7
Standard
  9
$DIMAUNIT
 70
     0
  9
$DIMADEC
 70
     2
  9
$DIMALTRND
 40
0.0
  9
$DIMAZIN
 70
     0
  9
$DIMDSEP
 70
    44
  9
$DIMATFIT
 70
     3
  9
$DIMFRAC
 70
     0
  9
$DIMLDRBLK
  1

  9
$DIMLUNIT
 70
     2
  9
$DIMLWD
 70
    -2
  9
$DIMLWE
 70
    -2
  9
$DIMTMOVE
 70
     0
  9
$LUNITS
 70
     2
  9
$LUPREC
 70
     2
  9
$SKETCHINC
 40
1.0
  9
$FILLETRAD
 40
10.0
  9
$AUNITS
 70
     0
  9
$AUPREC
 70
     2
  9
$MENU
  1
.
  9
$ELEVATION
 40
0.0
  9
$PELEVATION
 40
0.0
  9
$THICKNESS
 40
0.0
  9
$LIMCHECK
 70
     0
  9
$CHAMFERA
 40
0.0
  9
$CHAMFERB
 40
0.0
  9
$CHAMFERC
 40
0.0
  9
$CHAMFERD
 40
0.0
  9
$SKPOLY
 70
     0
  9
$TDCREATE
 40
2458920.590466273
  9
$TDUCREATE
 40
2458920.215466273
  9
$TDUPDATE
 40
2458920.590466991
  9
$TDUUPDATE
 40
2458920.215466991
  9
$TDINDWG
 40
0.0000000116
  9
$TDUSRTIMER
 40
0.0000000116
  9
$USRTIMER
 70
     1
  9
$ANGBASE
 50
0.0
  9
$ANGDIR
 70
     0
  9
$PDMODE
 70
     0
  9
$PDSIZE
 40
-1.0
  9
$PLINEWID
 40
0.0
  9
$SPLFRAME
 70
     0
  9
$SPLINETYPE
 70
     6
  9
$SPLINESEGS
 70
     8
  9
$HANDSEED
  5
11A
  9
$SURFTAB1
 70
     6
  9
$SURFTAB2
 70
     6
  9
$SURFTYPE
 70
     6
  9
$SURFU
 70
     6
  9
$SURFV
 70
     6
  9
$UCSBASE
  2

  9
$UCSNAME
  2

  9
$UCSORG
 10
0.0
 20
0.0
 30
0.0
  9
$UCSXDIR
 10
1.0
 20
0.0
 30
0.0
  9
$UCSYDIR
 10
0.0
 20
1.0
 30
0.0
  9
$UCSORTHOREF
  2

  9
$UCSORTHOVIEW
 70
     0
  9
$UCSORGTOP
 10
0.0
 20
0.0
 30
0.0
  9
$UCSORGBOTTOM
 10
0.0
 20
0.0
 30
0.0
  9
$UCSORGLEFT
 10
0.0
 20
0.0
 30
0.0
  9
$UCSORGRIGHT
 10
0.0
 20
0.0
 30
0.0
  9
$UCSORGFRONT
 10
0.0
 20
0.0
 30
0.0
  9
$UCSORGBACK
 10
0.0
 20
0.0
 30
0.0
  9
$PUCSBASE
  2

  9
$PUCSNAME
  2

  9
$PUCSORG
 10
0.0
 20
0.0
 30
0.0
  9
$PUCSXDIR
 10
1.0
 20
0.0
 30
0.0
  9
$PUCSYDIR
 10
0.0
 20
1.0
 30
0.0
  9
$PUCSORTHOREF
  2

  9
$PUCSORTHOVIEW
 70
     0
  9
$PUCSORGTOP
 10
0.0
 20
0.0
 30
0.0
  9
$PUCSORGBOTTOM
 10
0.0
 20
0.0
 30
0.0
  9
$PUCSORGLEFT
 10
0.0
 20
0.0
 30
0.0
  9
$PUCSORGRIGHT
 10
0.0
 20
0.0
 30
0.0
  9
$PUCSORGFRONT
 10
0.0
 20
0.0
 30
0.0
  9
$PUCSORGBACK
 10
0.0
 20
0.0
 30
0.0
  9
$USERI1
 70
     0
  9
$USERI2
 70
     0
  9
$USERI3
 70
     0
  9
$USERI4
 70
     0
  9
$USERI5
 70
     0
  9
$USERR1
 40
0.0
  9
$USERR2
 40
0.0
  9
$USERR3
 40
0.0
  9
$USERR4
 40
0.0
  9
$USERR5
 40
0.0
  9
$WORLDVIEW
 70
     1
  9
$SHADEDGE
 70
     3
  9
$SHADEDIF
 70
    70
  9
$TILEMODE
 70
     1
  9
$MAXACTVP
 70
    64
  9
$PINSBASE
 10
0.0
 20
0.0
 30
0.0
  9
$PLIMCHECK
 70
     0
  9
$PEXTMIN
 10
1.0000000000E+20
 20
1.0000000000E+20
 30
1.0000000000E+20
  9
$PEXTMAX
 10
-1.0000000000E+20
 20
-1.0000000000E+20
 30
-1.0000000000E+20
  9
$PLIMMIN
 10
0.0
 20
0.0
  9
$PLIMMAX
 10
420.0
 20
297.0
  9
$UNITMODE
 70
     0
  9
$VISRETAIN
 70
     1
  9
$PLINEGEN
 70
     0
  9
$PSLTSCALE
 70
     1
  9
$TREEDEPTH
 70
  3020
  9
$CMLSTYLE
  2
Standard
  9
$CMLJUST
 70
     0
  9
$CMLSCALE
 40
20.0
  9
$PROXYGRAPHICS
 70
     1
  9
$MEASUREMENT
 70
     1
  9
$CELWEIGHT
370
    -1
  9
$ENDCAPS
280
     0
  9
$JOINSTYLE
280
     0
  9
$LWDISPLAY
290
     1
  9
$INSUNITS
 70
     4
  9
$HYPERLINKBASE
  1

  9
$STYLESHEET
  1

  9
$XEDIT
290
     1
  9
$CEPSNTYPE
380
     0
  9
$PSTYLEMODE
290
     1
  9
$FINGERPRINTGUID
  2
{50B62932-4FEC-4BE4-92F6-9E91B4CE3A87}
  9
$VERSIONGUID
  2
{FAEB1C32-E019-11D5-929B-00C0DF256EC4}
  9
$EXTNAMES
290
     1
  9
$PSVPSCALE
 40
0.0
  9
$OLESTARTUP
290
     0
  0
ENDSEC
  0
SECTION
  2
CLASSES
  0
CLASS
  1
ACDBDICTIONARYWDFLT
  2
AcDbDictionaryWithDefault
  3
ObjectDBX Classes
 90
        0
280
     0
281
     0
  0
CLASS
  1
VISUALSTYLE
  2
AcDbVisualStyle
  3
ObjectDBX Classes
 90
     4095
280
     0
281
     0
  0
CLASS
  1
MATERIAL
  2
AcDbMaterial
  3
ObjectDBX Classes
 90
     1153
280
     0
281
     0
  0
CLASS
  1
SCALE
  2
AcDbScale
  3
ObjectDBX Classes
 90
     1153
280
     0
281
     0
  0
CLASS
  1
TABLESTYLE
  2
AcDbTableStyle
  3
ObjectDBX Classes
 90
     4095
280
     0
281
     0
  0
CLASS
  1
MLEADERSTYLE
  2
AcDbMLeaderStyle
  3
ACDB_MLEADERSTYLE_CLASS
 90
     4095
280
     0
281
     0
  0
CLASS
  1
SUN
  2
AcDbSun
  3
SCENEOE
 90
     1153
280
     0
281
     0
  0
CLASS
  1
ACDBPLACEHOLDER
  2
AcDbPlaceHolder
  3
ObjectDBX Classes
 90
        0
280
     0
281
     0
  0
CLASS
  1
LAYOUT
  2
AcDbLayout
  3
ObjectDBX Classes
 90
        0
280
     0
281
     0
  0
ENDSEC
  0
SECTION
  2
TABLES
  0
TABLE
  2
VPORT
  5
8
330
0
100
AcDbSymbolTable
 70
     1
  0
VPORT
  5
29
330
8
100
AcDbSymbolTableRecord
100
AcDbViewportTableRecord
  2
*Active
 70
     0
 10
0.0
 20
0.0
 11
1.0
 21
1.0
 12
148.5
 22
105.0
 13
0.0
 23
0.0
 14
10.0
 24
10.0
 15
10.0
 25
10.0
 16
0.0
 26
0.0
 36
1.0
 17
0.0
 27
0.0
 37
0.0
 40
210.0
 41
1.4142857143
 42
50.0
 43
0.0
 44
0.0
 50
0.0
 51
0.0
 71
     0
 72
  2000
 73
     1
 74
     3
 75
     0
 76
     0
 77
     0
 78
     0
281
     0
 65
     1
110
0.0
120
0.0
130
0.0
111
1.0
121
0.0
131
0.0
112
0.0
122
1.0
132
0.0
 79
     0
146
0.0
  0
ENDTAB
  0
TABLE
  2
LTYPE
  5
5
330
0
100
AcDbSymbolTable
 70
     6
  0
LTYPE
  5
14
330
5
100
AcDbSymbolTableRecord
100
AcDbLinetypeTableRecord
  2
ByBlock
 70
     0
  3

 72
    65
 73
     0
 40
0.0
  0
LTYPE
  5
15
330
5
100
AcDbSymbolTableRecord
100
AcDbLinetypeTableRecord
  2
ByLayer
 70
     0
  3

 72
    65
 73
     0
 40
0.0
  0
LTYPE
  5
16
330
5
100
AcDbSymbolTableRecord
100
AcDbLinetypeTableRecord
  2
Continuous
 70
     0
  3
Solid line
 72
    65
 73
     0
 40
0.0
  0
LTYPE
  5
6E
330
5
100
AcDbSymbolTableRecord
100
AcDbLinetypeTableRecord
  2
HIDDEN
 70
     0
  3
Hidden __ __ __ __ __ __ __ __ __ __ __ __ __ __
 72
    65
 73
     2
 40
1.905
 49
1.27
 74
     0
 49
-0.635
 74
     0
  0
LTYPE
  5
6F
330
5
100
AcDbSymbolTableRecord
100
AcDbLinetypeTableRecord
  2
PHANTOM
 70
     0
  3
Phantom ______  __  __  ______  __  __  ______
 72
    65
 73
     6
 40
12.7
 49
6.35
 74
     0
 49
-1.27
 74
     0
 49
1.27
 74
     0
 49
-1.27
 74
     0
 49
1.27
 74
     0
 49
-1.27
 74
     0
  0
LTYPE
  5
70
330
5
100
AcDbSymbolTableRecord
100
AcDbLinetypeTableRecord
  2
CENTER
 70
     0
  3
Center ____ _ ____ _ ____ _ ____ _ ____ _ ____
 72
    65
 73
     4
 40
10.16
 49
6.35
 74
     0
 49
-1.27
 74
     0
 49
1.27
 74
     0
 49
-1.27
 74
     0
  0
LTYPE
  5
71
330
5
100
AcDbSymbolTableRecord
100
AcDbLinetypeTableRecord
  2
CENTERX2
 70
     0
  3
Center (2x) ________  __  ________  __  _____
 72
    65
 73
     4
 40
20.32
 49
12.7
 74
     0
 49
-2.54
 74
     0
 49
2.54
 74
     0
 49
-2.54
 74
     0
  0
LTYPE
  5
72
330
5
100
AcDbSymbolTableRecord
100
AcDbLinetypeTableRecord
  2
DOT2
 70
     0
  3
Dot (.5x) ........................................
 72
    65
 73
     2
 40
0.635
 49
0.0
 74
     0
 49
-0.635
 74
     0
  0
ENDTAB
  0
TABLE
  2
LAYER
  5
2
330
0
100
AcDbSymbolTable
 70
     2
  0
LAYER
  5
10
330
2
100
AcDbSymbolTableRecord
100
AcDbLayerTableRecord
  2
0
 70
     0
 62
     7
  6
Continuous
370
    -3
390
F
  0
LAYER
  5
73
330
2
100
AcDbSymbolTableRecord
100
AcDbLayerTableRecord
  2
FORMAT
 70
     0
 62
     7
  6
Continuous
370
    -3
390
F
  0
ENDTAB
  0
TABLE
  2
STYLE
  5
3
330
0
100
AcDbSymbolTable
 70
     2
  0
STYLE
  5
11
330
3
100
AcDbSymbolTableRecord
100
AcDbTextStyleTableRecord
  2
Standard
 70
     0
 40
0.0
 41
1.0
 50
0.0
 71
     0
 42
3.5277777778
  3
txt
  4
bigfont
  0
STYLE
  5
74
330
3
100
AcDbSymbolTableRecord
100
AcDbTextStyleTableRecord
  2
SLDTEXTSTYLE0
 70
     0
 40
0.0
 41
0.7
 50
0.0
 71
     0
 42
3.5277777778
  3
TXT
  4
bigfont
  0
ENDTAB
  0
TABLE
  2
VIEW
  5
6
330
0
100
AcDbSymbolTable
 70
     0
  0
ENDTAB
  0
TABLE
  2
UCS
  5
7
330
0
100
AcDbSymbolTable
 70
     0
  0
ENDTAB
  0
TABLE
  2
APPID
  5
9
330
0
100
AcDbSymbolTable
 70
     1
  0
APPID
  5
12
330
9
100
AcDbSymbolTableRecord
100
AcDbRegAppTableRecord
  2
ACAD
 70
     0
  0
ENDTAB
  0
TABLE
  2
DIMSTYLE
  5
A
330
0
100
AcDbSymbolTable
 70
     1
100
AcDbDimStyleTable
  0
DIMSTYLE
105
27
330
A
100
AcDbSymbolTableRecord
100
AcDbDimStyleTableRecord
  2
ISO-25
 70
     0
 41
2.5
 42
0.625
 43
3.75
 44
1.25
 73
     0
 74
     0
 77
     1
 78
     8
140
2.5
141
2.5
143
0.0393700787
147
0.625
171
     3
172
     1
178
     0
271
     2
272
     2
274
     3
278
    44
283
     0
284
     8
340
11
  0
ENDTAB
  0
TABLE
  2
BLOCK_RECORD
  5
1
330
0
100
AcDbSymbolTable
 70
     1
  0
BLOCK_RECORD
  5
1F
330
1
100
AcDbSymbolTableRecord
100
AcDbBlockTableRecord
  2
*Model_Space
340
22
  0
BLOCK_RECORD
  5
1B
330
1
100
AcDbSymbolTableRecord
100
AcDbBlockTableRecord
  2
*Paper_Space
340
1E
  0
BLOCK_RECORD
  5
23
330
1
100
AcDbSymbolTableRecord
100
AcDbBlockTableRecord
  2
*Paper_Space0
340
26
  0
ENDTAB
  0
ENDSEC
  0
SECTION
  2
BLOCKS
  0
BLOCK
  5
20
330
1F
100
AcDbEntity
  8
0
100
AcDbBlockBegin
  2
*Model_Space
 70
     0
 10
0.0
 20
0.0
 30
0.0
  3
*Model_Space
  1

  0
ENDBLK
  5
21
330
1F
100
AcDbEntity
  8
0
100
AcDbBlockEnd
  0
BLOCK
  5
1C
330
1B
100
AcDbEntity
 67
     1
  8
0
100
AcDbBlockBegin
  2
*Paper_Space
 70
     0
 10
0.0
 20
0.0
 30
0.0
  3
*Paper_Space
  1

  0
ENDBLK
  5
1D
330
1B
100
AcDbEntity
 67
     1
  8
0
100
AcDbBlockEnd
  0
BLOCK
  5
24
330
23
100
AcDbEntity
  8
0
100
AcDbBlockBegin
  2
*Paper_Space0
 70
     0
 10
0.0
 20
0.0
 30
0.0
  3
*Paper_Space0
  1

  0
ENDBLK
  5
25
330
23
100
AcDbEntity
  8
0
100
AcDbBlockEnd
  0
ENDSEC
  0
SECTION
  2
ENTITIES
  0
MTEXT
  5
75
330
1F
100
AcDbEntity
  8
FORMAT
100
AcDbMText
 10
117.1857493857
 20
107.6369320459
 30
0.0
 40
5.8208333333
 41
0.0
 71
     1
 72
     1
  1
HN-7340
  7
SLDTEXTSTYLE0
 73
     1
 44
1.0
  0
LINE
  5
76
330
1F
100
AcDbEntity
  8
0
  6
Continuous
 62
     7
370
    25
100
AcDbLine
 10
72.2752556906
 20
48.5297960073
 30
0.0
 11
74.0823095823
 21
51.6597051597
 31
0.0
  0
LINE
  5
77
330
1F
100
AcDbEntity
  8
0
  6
Continuous
 62
     7
370
    25
100
AcDbLine
 10
74.0823095823
 20
84.6597051597
 30
0.0
 11
72.2752556906
 21
87.7896143122
 31
0.0
  0
LINE
  5
78
330
1F
100
AcDbEntity
  8
0
  6
Continuous
 62
     7
370
    25
100
AcDbLine
 10
59.5983095823
 20
85.1597051597
 30
0.0
 11
40.2301284496
 21
84.5544494993
 31
0.0
  0
LINE
  5
79
330
1F
100
AcDbEntity
  8
0
  6
Continuous
 62
     7
370
    25
100
AcDbLine
 10
40.2301284496
 20
51.7649608201
 30
0.0
 11
59.5983095823
 21
51.1597051597
 31
0.0
  0
LINE
  5
7A
330
1F
100
AcDbEntity
  8
0
  6
Continuous
 62
     7
370
    25
100
AcDbLine
 10
62.0823095823
 20
85.1597051597
 30
0.0
 11
59.5983095823
 21
85.1597051597
 31
0.0
  0
LINE
  5
7B
330
1F
100
AcDbEntity
  8
0
  6
Continuous
 62
     7
370
    25
100
AcDbLine
 10
59.5983095823
 20
51.1597051597
 30
0.0
 11
62.0823095823
 21
51.1597051597
 31
0.0
  0
LINE
  5
7C
330
1F
100
AcDbEntity
  8
0
  6
Continuous
 62
     7
370
    25
100
AcDbLine
 10
40.2301284496
 20
84.5544494993
 30
0.0
 11
36.0823095823
 21
82.1597051597
 31
0.0
  0
LINE
  5
7D
330
1F
100
AcDbEntity
  8
0
  6
Continuous
 62
     7
370
    25
100
AcDbLine
 10
36.0823095823
 20
54.1597051597
 30
0.0
 11
40.2301284496
 21
51.7649608201
 31
0.0
  0
LINE
  5
7E
330
1F
100
AcDbEntity
  8
0
  6
Continuous
 62
     7
370
    25
100
AcDbLine
 10
82.0823095823
 20
55.4597051597
 30
0.0
 11
90.9339691294
 21
56.7874540918
 31
0.0
  0
LINE
  5
7F
330
1F
100
AcDbEntity
  8
0
  6
Continuous
 62
     7
370
    25
100
AcDbLine
 10
90.9339691294
 20
79.5319562276
 30
0.0
 11
82.0823095823
 21
80.8597051597
 31
0.0
  0
LINE
  5
80
330
1F
100
AcDbEntity
  8
0
  6
Continuous
 62
     7
370
    25
100
AcDbLine
 10
74.0823095823
 20
55.4597051597
 30
0.0
 11
82.0823095823
 21
55.4597051597
 31
0.0
  0
LINE
  5
81
330
1F
100
AcDbEntity
  8
0
  6
Continuous
 62
     7
370
    25
100
AcDbLine
 10
82.0823095823
 20
80.8597051597
 30
0.0
 11
74.0823095823
 21
80.8597051597
 31
0.0
  0
ARC
  5
82
330
1F
100
AcDbEntity
  8
0
  6
Continuous
 62
     7
370
    25
100
AcDbCircle
 10
112.2823095823
 20
55.6862616034
 30
0.0
 40
0.2000000000000028
100
AcDbArc
 50
180.0
 51
277.1250163489
  0
ARC
  5
83
330
1F
100
AcDbEntity
  8
0
  6
Continuous
 62
     7
370
    25
100
AcDbCircle
 10
112.2823095823
 20
80.633148716
 30
0.0
 40
0.2000000000000123
100
AcDbArc
 50
82.8749836511
 51
180.0
  0
LINE
  5
84
330
1F
100
AcDbEntity
  8
0
  6
Continuous
 62
     7
370
    25
100
AcDbLine
 10
112.3071165292
 20
55.4878060281
 30
0.0
 11
123.2063443169
 21
56.8502095015
 31
0.0
  0
LINE
  5
85
330
1F
100
AcDbEntity
  8
0
  6
Continuous
 62
     7
370
    25
100
AcDbLine
 10
123.2063443169
 20
79.4692008179
 30
0.0
 11
112.3071165292
 21
80.8316042913
 31
0.0
  0
ARC
  5
86
330
1F
100
AcDbEntity
  8
0
  6
Continuous
 62
     7
370
    25
100
AcDbCircle
 10
92.2823095823
 20
55.6919426439
 30
0.0
 40
0.1999999999999955
100
AcDbArc
 50
180.0
 51
278.5307656099
  0
ARC
  5
87
330
1F
100
AcDbEntity
  8
0
  6
Continuous
 62
     7
370
    25
100
AcDbCircle
 10
92.2823095823
 20
80.6274676755
 30
0.0
 40
0.1999999999999955
100
AcDbArc
 50
81.4692343901
 51
180.0
  0
LINE
  5
88
330
1F
100
AcDbEntity
  8
0
  6
Continuous
 62
     7
370
    25
100
AcDbLine
 10
92.3119776729
 20
55.4941553733
 30
0.0
 11
100.9339691294
 21
56.7874540918
 31
0.0
  0
LINE
  5
89
330
1F
100
AcDbEntity
  8
0
  6
Continuous
 62
     7
370
    25
100
AcDbLine
 10
100.9339691294
 20
79.5319562276
 30
0.0
 11
92.3119776729
 21
80.8252549461
 31
0.0
  0
ARC
  5
8A
330
1F
100
AcDbEntity
  8
0
  6
Continuous
 62
     7
370
    25
100
AcDbCircle
 10
102.2744903303
 20
80.3841261225
 30
0.0
 40
0.2000000000000159
100
AcDbArc
 50
82.8749836511
 51
173.4556620663
  0
ARC
  5
8B
330
1F
100
AcDbEntity
  8
0
  6
Continuous
 62
     7
370
    25
100
AcDbCircle
 10
102.2744903303
 20
55.9352841969
 30
0.0
 40
0.2000000000000018
100
AcDbArc
 50
186.5443379337
 51
277.1250163489
  0
LINE
  5
8C
330
1F
100
AcDbEntity
  8
0
  6
Continuous
 62
     7
370
    25
100
AcDbLine
 10
102.2992972773
 20
55.7368286216
 30
0.0
 11
110.9582748477
 21
56.8192008179
 31
0.0
  0
LINE
  5
8D
330
1F
100
AcDbEntity
  8
0
  6
Continuous
 62
     7
370
    25
100
AcDbLine
 10
110.9582748477
 20
79.5002095015
 30
0.0
 11
102.2992972773
 21
80.5825816978
 31
0.0
  0
ARC
  5
8E
330
1F
100
AcDbEntity
  8
0
  6
Continuous
 62
     7
370
    25
100
AcDbCircle
 10
91.0823095823
 20
55.7985177389
 30
0.0
 40
1.000000000000003
100
AcDbArc
 50
0.0
 51
98.5307656099
  0
ARC
  5
8F
330
1F
100
AcDbEntity
  8
0
  6
Continuous
 62
     7
370
    25
100
AcDbCircle
 10
91.0823095823
 20
80.5208925805
 30
0.0
 40
1.0
100
AcDbArc
 50
261.4692343901
 51
0.0
  0
ARC
  5
90
330
1F
100
AcDbEntity
  8
0
  6
Continuous
 62
     7
370
    25
100
AcDbCircle
 10
111.0823095823
 20
55.8269229412
 30
0.0
 40
1.00000000000001
100
AcDbArc
 50
0.0
 51
97.1250163489
  0
ARC
  5
91
330
1F
100
AcDbEntity
  8
0
  6
Continuous
 62
     7
370
    25
100
AcDbCircle
 10
111.0823095823
 20
80.4924873782
 30
0.0
 40
1.000000000000003
100
AcDbArc
 50
262.8749836511
 51
0.0
  0
ARC
  5
92
330
1F
100
AcDbEntity
  8
0
  6
Continuous
 62
     7
370
    25
100
AcDbCircle
 10
101.0823095823
 20
55.7985177389
 30
0.0
 40
1.000000000000007
100
AcDbArc
 50
6.5443379337
 51
98.5307656099
  0
ARC
  5
93
330
1F
100
AcDbEntity
  8
0
  6
Continuous
 62
     7
370
    25
100
AcDbCircle
 10
101.0823095823
 20
80.5208925805
 30
0.0
 40
1.000000000000007
100
AcDbArc
 50
261.4692343901
 51
353.4556620663
  0
ARC
  5
94
330
1F
100
AcDbEntity
  8
0
  6
Continuous
 62
     7
370
    25
100
AcDbCircle
 10
123.0823095823
 20
78.4769229412
 30
0.0
 40
1.0
100
AcDbArc
 50
0.0
 51
82.8749836511
  0
ARC
  5
95
330
1F
100
AcDbEntity
  8
0
  6
Continuous
 62
     7
370
    25
100
AcDbCircle
 10
123.0823095823
 20
57.8424873782
 30
0.0
 40
1.0
100
AcDbArc
 50
277.1250163489
 51
0.0
  0
LINE
  5
96
330
1F
100
AcDbEntity
  8
0
  6
Continuous
 62
     7
370
    25
100
AcDbLine
 10
63.6006883394
 20
87.7896143122
 30
0.0
 11
62.0823095823
 21
85.1597051597
 31
0.0
  0
LINE
  5
97
330
1F
100
AcDbEntity
  8
0
  6
Continuous
 62
     7
370
    25
100
AcDbLine
 10
62.0823095823
 20
51.1597051597
 30
0.0
 11
63.6006883394
 21
48.5297960073
 31
0.0
  0
LINE
  5
98
330
1F
100
AcDbEntity
  8
0
  6
Continuous
 62
     7
370
    25
100
AcDbLine
 10
62.0823095823
 20
68.1597051597
 30
0.0
 11
62.0823095823
 21
82.882137024
 31
0.0
  0
SPLINE
  5
99
330
1F
100
AcDbEntity
  8
0
  6
Continuous
 62
     7
370
    25
100
AcDbSpline
210
0.0
220
0.0
230
1.0
 70
     8
 71
     3
 72
    10
 73
     6
 74
     0
 42
0.000000001
 43
0.00000001
 40
0.0
 40
0.0
 40
0.0
 40
0.0
 40
0.5
 40
0.5
 40
1.0
 40
1.0
 40
1.0
 40
1.0
 10
63.60068833941845
 20
77.97465973592873
 30
0.0
 10
63.13719238363333
 20
78.77745828045127
 30
0.0
 10
62.7553404876631
 20
79.58612090912128
 30
0.0
 10
62.2270193307282
 20
81.22035252292682
 30
0.0
 10
62.08230958230956
 20
82.04604788504133
 30
0.0
 10
62.08230958230956
 20
82.88213702404063
 30
0.0
  0
SPLINE
  5
9A
330
1F
100
AcDbEntity
  8
0
  6
Continuous
 62
     7
370
    25
100
AcDbSpline
210
0.0
220
0.0
230
1.0
 70
     8
 71
     3
 72
    12
 73
     8
 74
     0
 42
0.000000001
 43
0.00000001
 40
0.0
 40
0.0
 40
0.0
 40
0.0
 40
0.25
 40
0.25
 40
0.5
 40
0.5
 40
1.0
 40
1.0
 40
1.0
 40
1.0
 10
62.08230958230958
 20
68.15970515970513
 30
0.0
 10
62.08230958230958
 20
68.99036494105192
 30
0.0
 10
62.11774573743146
 20
69.82518761637184
 30
0.0
 10
62.25816088003304
 20
71.49614715165085
 30
0.0
 10
62.36212712559834
 20
72.32275022252001
 30
0.0
 10
62.76105652905978
 20
74.77967509931071
 30
0.0
 10
63.14244862239217
 20
76.38727079205493
 30
0.0
 10
63.60068833941927
 20
77.9746597359288
 30
0.0
  0
LINE
  5
9B
330
1F
100
AcDbEntity
  8
0
  6
Continuous
 62
     7
370
    25
100
AcDbLine
 10
72.2752556906
 20
77.9746597359
 30
0.0
 11
63.6006883394
 21
77.9746597359
 31
0.0
  0
SPLINE
  5
9C
330
1F
100
AcDbEntity
  8
0
  6
Continuous
 62
     7
370
    25
100
AcDbSpline
210
0.0
220
0.0
230
1.0
 70
     8
 71
     3
 72
    14
 73
    10
 74
     0
 42
0.000000001
 43
0.00000001
 40
0.0
 40
0.0
 40
0.0
 40
0.0
 40
0.25
 40
0.25
 40
0.5
 40
0.5
 40
0.75
 40
0.75
 40
1.0
 40
1.0
 40
1.0
 40
1.0
 10
72.2752556906051
 20
58.34475058348144
 30
0.0
 10
72.73661949701423
 20
59.94296169042939
 30
0.0
 10
73.12295825895472
 20
61.57793580124353
 30
0.0
 10
73.65115209567787
 20
64.85425801746756
 30
0.0
 10
73.79383145385052
 20
66.50268815092353
 30
0.0
 10
73.79343702624351
 20
69.82371630815378
 30
0.0
 10
73.64653978473008
 20
71.50582210486833
 30
0.0
 10
73.11462035205068
 20
74.78083489239866
 30
0.0
 10
72.73331878452038
 20
76.38788263246175
 30
0.0
 10
72.27525569060506
 20
77.9746597359288
 30
0.0
  0
LINE
  5
9D
330
1F
100
AcDbEntity
  8
0
  6
Continuous
 62
     7
370
    25
100
AcDbLine
 10
72.2752556906
 20
58.3447505835
 30
0.0
 11
63.6006883394
 21
58.3447505835
 31
0.0
  0
SPLINE
  5
9E
330
1F
100
AcDbEntity
  8
0
  6
Continuous
 62
     7
370
    25
100
AcDbSpline
210
0.0
220
0.0
230
1.0
 70
     8
 71
     3
 72
    10
 73
     6
 74
     0
 42
0.000000001
 43
0.00000001
 40
0.0
 40
0.0
 40
0.0
 40
0.0
 40
0.4999999999999999
 40
0.4999999999999999
 40
1.0
 40
1.0
 40
1.0
 40
1.0
 10
63.60068833941923
 20
58.34475058348144
 30
0.0
 10
63.13943093306374
 20
59.9425931098318
 30
0.0
 10
62.75325008387458
 20
61.5768493957648
 30
0.0
 10
62.22511136640551
 20
64.85172413555753
 30
0.0
 10
62.08230958230958
 20
66.49958022855388
 30
0.0
 10
62.08230958230958
 20
68.15970515970513
 30
0.0
  0
SPLINE
  5
9F
330
1F
100
AcDbEntity
  8
0
  6
Continuous
 62
     7
370
    25
100
AcDbSpline
210
0.0
220
0.0
230
1.0
 70
     8
 71
     3
 72
    12
 73
     8
 74
     0
 42
0.000000001
 43
0.00000001
 40
0.0
 40
0.0
 40
0.0
 40
0.0
 40
0.2499999999999998
 40
0.2499999999999998
 40
0.4999999999999998
 40
0.4999999999999998
 40
1.0
 40
1.0
 40
1.0
 40
1.0
 10
62.08230958230956
 20
82.88213702404063
 30
0.0
 10
62.08230958230956
 20
83.29861862820192
 30
0.0
 10
62.11819839613197
 20
83.71696829400861
 30
0.0
 10
62.25708400977237
 20
84.54455117317025
 30
0.0
 10
62.3599472887418
 20
84.95557468288806
 30
0.0
 10
62.75668011292373
 20
86.18134508756681
 30
0.0
 10
63.13834967955279
 20
86.98882026296117
 30
0.0
 10
63.60068833941886
 20
87.7896143121525
 30
0.0
  0
LINE
  5
A0
330
1F
100
AcDbEntity
  8
0
  6
Continuous
 62
     7
370
    25
100
AcDbLine
 10
72.2752556906
 20
87.7896143122
 30
0.0
 11
63.6006883394
 21
87.7896143122
 31
0.0
  0
SPLINE
  5
A1
330
1F
100
AcDbEntity
  8
0
  6
Continuous
 62
     7
370
    25
100
AcDbSpline
210
0.0
220
0.0
230
1.0
 70
     8
 71
     3
 72
    16
 73
    12
 74
     0
 42
0.000000001
 43
0.00000001
 40
0.0
 40
0.0
 40
0.0
 40
0.0
 40
0.25
 40
0.25
 40
0.5
 40
0.5
 40
0.6250000000000001
 40
0.6250000000000001
 40
0.7500000000000002
 40
0.7500000000000002
 40
1.0
 40
1.0
 40
1.0
 40
1.0
 10
72.27525569060589
 20
87.78961431215252
 30
0.0
 10
72.73788519797114
 20
86.98831650031535
 30
0.0
 10
73.11917578463203
 20
86.18117652094564
 30
0.0
 10
73.64738709744664
 20
84.55006294826345
 30
0.0
 10
73.79256548007457
 20
83.72596421113681
 30
0.0
 10
73.79415997225648
 20
82.47428947503761
 30
0.0
 10
73.75866945900958
 20
82.05510150811138
 30
0.0
 10
73.62027529195
 20
81.2259034733589
 30
0.0
 10
73.51751207982544
 20
80.81408444931456
 30
0.0
 10
73.1206960823522
 20
79.58595925320823
 30
0.0
 10
72.73846187894428
 20
78.77695638851186
 30
0.0
 10
72.27525569060549
 20
77.97465973592875
 30
0.0
  0
SPLINE
  5
A2
330
1F
100
AcDbEntity
  8
0
  6
Continuous
 62
     7
370
    25
100
AcDbSpline
210
0.0
220
0.0
230
1.0
 70
     8
 71
     3
 72
    16
 73
    12
 74
     0
 42
0.000000001
 43
0.00000001
 40
0.0
 40
0.0
 40
0.0
 40
0.0
 40
0.25
 40
0.25
 40
0.5
 40
0.5
 40
0.625
 40
0.625
 40
0.75
 40
0.75
 40
1.0
 40
1.0
 40
1.0
 40
1.0
 10
72.27525569060589
 20
58.34475058348151
 30
0.0
 10
72.73788519797114
 20
57.54345277164435
 30
0.0
 10
73.11917578463203
 20
56.73631279227465
 30
0.0
 10
73.64738709744664
 20
55.10519921959249
 30
0.0
 10
73.79256548007457
 20
54.28110048246587
 30
0.0
 10
73.79415997225648
 20
53.02942574636666
 30
0.0
 10
73.75866945900958
 20
52.61023777944043
 30
0.0
 10
73.62027529195
 20
51.78103974468798
 30
0.0
 10
73.51751207982544
 20
51.36922072064363
 30
0.0
 10
73.1206960823522
 20
50.14109552453731
 30
0.0
 10
72.73846187894428
 20
49.33209265984095
 30
0.0
 10
72.27525569060549
 20
48.52979600725786
 30
0.0
  0
LINE
  5
A3
330
1F
100
AcDbEntity
  8
0
  6
Continuous
 62
     7
370
    25
100
AcDbLine
 10
74.0823095823
 20
84.6597051597
 30
0.0
 11
74.0823095823
 21
51.6597051597
 31
0.0
  0
SPLINE
  5
A4
330
1F
100
AcDbEntity
  8
0
  6
Continuous
 62
     7
370
    25
100
AcDbSpline
210
0.0
220
0.0
230
1.0
 70
     8
 71
     3
 72
    12
 73
     8
 74
     0
 42
0.000000001
 43
0.00000001
 40
0.0
 40
0.0
 40
0.0
 40
0.0
 40
0.2499999999999999
 40
0.2499999999999999
 40
0.4999999999999998
 40
0.4999999999999998
 40
1.0
 40
1.0
 40
1.0
 40
1.0
 10
62.08230958230956
 20
53.43727329536967
 30
0.0
 10
62.08230958230956
 20
53.85375489953097
 30
0.0
 10
62.11819839613197
 20
54.27210456533766
 30
0.0
 10
62.25708400977237
 20
55.0996874444993
 30
0.0
 10
62.3599472887418
 20
55.51071095421708
 30
0.0
 10
62.75668011292373
 20
56.73648135889582
 30
0.0
 10
63.13834967955279
 20
57.54395653429017
 30
0.0
 10
63.60068833941886
 20
58.34475058348149
 30
0.0
  0
LINE
  5
A5
330
1F
100
AcDbEntity
  8
0
  6
Continuous
 62
     7
370
    25
100
AcDbLine
 10
62.0823095823
 20
68.1597051597
 30
0.0
 11
62.0823095823
 21
53.4372732954
 31
0.0
  0
LINE
  5
A6
330
1F
100
AcDbEntity
  8
0
  6
Continuous
 62
     7
370
    25
100
AcDbLine
 10
40.2301284496
 20
51.7649608201
 30
0.0
 11
40.2301284496
 21
84.5544494993
 31
0.0
  0
LINE
  5
A7
330
1F
100
AcDbEntity
  8
0
  6
Continuous
 62
     7
370
    25
100
AcDbLine
 10
59.5983095823
 20
85.1597051597
 30
0.0
 11
59.5983095823
 21
51.1597051597
 31
0.0
  0
LINE
  5
A8
330
1F
100
AcDbEntity
  8
0
  6
Continuous
 62
     7
370
    25
100
AcDbLine
 10
62.0823095823
 20
85.1597051597
 30
0.0
 11
62.0823095823
 21
82.882137024
 31
0.0
  0
LINE
  5
A9
330
1F
100
AcDbEntity
  8
0
  6
Continuous
 62
     7
370
    25
100
AcDbLine
 10
62.0823095823
 20
53.4372732954
 30
0.0
 11
62.0823095823
 21
51.1597051597
 31
0.0
  0
LINE
  5
AA
330
1F
100
AcDbEntity
  8
0
  6
Continuous
 62
     7
370
    25
100
AcDbLine
 10
72.2752556906
 20
48.5297960073
 30
0.0
 11
63.6006883394
 21
48.5297960073
 31
0.0
  0
SPLINE
  5
AB
330
1F
100
AcDbEntity
  8
0
  6
Continuous
 62
     7
370
    25
100
AcDbSpline
210
0.0
220
0.0
230
1.0
 70
     8
 71
     3
 72
    10
 73
     6
 74
     0
 42
0.000000001
 43
0.00000001
 40
0.0
 40
0.0
 40
0.0
 40
0.0
 40
0.5
 40
0.5
 40
1.0
 40
1.0
 40
1.0
 40
1.0
 10
63.60068833941845
 20
48.52979600725784
 30
0.0
 10
63.13719238363333
 20
49.33259455178037
 30
0.0
 10
62.75534048766308
 20
50.14125718045036
 30
0.0
 10
62.2270193307282
 20
51.77548879425591
 30
0.0
 10
62.08230958230956
 20
52.60118415637039
 30
0.0
 10
62.08230958230956
 20
53.43727329536967
 30
0.0
  0
LINE
  5
AC
330
1F
100
AcDbEntity
  8
0
  6
Continuous
 62
     7
370
    25
100
AcDbLine
 10
36.0823095823
 20
68.1597051597
 30
0.0
 11
36.0823095823
 21
82.1597051597
 31
0.0
  0
LINE
  5
AD
330
1F
100
AcDbEntity
  8
0
  6
Continuous
 62
     7
370
    25
100
AcDbLine
 10
36.0823095823
 20
54.1597051597
 30
0.0
 11
36.0823095823
 21
68.1597051597
 31
0.0
  0
LINE
  5
AE
330
1F
100
AcDbEntity
  8
0
  6
Continuous
 62
     7
370
    25
100
AcDbLine
 10
82.0823095823
 20
55.4597051597
 30
0.0
 11
82.0823095823
 21
80.8597051597
 31
0.0
  0
LINE
  5
AF
330
1F
100
AcDbEntity
  8
0
  6
Continuous
 62
     7
370
    25
100
AcDbLine
 10
112.0823095823
 20
55.6862616034
 30
0.0
 11
112.0823095823
 21
80.633148716
 31
0.0
  0
LINE
  5
B0
330
1F
100
AcDbEntity
  8
0
  6
Continuous
 62
     7
370
    25
100
AcDbLine
 10
92.0823095823
 20
55.6919433568
 30
0.0
 11
92.0823095823
 21
80.6274676755
 31
0.0
  0
LINE
  5
B1
330
1F
100
AcDbEntity
  8
0
  6
Continuous
 62
     7
370
    25
100
AcDbLine
 10
124.0823095823
 20
57.8424873782
 30
0.0
 11
124.0823095823
 21
78.4769229412
 31
0.0
  0
LINE
  5
B2
330
1F
100
AcDbEntity
  8
0
  6
Continuous
 62
     1
370
    25
100
AcDbLine
 10
90.9339691294
 20
56.7874540918
 30
0.0
 11
90.9339691294
 21
79.5319562276
 31
0.0
  0
LINE
  5
B3
330
1F
100
AcDbEntity
  8
0
  6
Continuous
 62
     1
370
    25
100
AcDbLine
 10
112.3071165292
 20
80.8316042913
 30
0.0
 11
112.3071165292
 21
55.4878060281
 31
0.0
  0
LINE
  5
B4
330
1F
100
AcDbEntity
  8
0
  6
Continuous
 62
     1
370
    25
100
AcDbLine
 10
123.2063443169
 20
56.8502095015
 30
0.0
 11
123.2063443169
 21
79.4692008179
 31
0.0
  0
LINE
  5
B5
330
1F
100
AcDbEntity
  8
0
  6
Continuous
 62
     1
370
    25
100
AcDbLine
 10
92.3119776729
 20
80.8252549461
 30
0.0
 11
92.3119776729
 21
55.4941553733
 31
0.0
  0
LINE
  5
B6
330
1F
100
AcDbEntity
  8
0
  6
Continuous
 62
     1
370
    25
100
AcDbLine
 10
100.9339691294
 20
56.7874540918
 30
0.0
 11
100.9339691294
 21
79.5319562276
 31
0.0
  0
LINE
  5
B7
330
1F
100
AcDbEntity
  8
0
  6
Continuous
 62
     1
370
    25
100
AcDbLine
 10
102.075793539
 20
55.9124897872
 30
0.0
 11
102.075793539
 21
80.4069205322
 31
0.0
  0
LINE
  5
B8
330
1F
100
AcDbEntity
  8
0
  6
Continuous
 62
     1
370
    25
100
AcDbLine
 10
102.2992972773
 20
80.5825816978
 30
0.0
 11
102.2992972773
 21
55.7368286216
 31
0.0
  0
LINE
  5
B9
330
1F
100
AcDbEntity
  8
0
  6
Continuous
 62
     1
370
    25
100
AcDbLine
 10
110.9582748477
 20
56.8192008179
 30
0.0
 11
110.9582748477
 21
79.5002095015
 31
0.0
  0
LINE
  5
BA
330
1F
100
AcDbEntity
  8
FORMAT
100
AcDbLine
 10
110.3225607758
 20
81.0796737605
 30
0.0
 11
110.0977538289
 21
81.1077746289
 31
0.0
  0
LINE
  5
BB
330
1F
100
AcDbEntity
  8
FORMAT
100
AcDbLine
 10
112.0823095823
 20
82.633148716
 30
0.0
 11
112.0823095823
 21
82.8597051597
 31
0.0
  0
LINE
  5
BC
330
1F
100
AcDbEntity
  8
FORMAT
100
AcDbLine
 10
110.3225607758
 20
55.2397365589
 30
0.0
 11
110.0977538289
 21
55.2116356905
 31
0.0
  0
LINE
  5
BD
330
1F
100
AcDbEntity
  8
FORMAT
100
AcDbLine
 10
112.0823095823
 20
53.6862616034
 30
0.0
 11
112.0823095823
 21
53.4597051597
 31
0.0
  0
LINE
  5
BE
330
1F
100
AcDbEntity
  8
0
  6
Continuous
 62
     7
370
    18
100
AcDbLine
 10
37.5845623858
 20
83.0270312202
 30
0.0
 11
59.5981295823
 21
83.7149551951
 31
0.0
  0
LINE
  5
BF
330
1F
100
AcDbEntity
  8
0
  6
Continuous
 62
     7
370
    18
100
AcDbLine
 10
37.5845623858
 20
53.2923790992
 30
0.0
 11
59.5981295823
 21
52.6044551243
 31
0.0
  0
LINE
  5
C0
330
1F
100
AcDbEntity
  8
0
  6
Continuous
 62
     7
370
    18
100
AcDbLine
 10
59.5981295823
 20
51.1597107847
 30
0.0
 11
59.5981295823
 21
85.1596995347
 31
0.0
  0
CIRCLE
  5
C1
330
1F
100
AcDbEntity
  8
0
  6
Continuous
 62
     7
370
    25
100
AcDbCircle
 10
167.7095823096
 20
68.1597051597
 30
0.0
 40
12.67344355629254
  0
CIRCLE
  5
C2
330
1F
100
AcDbEntity
  8
0
  6
Continuous
 62
     7
370
    25
100
AcDbCircle
 10
167.7095823096
 20
68.1597051597
 30
0.0
 40
10.31721778146269
  0
CIRCLE
  5
C3
330
1F
100
AcDbEntity
  8
0
  6
Continuous
 62
     7
370
    25
100
AcDbCircle
 10
167.7095823096
 20
68.1597051597
 30
0.0
 40
8.399999999999942
  0
CIRCLE
  5
C4
330
1F
100
AcDbEntity
  8
0
  6
Continuous
 62
     7
370
    25
100
AcDbCircle
 10
167.7095823096
 20
68.1597051597
 30
0.0
 40
11.30949565817635
  0
CIRCLE
  5
C5
330
1F
100
AcDbEntity
  8
0
  6
Continuous
 62
     7
370
    25
100
AcDbCircle
 10
167.7095823096
 20
68.1597051597
 30
0.0
 40
8.0
  0
CIRCLE
  5
C6
330
1F
100
AcDbEntity
  8
0
  6
Continuous
 62
     7
370
    25
100
AcDbCircle
 10
167.7095823096
 20
68.1597051597
 30
0.0
 40
12.67189913163528
  0
CIRCLE
  5
C7
330
1F
100
AcDbEntity
  8
0
  6
Continuous
 62
     7
370
    25
100
AcDbCircle
 10
167.7095823096
 20
68.1597051597
 30
0.0
 40
12.7
  0
CIRCLE
  5
C8
330
1F
100
AcDbEntity
  8
0
  6
Continuous
 62
     7
370
    25
100
AcDbCircle
 10
167.7095823096
 20
68.1597051597
 30
0.0
 40
16.5
  0
SPLINE
  5
C9
330
1F
100
AcDbEntity
  8
0
  6
Continuous
 62
     7
370
    25
100
AcDbSpline
210
0.0
220
0.0
230
1.0
 70
    24
 71
     3
 72
    14
 73
    10
 74
     0
 42
0.000000001
 43
0.00000001
 40
0.0
 40
0.0
 40
0.0
 40
0.0
 40
0.2500000000000001
 40
0.2500000000000001
 40
0.5
 40
0.5
 40
0.75
 40
0.75
 40
1.0
 40
1.0
 40
1.0
 40
1.0
 10
184.7095823095824
 20
58.34475058348168
 30
0.0
 10
184.7095823095823
 20
59.94296169043011
 30
0.0
 10
184.7095823095823
 20
61.57793580124437
 30
0.0
 10
184.7095823095823
 20
64.85425801746392
 30
0.0
 10
184.7095823095823
 20
66.50268815091638
 30
0.0
 10
184.7095823095823
 20
69.82371630813653
 30
0.0
 10
184.7095823095822
 20
71.50582210485331
 30
0.0
 10
184.7095823095822
 20
74.78083489239481
 30
0.0
 10
184.7095823095822
 20
76.38788263246077
 30
0.0
 10
184.7095823095822
 20
77.97465973592901
 30
0.0
  0
SPLINE
  5
CA
330
1F
100
AcDbEntity
  8
0
  6
Continuous
 62
     7
370
    25
100
AcDbSpline
210
0.0
220
0.0
230
1.0
 70
    24
 71
     3
 72
    16
 73
    12
 74
     0
 42
0.000000001
 43
0.00000001
 40
0.0
 40
0.0
 40
0.0
 40
0.0
 40
0.2499999999999998
 40
0.2499999999999998
 40
0.4999999999999997
 40
0.4999999999999997
 40
0.6249999999999998
 40
0.6249999999999998
 40
0.7499999999999999
 40
0.7499999999999999
 40
1.0
 40
1.0
 40
1.0
 40
1.0
 10
167.7095823095823
 20
48.52979600725784
 30
0.0
 10
169.0974708316781
 20
49.33109381909502
 30
0.0
 10
170.4954782847665
 20
50.13823379846475
 30
0.0
 10
173.3206498655672
 20
51.76934737114694
 30
0.0
 10
174.7480307487239
 20
52.59344610827358
 30
0.0
 10
176.915994986198
 20
53.84512084437281
 30
0.0
 10
177.6420498428358
 20
54.26430881129906
 30
0.0
 10
179.0782629685633
 20
55.09350684605153
 30
0.0
 10
179.7915544417315
 20
55.50532587009589
 30
0.0
 10
181.9187296794432
 20
56.73345106620223
 30
0.0
 10
183.3199637445661
 20
57.54245393089862
 30
0.0
 10
184.7095823095824
 20
58.34475058348173
 30
0.0
  0
SPLINE
  5
CB
330
1F
100
AcDbEntity
  8
0
  6
Continuous
 62
     7
370
    25
100
AcDbSpline
210
0.0
220
0.0
230
1.0
 70
    24
 71
     3
 72
    16
 73
    12
 74
     0
 42
0.000000001
 43
0.00000001
 40
0.0
 40
0.0
 40
0.0
 40
0.0
 40
0.25
 40
0.25
 40
0.5
 40
0.5
 40
0.625
 40
0.625
 40
0.75
 40
0.75
 40
1.0
 40
1.0
 40
1.0
 40
1.0
 10
150.7095823095822
 20
58.34475058348151
 30
0.0
 10
152.097470831678
 20
57.54345277164435
 30
0.0
 10
153.4954782847664
 20
56.73631279227465
 30
0.0
 10
156.3206498655671
 20
55.10519921959249
 30
0.0
 10
157.7480307487238
 20
54.28110048246587
 30
0.0
 10
159.915994986198
 20
53.02942574636666
 30
0.0
 10
160.6420498428357
 20
52.61023777944043
 30
0.0
 10
162.0782629685633
 20
51.78103974468798
 30
0.0
 10
162.7915544417315
 20
51.36922072064363
 30
0.0
 10
164.9187296794432
 20
50.14109552453731
 30
0.0
 10
166.3199637445661
 20
49.33209265984095
 30
0.0
 10
167.7095823095825
 20
48.52979600725786
 30
0.0
  0
SPLINE
  5
CC
330
1F
100
AcDbEntity
  8
0
  6
Continuous
 62
     7
370
    25
100
AcDbSpline
210
0.0
220
0.0
230
1.0
 70
    24
 71
     3
 72
    14
 73
    10
 74
     0
 42
0.000000001
 43
0.00000001
 40
0.0
 40
0.0
 40
0.0
 40
0.0
 40
0.25
 40
0.25
 40
0.5
 40
0.5
 40
0.75
 40
0.75
 40
1.0
 40
1.0
 40
1.0
 40
1.0
 10
150.7095823095823
 20
58.34475058348144
 30
0.0
 10
150.7095823095823
 20
59.94296169042939
 30
0.0
 10
150.7095823095823
 20
61.57793580124353
 30
0.0
 10
150.7095823095823
 20
64.85425801746756
 30
0.0
 10
150.7095823095823
 20
66.50268815092353
 30
0.0
 10
150.7095823095823
 20
69.82371630815378
 30
0.0
 10
150.7095823095823
 20
71.50582210486833
 30
0.0
 10
150.7095823095822
 20
74.78083489239866
 30
0.0
 10
150.7095823095822
 20
76.38788263246175
 30
0.0
 10
150.7095823095822
 20
77.9746597359288
 30
0.0
  0
SPLINE
  5
CD
330
1F
100
AcDbEntity
  8
0
  6
Continuous
 62
     7
370
    25
100
AcDbSpline
210
0.0
220
0.0
230
1.0
 70
    24
 71
     3
 72
    16
 73
    12
 74
     0
 42
0.000000001
 43
0.00000001
 40
0.0
 40
0.0
 40
0.0
 40
0.0
 40
0.25
 40
0.25
 40
0.5
 40
0.5
 40
0.6250000000000001
 40
0.6250000000000001
 40
0.7500000000000002
 40
0.7500000000000002
 40
1.0
 40
1.0
 40
1.0
 40
1.0
 10
167.7095823095823
 20
87.78961431215252
 30
0.0
 10
166.3216937874866
 20
86.98831650031535
 30
0.0
 10
164.9236863343982
 20
86.18117652094564
 30
0.0
 10
162.0985147535975
 20
84.55006294826345
 30
0.0
 10
160.6711338704408
 20
83.72596421113681
 30
0.0
 10
158.5031696329666
 20
82.47428947503761
 30
0.0
 10
157.7771147763289
 20
82.05510150811138
 30
0.0
 10
156.3409016506013
 20
81.2259034733589
 30
0.0
 10
155.6276101774331
 20
80.81408444931456
 30
0.0
 10
153.5004349397214
 20
79.58595925320823
 30
0.0
 10
152.0992008745985
 20
78.77695638851186
 30
0.0
 10
150.7095823095822
 20
77.97465973592875
 30
0.0
  0
SPLINE
  5
CE
330
1F
100
AcDbEntity
  8
0
  6
Continuous
 62
     7
370
    25
100
AcDbSpline
210
0.0
220
0.0
230
1.0
 70
    24
 71
     3
 72
    16
 73
    12
 74
     0
 42
0.000000001
 43
0.00000001
 40
0.0
 40
0.0
 40
0.0
 40
0.0
 40
0.2500000000000003
 40
0.2500000000000003
 40
0.5000000000000006
 40
0.5000000000000006
 40
0.6250000000000006
 40
0.6250000000000006
 40
0.7500000000000004
 40
0.7500000000000004
 40
1.0
 40
1.0
 40
1.0
 40
1.0
 10
184.7095823095823
 20
77.97465973592895
 30
0.0
 10
183.3216937874865
 20
78.77595754776611
 30
0.0
 10
181.9236863343981
 20
79.5830975271358
 30
0.0
 10
179.0985147535974
 20
81.21421109981796
 30
0.0
 10
177.6711338704408
 20
82.03830983694458
 30
0.0
 10
175.5031696329665
 20
83.28998457304375
 30
0.0
 10
174.7771147763288
 20
83.70917253996997
 30
0.0
 10
173.3409016506013
 20
84.53837057472242
 30
0.0
 10
172.6276101774331
 20
84.95018959876677
 30
0.0
 10
170.5004349397215
 20
86.17831479487306
 30
0.0
 10
169.0992008745986
 20
86.98731765956943
 30
0.0
 10
167.7095823095822
 20
87.78961431215251
 30
0.0
  0
LINE
  5
CF
330
1F
100
AcDbEntity
  8
0
  6
Continuous
 62
     7
370
    25
100
AcDbLine
 10
73.7936344477
 20
124.314004914
 30
0.0
 11
74.0823095823
 21
124.814004914
 31
0.0
  0
LINE
  5
D0
330
1F
100
AcDbEntity
  8
0
  6
Continuous
 62
     7
370
    25
100
AcDbLine
 10
74.0823095823
 20
157.814004914
 30
0.0
 11
73.7936344477
 21
158.314004914
 31
0.0
  0
LINE
  5
D1
330
1F
100
AcDbEntity
  8
0
  6
Continuous
 62
     7
370
    25
100
AcDbLine
 10
59.5983095823
 20
158.314004914
 30
0.0
 11
40.2301284496
 21
157.7087492536
 31
0.0
  0
LINE
  5
D2
330
1F
100
AcDbEntity
  8
0
  6
Continuous
 62
     7
370
    25
100
AcDbLine
 10
40.2301284496
 20
124.9192605744
 30
0.0
 11
59.5983095823
 21
124.314004914
 31
0.0
  0
LINE
  5
D3
330
1F
100
AcDbEntity
  8
0
  6
Continuous
 62
     7
370
    25
100
AcDbLine
 10
62.0823095823
 20
158.314004914
 30
0.0
 11
59.5983095823
 21
158.314004914
 31
0.0
  0
LINE
  5
D4
330
1F
100
AcDbEntity
  8
0
  6
Continuous
 62
     7
370
    25
100
AcDbLine
 10
59.5983095823
 20
124.314004914
 30
0.0
 11
62.0823095823
 21
124.314004914
 31
0.0
  0
LINE
  5
D5
330
1F
100
AcDbEntity
  8
0
  6
Continuous
 62
     7
370
    25
100
AcDbLine
 10
40.2301284496
 20
157.7087492536
 30
0.0
 11
36.0823095823
 21
155.314004914
 31
0.0
  0
LINE
  5
D6
330
1F
100
AcDbEntity
  8
0
  6
Continuous
 62
     7
370
    25
100
AcDbLine
 10
36.0823095823
 20
127.314004914
 30
0.0
 11
40.2301284496
 21
124.9192605744
 31
0.0
  0
LINE
  5
D7
330
1F
100
AcDbEntity
  8
0
  6
Continuous
 62
     7
370
    25
100
AcDbLine
 10
74.0823095823
 20
128.614004914
 30
0.0
 11
82.0823095823
 21
128.614004914
 31
0.0
  0
LINE
  5
D8
330
1F
100
AcDbEntity
  8
0
  6
Continuous
 62
     7
370
    25
100
AcDbLine
 10
82.0823095823
 20
154.014004914
 30
0.0
 11
74.0823095823
 21
154.014004914
 31
0.0
  0
LINE
  5
D9
330
1F
100
AcDbEntity
  8
0
  6
Continuous
 62
     7
370
    25
100
AcDbLine
 10
82.0823095823
 20
128.614004914
 30
0.0
 11
90.9339691294
 21
129.9417538461
 31
0.0
  0
LINE
  5
DA
330
1F
100
AcDbEntity
  8
0
  6
Continuous
 62
     7
370
    25
100
AcDbLine
 10
90.9339691294
 20
152.6862559819
 30
0.0
 11
82.0823095823
 21
154.014004914
 31
0.0
  0
ARC
  5
DB
330
1F
100
AcDbEntity
  8
0
  6
Continuous
 62
     7
370
    25
100
AcDbCircle
 10
112.2823095823
 20
128.8405613577
 30
0.0
 40
0.2000000000000028
100
AcDbArc
 50
180.0
 51
277.1250163489
  0
ARC
  5
DC
330
1F
100
AcDbEntity
  8
0
  6
Continuous
 62
     7
370
    25
100
AcDbCircle
 10
112.2823095823
 20
153.7874484703
 30
0.0
 40
0.2000000000000028
100
AcDbArc
 50
82.8749836511
 51
180.0
  0
LINE
  5
DD
330
1F
100
AcDbEntity
  8
0
  6
Continuous
 62
     7
370
    25
100
AcDbLine
 10
112.3071165292
 20
128.6421057824
 30
0.0
 11
123.2063443169
 21
130.0045092558
 31
0.0
  0
LINE
  5
DE
330
1F
100
AcDbEntity
  8
0
  6
Continuous
 62
     7
370
    25
100
AcDbLine
 10
123.2063443169
 20
152.6235005722
 30
0.0
 11
112.3071165292
 21
153.9859040456
 31
0.0
  0
ARC
  5
DF
330
1F
100
AcDbEntity
  8
0
  6
Continuous
 62
     7
370
    25
100
AcDbCircle
 10
92.2823095823
 20
128.8462423982
 30
0.0
 40
0.1999999999999955
100
AcDbArc
 50
180.0
 51
278.5307656099
  0
ARC
  5
E0
330
1F
100
AcDbEntity
  8
0
  6
Continuous
 62
     7
370
    25
100
AcDbCircle
 10
92.2823095823
 20
153.7817674298
 30
0.0
 40
0.1999999999999955
100
AcDbArc
 50
81.4692343901
 51
180.0
  0
LINE
  5
E1
330
1F
100
AcDbEntity
  8
0
  6
Continuous
 62
     7
370
    25
100
AcDbLine
 10
92.3119776729
 20
128.6484551276
 30
0.0
 11
100.9339691294
 21
129.9417538461
 31
0.0
  0
LINE
  5
E2
330
1F
100
AcDbEntity
  8
0
  6
Continuous
 62
     7
370
    25
100
AcDbLine
 10
100.9339691294
 20
152.6862559819
 30
0.0
 11
92.3119776729
 21
153.9795547004
 31
0.0
  0
ARC
  5
E3
330
1F
100
AcDbEntity
  8
0
  6
Continuous
 62
     7
370
    25
100
AcDbCircle
 10
102.2744903303
 20
153.5384258768
 30
0.0
 40
0.2000000000000018
100
AcDbArc
 50
82.8749836511
 51
173.4556620663
  0
ARC
  5
E4
330
1F
100
AcDbEntity
  8
0
  6
Continuous
 62
     7
370
    25
100
AcDbCircle
 10
102.2744903303
 20
129.0895839512
 30
0.0
 40
0.2000000000000018
100
AcDbArc
 50
186.5443379337
 51
277.1250163489
  0
LINE
  5
E5
330
1F
100
AcDbEntity
  8
0
  6
Continuous
 62
     7
370
    25
100
AcDbLine
 10
102.2992972773
 20
128.8911283759
 30
0.0
 11
110.9582748477
 21
129.9735005722
 31
0.0
  0
LINE
  5
E6
330
1F
100
AcDbEntity
  8
0
  6
Continuous
 62
     7
370
    25
100
AcDbLine
 10
110.9582748477
 20
152.6545092558
 30
0.0
 11
102.2992972773
 21
153.7368814521
 31
0.0
  0
ARC
  5
E7
330
1F
100
AcDbEntity
  8
0
  6
Continuous
 62
     7
370
    25
100
AcDbCircle
 10
91.0823095823
 20
128.9528174932
 30
0.0
 40
1.00000000000001
100
AcDbArc
 50
0.0
 51
98.5307656099
  0
ARC
  5
E8
330
1F
100
AcDbEntity
  8
0
  6
Continuous
 62
     7
370
    25
100
AcDbCircle
 10
91.0823095823
 20
153.6751923348
 30
0.0
 40
1.0
100
AcDbArc
 50
261.4692343901
 51
0.0
  0
ARC
  5
E9
330
1F
100
AcDbEntity
  8
0
  6
Continuous
 62
     7
370
    25
100
AcDbCircle
 10
111.0823095823
 20
128.9812226955
 30
0.0
 40
1.000000000000003
100
AcDbArc
 50
0.0
 51
97.1250163489
  0
ARC
  5
EA
330
1F
100
AcDbEntity
  8
0
  6
Continuous
 62
     7
370
    25
100
AcDbCircle
 10
111.0823095823
 20
153.6467871325
 30
0.0
 40
1.000000000000003
100
AcDbArc
 50
262.8749836511
 51
0.0
  0
ARC
  5
EB
330
1F
100
AcDbEntity
  8
0
  6
Continuous
 62
     7
370
    25
100
AcDbCircle
 10
101.0823095823
 20
128.9528174932
 30
0.0
 40
1.000000000000012
100
AcDbArc
 50
6.5443379337
 51
98.5307656099
  0
ARC
  5
EC
330
1F
100
AcDbEntity
  8
0
  6
Continuous
 62
     7
370
    25
100
AcDbCircle
 10
101.0823095823
 20
153.6751923348
 30
0.0
 40
1.000000000000007
100
AcDbArc
 50
261.4692343901
 51
353.4556620663
  0
ARC
  5
ED
330
1F
100
AcDbEntity
  8
0
  6
Continuous
 62
     7
370
    25
100
AcDbCircle
 10
123.0823095823
 20
151.6312226955
 30
0.0
 40
1.000000000000005
100
AcDbArc
 50
0.0
 51
82.8749836511
  0
ARC
  5
EE
330
1F
100
AcDbEntity
  8
0
  6
Continuous
 62
     7
370
    25
100
AcDbCircle
 10
123.0823095823
 20
130.9967871325
 30
0.0
 40
1.000000000000005
100
AcDbArc
 50
277.1250163489
 51
0.0
  0
SPLINE
  5
EF
330
1F
100
AcDbEntity
  8
0
  6
Continuous
 62
     7
370
    25
100
AcDbSpline
210
0.0
220
0.0
230
1.0
 70
     8
 71
     3
 72
    12
 73
     8
 74
     0
 42
0.000000001
 43
0.00000001
 40
0.0
 40
0.0
 40
0.0
 40
0.0
 40
0.2499999999999999
 40
0.2499999999999999
 40
0.4999999999999998
 40
0.4999999999999998
 40
1.0
 40
1.0
 40
1.0
 40
1.0
 10
62.08230958230961
 20
149.8140049140048
 30
0.0
 10
62.08230958230961
 20
150.53537221283
 30
0.0
 10
62.11819839613202
 20
151.2599750893366
 30
0.0
 10
62.2570840097724
 20
152.6933906835187
 30
0.0
 10
62.35994728874184
 20
153.4053042854552
 30
0.0
 10
62.75668011292376
 20
155.5284009047731
 30
0.0
 10
63.1383496795528
 20
156.9269889344067
 30
0.0
 10
63.60068833941886
 20
158.3140049140048
 30
0.0
  0
LINE
  5
F0
330
1F
100
AcDbEntity
  8
0
  6
Continuous
 62
     7
370
    25
100
AcDbLine
 10
72.2752556906
 20
158.314004914
 30
0.0
 11
63.6006883394
 21
158.314004914
 31
0.0
  0
SPLINE
  5
F1
330
1F
100
AcDbEntity
  8
0
  6
Continuous
 62
     7
370
    25
100
AcDbSpline
210
0.0
220
0.0
230
1.0
 70
     8
 71
     3
 72
    16
 73
    12
 74
     0
 42
0.000000001
 43
0.00000001
 40
0.0
 40
0.0
 40
0.0
 40
0.0
 40
0.2500000000000003
 40
0.2500000000000003
 40
0.5000000000000006
 40
0.5000000000000006
 40
0.6250000000000006
 40
0.6250000000000006
 40
0.7500000000000004
 40
0.7500000000000004
 40
1.0
 40
1.0
 40
1.0
 40
1.0
 10
72.27525569060589
 20
158.3140049140049
 30
0.0
 10
72.73788519797114
 20
156.9261163919091
 30
0.0
 10
73.119175784632
 20
155.5281089388207
 30
0.0
 10
73.64738709744661
 20
152.70293735802
 30
0.0
 10
73.79256548007453
 20
151.2755564748634
 30
0.0
 10
73.79415997225644
 20
149.1075922373892
 30
0.0
 10
73.75866945900954
 20
148.3815373807514
 30
0.0
 10
73.62027529194997
 20
146.9453242550239
 30
0.0
 10
73.51751207982541
 20
146.2320327818557
 30
0.0
 10
73.12069608235218
 20
144.1048575441441
 30
0.0
 10
72.73846187894426
 20
142.7036234790212
 30
0.0
 10
72.27525569060549
 20
141.3140049140048
 30
0.0
  0
LINE
  5
F2
330
1F
100
AcDbEntity
  8
0
  6
Continuous
 62
     7
370
    25
100
AcDbLine
 10
72.2752556906
 20
141.314004914
 30
0.0
 11
63.6006883394
 21
141.314004914
 31
0.0
  0
SPLINE
  5
F3
330
1F
100
AcDbEntity
  8
0
  6
Continuous
 62
     7
370
    25
100
AcDbSpline
210
0.0
220
0.0
230
1.0
 70
     8
 71
     3
 72
    10
 73
     6
 74
     0
 42
0.000000001
 43
0.00000001
 40
0.0
 40
0.0
 40
0.0
 40
0.0
 40
0.5
 40
0.5
 40
1.0
 40
1.0
 40
1.0
 40
1.0
 10
63.60068833941845
 20
141.3140049140048
 30
0.0
 10
63.13719238363333
 20
142.7044927813602
 30
0.0
 10
62.75534048766311
 20
144.1051375403988
 30
0.0
 10
62.22701933072823
 20
146.9357097268453
 30
0.0
 10
62.08230958230961
 20
148.3658560456015
 30
0.0
 10
62.08230958230961
 20
149.8140049140048
 30
0.0
  0
SPLINE
  5
F4
330
1F
100
AcDbEntity
  8
0
  6
Continuous
 62
     7
370
    25
100
AcDbSpline
210
0.0
220
0.0
230
1.0
 70
    24
 71
     3
 72
    12
 73
     8
 74
     0
 42
0.000000001
 43
0.00000001
 40
0.0
 40
0.0
 40
0.0
 40
0.0
 40
0.2421110827439062
 40
0.4302529164302956
 40
0.6190123680905225
 40
0.8093135538637442
 40
1.0
 40
1.0
 40
1.0
 40
1.0
 10
73.78697503326906
 20
158.3140049140049
 30
0.0
 10
73.77100187648792
 20
158.3140049140049
 30
0.0
 10
73.74261615695868
 20
158.3140049140048
 30
0.0
 10
73.50382016096698
 20
158.3140049140048
 30
0.0
 10
73.18977937284326
 20
158.3140049140048
 30
0.0
 10
72.78223740247896
 20
158.3140049140048
 30
0.0
 10
72.4443634822751
 20
158.3140049140048
 30
0.0
 10
72.27525569060506
 20
158.3140049140048
 30
0.0
  0
SPLINE
  5
F5
330
1F
100
AcDbEntity
  8
0
  6
Continuous
 62
     7
370
    25
100
AcDbSpline
210
0.0
220
0.0
230
1.0
 70
    24
 71
     3
 72
    12
 73
     8
 74
     0
 42
0.000000001
 43
0.00000001
 40
0.0
 40
0.0
 40
0.0
 40
0.0
 40
0.1884158557733318
 40
0.3771675855923187
 40
0.5672298621609355
 40
0.7578859220884515
 40
1.0
 40
1.0
 40
1.0
 40
1.0
 10
72.27525569060506
 20
124.3140049140049
 30
0.0
 10
72.44242808738956
 20
124.3140049140049
 30
0.0
 10
72.77707088596983
 20
124.3140049140049
 30
0.0
 10
73.18416148408507
 20
124.3140049140049
 30
0.0
 10
73.5013502049427
 20
124.3140049140049
 30
0.0
 10
73.74170546793242
 20
124.3140049140049
 30
0.0
 10
73.77289161037454
 20
124.3140049140049
 30
0.0
 10
73.79033875716406
 20
124.3140049140049
 30
0.0
  0
SPLINE
  5
F6
330
1F
100
AcDbEntity
  8
0
  6
Continuous
 62
     7
370
    25
100
AcDbSpline
210
0.0
220
0.0
230
1.0
 70
     8
 71
     3
 72
    16
 73
    12
 74
     0
 42
0.000000001
 43
0.00000001
 40
0.0
 40
0.0
 40
0.0
 40
0.0
 40
0.25
 40
0.25
 40
0.5
 40
0.5
 40
0.6250000000000001
 40
0.6250000000000001
 40
0.7500000000000002
 40
0.7500000000000002
 40
1.0
 40
1.0
 40
1.0
 40
1.0
 10
72.27525569060589
 20
141.314004914005
 30
0.0
 10
72.73788519797114
 20
139.9261163919092
 30
0.0
 10
73.11917578463203
 20
138.5281089388208
 30
0.0
 10
73.64738709744664
 20
135.7029373580201
 30
0.0
 10
73.79256548007457
 20
134.2755564748634
 30
0.0
 10
73.79415997225648
 20
132.1075922373892
 30
0.0
 10
73.75866945900958
 20
131.3815373807515
 30
0.0
 10
73.62027529195
 20
129.9453242550239
 30
0.0
 10
73.51751207982544
 20
129.2320327818557
 30
0.0
 10
73.1206960823522
 20
127.1048575441441
 30
0.0
 10
72.73846187894428
 20
125.7036234790211
 30
0.0
 10
72.27525569060549
 20
124.3140049140048
 30
0.0
  0
LINE
  5
F7
330
1F
100
AcDbEntity
  8
0
  6
Continuous
 62
     7
370
    25
100
AcDbLine
 10
74.0823095823
 20
157.814004914
 30
0.0
 11
74.0823095823
 21
124.814004914
 31
0.0
  0
LINE
  5
F8
330
1F
100
AcDbEntity
  8
0
  6
Continuous
 62
     7
370
    25
100
AcDbLine
 10
62.0823095823
 20
149.814004914
 30
0.0
 11
62.0823095823
 21
132.814004914
 31
0.0
  0
SPLINE
  5
F9
330
1F
100
AcDbEntity
  8
0
  6
Continuous
 62
     7
370
    25
100
AcDbSpline
210
0.0
220
0.0
230
1.0
 70
     8
 71
     3
 72
    12
 73
     8
 74
     0
 42
0.000000001
 43
0.00000001
 40
0.0
 40
0.0
 40
0.0
 40
0.0
 40
0.2499999999999998
 40
0.2499999999999998
 40
0.4999999999999998
 40
0.4999999999999998
 40
1.0
 40
1.0
 40
1.0
 40
1.0
 10
62.08230958230956
 20
132.8140049140049
 30
0.0
 10
62.08230958230956
 20
133.53537221283
 30
0.0
 10
62.11819839613197
 20
134.2599750893366
 30
0.0
 10
62.25708400977237
 20
135.6933906835188
 30
0.0
 10
62.3599472887418
 20
136.4053042854553
 30
0.0
 10
62.75668011292373
 20
138.5284009047732
 30
0.0
 10
63.13834967955279
 20
139.9269889344068
 30
0.0
 10
63.60068833941886
 20
141.314004914005
 30
0.0
  0
LINE
  5
FA
330
1F
100
AcDbEntity
  8
0
  6
Continuous
 62
     7
370
    25
100
AcDbLine
 10
72.2752556906
 20
124.314004914
 30
0.0
 11
63.6006883394
 21
124.314004914
 31
0.0
  0
SPLINE
  5
FB
330
1F
100
AcDbEntity
  8
0
  6
Continuous
 62
     7
370
    25
100
AcDbSpline
210
0.0
220
0.0
230
1.0
 70
     8
 71
     3
 72
    10
 73
     6
 74
     0
 42
0.000000001
 43
0.00000001
 40
0.0
 40
0.0
 40
0.0
 40
0.0
 40
0.5
 40
0.5
 40
1.0
 40
1.0
 40
1.0
 40
1.0
 10
63.60068833941845
 20
124.3140049140048
 30
0.0
 10
63.13719238363333
 20
125.7044927813601
 30
0.0
 10
62.7553404876631
 20
127.1051375403988
 30
0.0
 10
62.2270193307282
 20
129.9357097268453
 30
0.0
 10
62.08230958230956
 20
131.3658560456016
 30
0.0
 10
62.08230958230956
 20
132.8140049140049
 30
0.0
  0
LINE
  5
FC
330
1F
100
AcDbEntity
  8
0
  6
Continuous
 62
     7
370
    25
100
AcDbLine
 10
40.2301284496
 20
124.9192605744
 30
0.0
 11
40.2301284496
 21
157.7087492536
 31
0.0
  0
LINE
  5
FD
330
1F
100
AcDbEntity
  8
0
  6
Continuous
 62
     7
370
    25
100
AcDbLine
 10
59.5983095823
 20
158.314004914
 30
0.0
 11
59.5983095823
 21
124.314004914
 31
0.0
  0
LINE
  5
FE
330
1F
100
AcDbEntity
  8
0
  6
Continuous
 62
     7
370
    25
100
AcDbLine
 10
62.0823095823
 20
124.314004914
 30
0.0
 11
62.0823095823
 21
132.814004914
 31
0.0
  0
LINE
  5
FF
330
1F
100
AcDbEntity
  8
0
  6
Continuous
 62
     7
370
    25
100
AcDbLine
 10
62.0823095823
 20
158.314004914
 30
0.0
 11
62.0823095823
 21
149.814004914
 31
0.0
  0
LINE
  5
100
330
1F
100
AcDbEntity
  8
0
  6
Continuous
 62
     7
370
    25
100
AcDbLine
 10
36.0823095823
 20
127.314004914
 30
0.0
 11
36.0823095823
 21
155.314004914
 31
0.0
  0
SPLINE
  5
101
330
1F
100
AcDbEntity
  8
0
  6
Continuous
 62
     7
370
    25
100
AcDbSpline
210
0.0
220
0.0
230
1.0
 70
    24
 71
     3
 72
    12
 73
     8
 74
     0
 42
0.000000001
 43
0.00000001
 40
0.0
 40
0.0
 40
0.0
 40
0.0
 40
0.25
 40
0.25
 40
0.5
 40
0.5
 40
1.0
 40
1.0
 40
1.0
 40
1.0
 10
62.08230958230958
 20
158.3140049140049
 30
0.0
 10
62.08230958230958
 20
158.3140049140049
 30
0.0
 10
62.11774573742987
 20
158.3140049140049
 30
0.0
 10
62.25816088003136
 20
158.3140049140048
 30
0.0
 10
62.36212712559698
 20
158.3140049140048
 30
0.0
 10
62.76105652905949
 20
158.3140049140048
 30
0.0
 10
63.1424486223926
 20
158.3140049140048
 30
0.0
 10
63.60068833941927
 20
158.3140049140048
 30
0.0
  0
SPLINE
  5
102
330
1F
100
AcDbEntity
  8
0
  6
Continuous
 62
     7
370
    25
100
AcDbSpline
210
0.0
220
0.0
230
1.0
 70
    24
 71
     3
 72
    12
 73
     8
 74
     0
 42
0.000000001
 43
0.00000001
 40
0.0
 40
0.0
 40
0.0
 40
0.0
 40
0.25
 40
0.25
 40
0.5
 40
0.5
 40
1.0
 40
1.0
 40
1.0
 40
1.0
 10
62.08230958230958
 20
124.3140049140049
 30
0.0
 10
62.08230958230958
 20
124.3140049140049
 30
0.0
 10
62.11774573743146
 20
124.3140049140049
 30
0.0
 10
62.25816088003304
 20
124.3140049140049
 30
0.0
 10
62.36212712559834
 20
124.3140049140049
 30
0.0
 10
62.76105652905978
 20
124.3140049140049
 30
0.0
 10
63.14244862239217
 20
124.3140049140049
 30
0.0
 10
63.60068833941927
 20
124.3140049140049
 30
0.0
  0
LINE
  5
103
330
1F
100
AcDbEntity
  8
0
  6
Continuous
 62
     7
370
    25
100
AcDbLine
 10
82.0823095823
 20
141.314004914
 30
0.0
 11
82.0823095823
 21
154.014004914
 31
0.0
  0
LINE
  5
104
330
1F
100
AcDbEntity
  8
0
  6
Continuous
 62
     7
370
    25
100
AcDbLine
 10
82.0823095823
 20
128.614004914
 30
0.0
 11
82.0823095823
 21
141.314004914
 31
0.0
  0
LINE
  5
105
330
1F
100
AcDbEntity
  8
0
  6
Continuous
 62
     7
370
    25
100
AcDbLine
 10
112.0823095823
 20
141.314004914
 30
0.0
 11
112.0823095823
 21
153.7874484703
 31
0.0
  0
LINE
  5
106
330
1F
100
AcDbEntity
  8
0
  6
Continuous
 62
     7
370
    25
100
AcDbLine
 10
112.0823095823
 20
128.8405613577
 30
0.0
 11
112.0823095823
 21
141.314004914
 31
0.0
  0
LINE
  5
107
330
1F
100
AcDbEntity
  8
0
  6
Continuous
 62
     7
370
    25
100
AcDbLine
 10
92.0823095823
 20
141.314004914
 30
0.0
 11
92.0823095823
 21
153.7817674298
 31
0.0
  0
LINE
  5
108
330
1F
100
AcDbEntity
  8
0
  6
Continuous
 62
     7
370
    25
100
AcDbLine
 10
92.0823095823
 20
128.8462423982
 30
0.0
 11
92.0823095823
 21
141.314004914
 31
0.0
  0
LINE
  5
109
330
1F
100
AcDbEntity
  8
0
  6
Continuous
 62
     7
370
    25
100
AcDbLine
 10
124.0823095823
 20
151.6312226955
 30
0.0
 11
124.0823095823
 21
130.9967871325
 31
0.0
  0
LINE
  5
10A
330
1F
100
AcDbEntity
  8
0
  6
Continuous
 62
     1
370
    25
100
AcDbLine
 10
90.9339691294
 20
141.314004914
 30
0.0
 11
90.9339691294
 21
152.6862559819
 31
0.0
  0
LINE
  5
10B
330
1F
100
AcDbEntity
  8
0
  6
Continuous
 62
     1
370
    25
100
AcDbLine
 10
90.9339691294
 20
129.9417538461
 30
0.0
 11
90.9339691294
 21
141.314004914
 31
0.0
  0
LINE
  5
10C
330
1F
100
AcDbEntity
  8
0
  6
Continuous
 62
     1
370
    25
100
AcDbLine
 10
112.3071165292
 20
153.9859040456
 30
0.0
 11
112.3071165292
 21
128.6421057824
 31
0.0
  0
LINE
  5
10D
330
1F
100
AcDbEntity
  8
0
  6
Continuous
 62
     1
370
    25
100
AcDbLine
 10
123.2063443169
 20
130.0045092558
 30
0.0
 11
123.2063443169
 21
152.6235005722
 31
0.0
  0
LINE
  5
10E
330
1F
100
AcDbEntity
  8
0
  6
Continuous
 62
     1
370
    25
100
AcDbLine
 10
92.3119776729
 20
153.9795547004
 30
0.0
 11
92.3119776729
 21
128.6484551276
 31
0.0
  0
LINE
  5
10F
330
1F
100
AcDbEntity
  8
0
  6
Continuous
 62
     1
370
    25
100
AcDbLine
 10
100.9339691294
 20
141.314004914
 30
0.0
 11
100.9339691294
 21
152.6862559819
 31
0.0
  0
LINE
  5
110
330
1F
100
AcDbEntity
  8
0
  6
Continuous
 62
     1
370
    25
100
AcDbLine
 10
100.9339691294
 20
129.9417538461
 30
0.0
 11
100.9339691294
 21
141.314004914
 31
0.0
  0
LINE
  5
111
330
1F
100
AcDbEntity
  8
0
  6
Continuous
 62
     1
370
    25
100
AcDbLine
 10
102.075793539
 20
141.314004914
 30
0.0
 11
102.075793539
 21
153.5612202865
 31
0.0
  0
LINE
  5
112
330
1F
100
AcDbEntity
  8
0
  6
Continuous
 62
     1
370
    25
100
AcDbLine
 10
102.075793539
 20
129.0667895415
 30
0.0
 11
102.075793539
 21
141.314004914
 31
0.0
  0
LINE
  5
113
330
1F
100
AcDbEntity
  8
0
  6
Continuous
 62
     1
370
    25
100
AcDbLine
 10
102.2992972773
 20
141.314004914
 30
0.0
 11
102.2992972773
 21
128.8911283759
 31
0.0
  0
LINE
  5
114
330
1F
100
AcDbEntity
  8
0
  6
Continuous
 62
     1
370
    25
100
AcDbLine
 10
102.2992972773
 20
153.7368814521
 30
0.0
 11
102.2992972773
 21
141.314004914
 31
0.0
  0
LINE
  5
115
330
1F
100
AcDbEntity
  8
0
  6
Continuous
 62
     1
370
    25
100
AcDbLine
 10
110.9582748477
 20
141.314004914
 30
0.0
 11
110.9582748477
 21
152.6545092558
 31
0.0
  0
LINE
  5
116
330
1F
100
AcDbEntity
  8
0
  6
Continuous
 62
     1
370
    25
100
AcDbLine
 10
110.9582748477
 20
129.9735005722
 30
0.0
 11
110.9582748477
 21
141.314004914
 31
0.0
  0
LINE
  5
117
330
1F
100
AcDbEntity
  8
0
  6
Continuous
 62
     7
370
    18
100
AcDbLine
 10
37.5845623858
 20
156.1813309745
 30
0.0
 11
59.5981295823
 21
156.8692549494
 31
0.0
  0
LINE
  5
118
330
1F
100
AcDbEntity
  8
0
  6
Continuous
 62
     7
370
    18
100
AcDbLine
 10
37.5845623858
 20
126.4466788535
 30
0.0
 11
59.5981295823
 21
125.7587548786
 31
0.0
  0
LINE
  5
119
330
1F
100
AcDbEntity
  8
0
  6
Continuous
 62
     7
370
    18
100
AcDbLine
 10
59.5981295823
 20
124.314010539
 30
0.0
 11
59.5981295823
 21
158.313999289
 31
0.0
  0
ENDSEC
  0
SECTION
  2
OBJECTS
  0
DICTIONARY
  5
C
330
0
100
AcDbDictionary
281
     1
  3
ACAD_GROUP
350
D
  3
ACAD_LAYOUT
350
1A
  3
ACAD_MLINESTYLE
350
17
  3
ACAD_PLOTSETTINGS
350
19
  3
ACAD_PLOTSTYLENAME
350
E
  3
ACAD_SCALELIST
350
47
  0
DICTIONARY
  5
D
102
{ACAD_REACTORS
330
C
102
}
330
C
100
AcDbDictionary
281
     1
  0
DICTIONARY
  5
1A
102
{ACAD_REACTORS
330
C
102
}
330
C
100
AcDbDictionary
281
     1
  3
Layout1
350
1E
  3
Layout2
350
26
  3
Model
350
22
  0
DICTIONARY
  5
17
102
{ACAD_REACTORS
330
C
102
}
330
C
100
AcDbDictionary
281
     1
  3
Standard
350
18
  0
DICTIONARY
  5
19
102
{ACAD_REACTORS
330
C
102
}
330
C
100
AcDbDictionary
281
     1
  0
ACDBDICTIONARYWDFLT
  5
E
102
{ACAD_REACTORS
330
C
102
}
330
C
100
AcDbDictionary
281
     1
  3
Normal
350
F
100
AcDbDictionaryWithDefault
340
F
  0
DICTIONARY
  5
47
102
{ACAD_REACTORS
330
C
102
}
330
C
100
AcDbDictionary
281
     1
  3
A0
350
48
  3
A1
350
49
  3
A2
350
4A
  3
A3
350
4B
  3
A4
350
4C
  3
A5
350
4D
  3
A6
350
4E
  3
A7
350
4F
  3
A8
350
50
  3
A9
350
51
  3
B0
350
52
  3
B1
350
53
  3
B2
350
54
  3
B3
350
55
  3
B4
350
56
  3
B5
350
57
  3
B6
350
58
  3
B7
350
59
  3
B8
350
5A
  3
B9
350
5B
  3
C0
350
5C
  3
C1
350
5D
  3
C2
350
5E
  3
C3
350
5F
  3
C4
350
60
  3
C5
350
61
  3
C6
350
62
  3
C7
350
63
  3
C8
350
64
  3
C9
350
65
  3
D0
350
66
  3
D1
350
67
  3
D2
350
68
  0
LAYOUT
  5
1E
102
{ACAD_REACTORS
330
1A
102
}
330
1A
100
AcDbPlotSettings
  1

  2
none_device
  4

  6

 40
0.0
 41
0.0
 42
0.0
 43
0.0
 44
0.0
 45
0.0
 46
0.0
 47
0.0
 48
0.0
 49
0.0
140
0.0
141
0.0
142
1.0
143
1.0
 70
   688
 72
     1
 73
     0
 74
     5
  7

 75
    16
147
1.0
148
0.0
149
0.0
100
AcDbLayout
  1
Layout1
 70
     1
 71
     1
 10
0.0
 20
0.0
 11
420.0
 21
297.0
 12
0.0
 22
0.0
 32
0.0
 14
1.0000000000E+20
 24
1.0000000000E+20
 34
1.0000000000E+20
 15
-1.0000000000E+20
 25
-1.0000000000E+20
 35
-1.0000000000E+20
146
0.0
 13
0.0
 23
0.0
 33
0.0
 16
1.0
 26
0.0
 36
0.0
 17
0.0
 27
1.0
 37
0.0
 76
     0
330
1B
  0
LAYOUT
  5
26
102
{ACAD_REACTORS
330
1A
102
}
330
1A
100
AcDbPlotSettings
  1

  2
none_device
  4

  6

 40
0.0
 41
0.0
 42
0.0
 43
0.0
 44
0.0
 45
0.0
 46
0.0
 47
0.0
 48
0.0
 49
0.0
140
0.0
141
0.0
142
1.0
143
1.0
 70
   688
 72
     1
 73
     0
 74
     5
  7

 75
    16
147
1.0
148
0.0
149
0.0
100
AcDbLayout
  1
Layout2
 70
     1
 71
     2
 10
0.0
 20
0.0
 11
0.0
 21
0.0
 12
0.0
 22
0.0
 32
0.0
 14
0.0
 24
0.0
 34
0.0
 15
0.0
 25
0.0
 35
0.0
146
0.0
 13
0.0
 23
0.0
 33
0.0
 16
1.0
 26
0.0
 36
0.0
 17
0.0
 27
1.0
 37
0.0
 76
     0
330
23
  0
LAYOUT
  5
22
102
{ACAD_REACTORS
330
1A
102
}
330
1A
100
AcDbPlotSettings
  1

  2
none_device
  4
Letter_(8.50_x_11.00_Inches)
  6

 40
6.35
 41
6.35
 42
6.35000508
 43
6.35000508
 44
215.9
 45
279.4
 46
0.0
 47
0.0
 48
0.0
 49
0.0
140
0.0
141
0.0
142
1.0
143
1.0
 70
  1712
 72
     1
 73
     0
 74
     0
  7

 75
     0
147
1.0
148
0.0
149
0.0
100
AcDbLayout
  1
Model
 70
     1
 71
     0
 10
0.0
 20
0.0
 11
297.0
 21
210.0
 12
0.0
 22
0.0
 32
0.0
 14
0.0
 24
0.0
 34
0.0
 15
297.0
 25
210.0
 35
0.0
146
0.0
 13
0.0
 23
0.0
 33
0.0
 16
1.0
 26
0.0
 36
0.0
 17
0.0
 27
1.0
 37
0.0
 76
     0
330
1F
331
29
  0
MLINESTYLE
  5
18
102
{ACAD_REACTORS
330
17
102
}
330
17
100
AcDbMlineStyle
  2
Standard
 70
     0
  3

 62
   256
 51
90.0
 52
90.0
 71
     2
 49
0.5
 62
   256
  6
BYLAYER
 49
-0.5
 62
   256
  6
BYLAYER
  0
ACDBPLACEHOLDER
  5
F
102
{ACAD_REACTORS
330
E
102
}
330
E
  0
SCALE
  5
48
102
{ACAD_REACTORS
330
47
102
}
330
47
100
AcDbScale
 70
     0
300
1:1
140
1.0
141
1.0
290
     1
  0
SCALE
  5
49
102
{ACAD_REACTORS
330
47
102
}
330
47
100
AcDbScale
 70
     0
300
1:2
140
1.0
141
2.0
290
     0
  0
SCALE
  5
4A
102
{ACAD_REACTORS
330
47
102
}
330
47
100
AcDbScale
 70
     0
300
1:4
140
1.0
141
4.0
290
     0
  0
SCALE
  5
4B
102
{ACAD_REACTORS
330
47
102
}
330
47
100
AcDbScale
 70
     0
300
1:5
140
1.0
141
5.0
290
     0
  0
SCALE
  5
4C
102
{ACAD_REACTORS
330
47
102
}
330
47
100
AcDbScale
 70
     0
300
1:8
140
1.0
141
8.0
290
     0
  0
SCALE
  5
4D
102
{ACAD_REACTORS
330
47
102
}
330
47
100
AcDbScale
 70
     0
300
1:10
140
1.0
141
10.0
290
     0
  0
SCALE
  5
4E
102
{ACAD_REACTORS
330
47
102
}
330
47
100
AcDbScale
 70
     0
300
1:16
140
1.0
141
16.0
290
     0
  0
SCALE
  5
4F
102
{ACAD_REACTORS
330
47
102
}
330
47
100
AcDbScale
 70
     0
300
1:20
140
1.0
141
20.0
290
     0
  0
SCALE
  5
50
102
{ACAD_REACTORS
330
47
102
}
330
47
100
AcDbScale
 70
     0
300
1:30
140
1.0
141
30.0
290
     0
  0
SCALE
  5
51
102
{ACAD_REACTORS
330
47
102
}
330
47
100
AcDbScale
 70
     0
300
1:40
140
1.0
141
40.0
290
     0
  0
SCALE
  5
52
102
{ACAD_REACTORS
330
47
102
}
330
47
100
AcDbScale
 70
     0
300
1:50
140
1.0
141
50.0
290
     0
  0
SCALE
  5
53
102
{ACAD_REACTORS
330
47
102
}
330
47
100
AcDbScale
 70
     0
300
1:100
140
1.0
141
100.0
290
     0
  0
SCALE
  5
54
102
{ACAD_REACTORS
330
47
102
}
330
47
100
AcDbScale
 70
     0
300
2:1
140
2.0
141
1.0
290
     0
  0
SCALE
  5
55
102
{ACAD_REACTORS
330
47
102
}
330
47
100
AcDbScale
 70
     0
300
4:1
140
4.0
141
1.0
290
     0
  0
SCALE
  5
56
102
{ACAD_REACTORS
330
47
102
}
330
47
100
AcDbScale
 70
     0
300
8:1
140
8.0
141
1.0
290
     0
  0
SCALE
  5
57
102
{ACAD_REACTORS
330
47
102
}
330
47
100
AcDbScale
 70
     0
300
10:1
140
10.0
141
1.0
290
     0
  0
SCALE
  5
58
102
{ACAD_REACTORS
330
47
102
}
330
47
100
AcDbScale
 70
     0
300
100:1
140
100.0
141
1.0
290
     0
  0
SCALE
  5
59
102
{ACAD_REACTORS
330
47
102
}
330
47
100
AcDbScale
 70
     0
300
1/128" = 1'-0"
140
0.0078125
141
12.0
290
     0
  0
SCALE
  5
5A
102
{ACAD_REACTORS
330
47
102
}
330
47
100
AcDbScale
 70
     0
300
1/64" = 1'-0"
140
0.015625
141
12.0
290
     0
  0
SCALE
  5
5B
102
{ACAD_REACTORS
330
47
102
}
330
47
100
AcDbScale
 70
     0
300
1/32" = 1'-0"
140
0.03125
141
12.0
290
     0
  0
SCALE
  5
5C
102
{ACAD_REACTORS
330
47
102
}
330
47
100
AcDbScale
 70
     0
300
1/16" = 1'-0"
140
0.0625
141
12.0
290
     0
  0
SCALE
  5
5D
102
{ACAD_REACTORS
330
47
102
}
330
47
100
AcDbScale
 70
     0
300
3/32" = 1'-0"
140
0.09375
141
12.0
290
     0
  0
SCALE
  5
5E
102
{ACAD_REACTORS
330
47
102
}
330
47
100
AcDbScale
 70
     0
300
1/8" = 1'-0"
140
0.125
141
12.0
290
     0
  0
SCALE
  5
5F
102
{ACAD_REACTORS
330
47
102
}
330
47
100
AcDbScale
 70
     0
300
3/16" = 1'-0"
140
0.1875
141
12.0
290
     0
  0
SCALE
  5
60
102
{ACAD_REACTORS
330
47
102
}
330
47
100
AcDbScale
 70
     0
300
1/4" = 1'-0"
140
0.25
141
12.0
290
     0
  0
SCALE
  5
61
102
{ACAD_REACTORS
330
47
102
}
330
47
100
AcDbScale
 70
     0
300
3/8" = 1'-0"
140
0.375
141
12.0
290
     0
  0
SCALE
  5
62
102
{ACAD_REACTORS
330
47
102
}
330
47
100
AcDbScale
 70
     0
300
1/2" = 1'-0"
140
0.5
141
12.0
290
     0
  0
SCALE
  5
63
102
{ACAD_REACTORS
330
47
102
}
330
47
100
AcDbScale
 70
     0
300
3/4" = 1'-0"
140
0.75
141
12.0
290
     0
  0
SCALE
  5
64
102
{ACAD_REACTORS
330
47
102
}
330
47
100
AcDbScale
 70
     0
300
1" = 1'-0"
140
1.0
141
12.0
290
     0
  0
SCALE
  5
65
102
{ACAD_REACTORS
330
47
102
}
330
47
100
AcDbScale
 70
     0
300
1-1/2" = 1'-0"
140
1.5
141
12.0
290
     0
  0
SCALE
  5
66
102
{ACAD_REACTORS
330
47
102
}
330
47
100
AcDbScale
 70
     0
300
3" = 1'-0"
140
3.0
141
12.0
290
     0
  0
SCALE
  5
67
102
{ACAD_REACTORS
330
47
102
}
330
47
100
AcDbScale
 70
     0
300
6" = 1'-0"
140
6.0
141
12.0
290
     0
  0
SCALE
  5
68
102
{ACAD_REACTORS
330
47
102
}
330
47
100
AcDbScale
 70
     0
300
1'-0" = 1'-0"
140
12.0
141
12.0
290
     0
  0
ENDSEC
  0
EOF
