  0
SECTION
  2
HEADER
  9
$ACADVER
  1
AC1015
  9
$ACADMAINTVER
 70
     6
  9
$DWGCODEPAGE
  3
DOS932
  9
$INSBASE
 10
0.0
 20
0.0
 30
0.0
  9
$EXTMIN
 10
0.0
 20
0.0
 30
0.0
  9
$EXTMAX
 10
431.8
 20
279.4
 30
0.0
  9
$LIMMIN
 10
0.0
 20
0.0
  9
$LIMMAX
 10
431.8
 20
279.4
  9
$ORTHOMODE
 70
     0
  9
$REGENMODE
 70
     1
  9
$FILLMODE
 70
     1
  9
$QTEXTMODE
 70
     0
  9
$MIRRTEXT
 70
     1
  9
$LTSCALE
 40
1.0
  9
$ATTMODE
 70
     1
  9
$TEXTSIZE
 40
3.5
  9
$TRACEWID
 40
1.0
  9
$TEXTSTYLE
  7
Standard
  9
$CLAYER
  8
0
  9
$CELTYPE
  6
ByLayer
  9
$CECOLOR
 62
   256
  9
$CELTSCALE
 40
1.0
  9
$DISPSILH
 70
     0
  9
$DIMSCALE
 40
1.0
  9
$DIMASZ
 40
3.556
  9
$DIMEXO
 40
1.0
  9
$DIMDLI
 40
3.75
  9
$DIMRND
 40
0.0
  9
$DIMDLE
 40
0.0
  9
$DIMEXE
 40
1.0
  9
$DIMTP
 40
0.0
  9
$DIMTM
 40
0.0
  9
$DIMTXT
 40
3.5
  9
$DIMCEN
 40
2.5
  9
$DIMTSZ
 40
0.0
  9
$DIMTOL
 70
     0
  9
$DIMLIM
 70
     0
  9
$DIMTIH
 70
     1
  9
$DIMTOH
 70
     1
  9
$DIMSE1
 70
     0
  9
$DIMSE2
 70
     0
  9
$DIMTAD
 70
     1
  9
$DIMZIN
 70
     0
  9
$DIMBLK
  1

  9
$DIMASO
 70
     1
  9
$DIMSHO
 70
     1
  9
$DIMPOST
  1

  9
$DIMAPOST
  1

  9
$DIMALT
 70
     0
  9
$DIMALTD
 70
     3
  9
$DIMALTF
 40
0.0393700787
  9
$DIMLFAC
 40
1.0
  9
$DIMTOFL
 70
     1
  9
$DIMTVP
 40
0.0
  9
$DIMTIX
 70
     0
  9
$DIMSOXD
 70
     0
  9
$DIMSAH
 70
     0
  9
$DIMBLK1
  1

  9
$DIMBLK2
  1

  9
$DIMSTYLE
  2
ISO-25
  9
$DIMCLRD
 70
     0
  9
$DIMCLRE
 70
     0
  9
$DIMCLRT
 70
     0
  9
$DIMTFAC
 40
1.0
  9
$DIMGAP
 40
1.524
  9
$DIMJUST
 70
     0
  9
$DIMSD1
 70
     0
  9
$DIMSD2
 70
     0
  9
$DIMTOLJ
 70
     0
  9
$DIMTZIN
 70
     0
  9
$DIMALTZ
 70
     0
  9
$DIMALTTZ
 70
     0
  9
$DIMUPT
 70
     0
  9
$DIMDEC
 70
     3
  9
$DIMTDEC
 70
     3
  9
$DIMALTU
 70
     2
  9
$DIMALTTD
 70
     3
  9
$DIMTXSTY
  7
Standard
  9
$DIMAUNIT
 70
     0
  9
$DIMADEC
 70
     2
  9
$DIMALTRND
 40
0.0
  9
$DIMAZIN
 70
     0
  9
$DIMDSEP
 70
    44
  9
$DIMATFIT
 70
     3
  9
$DIMFRAC
 70
     0
  9
$DIMLDRBLK
  1

  9
$DIMLUNIT
 70
     2
  9
$DIMLWD
 70
    -2
  9
$DIMLWE
 70
    -2
  9
$DIMTMOVE
 70
     0
  9
$LUNITS
 70
     2
  9
$LUPREC
 70
     3
  9
$SKETCHINC
 40
1.0
  9
$FILLETRAD
 40
0.0
  9
$AUNITS
 70
     0
  9
$AUPREC
 70
     2
  9
$MENU
  1
.
  9
$ELEVATION
 40
0.0
  9
$PELEVATION
 40
0.0
  9
$THICKNESS
 40
0.0
  9
$LIMCHECK
 70
     0
  9
$CHAMFERA
 40
0.0
  9
$CHAMFERB
 40
0.0
  9
$CHAMFERC
 40
0.0
  9
$CHAMFERD
 40
0.0
  9
$SKPOLY
 70
     0
  9
$TDCREATE
 40
2460297.625493472
  9
$TDUCREATE
 40
2460297.250493472
  9
$TDUPDATE
 40
2460297.625495046
  9
$TDUUPDATE
 40
2460297.250495046
  9
$TDINDWG
 40
0.0000000116
  9
$TDUSRTIMER
 40
0.0000000116
  9
$USRTIMER
 70
     1
  9
$ANGBASE
 50
0.0
  9
$ANGDIR
 70
     0
  9
$PDMODE
 70
     0
  9
$PDSIZE
 40
-1.0
  9
$PLINEWID
 40
0.0
  9
$SPLFRAME
 70
     0
  9
$SPLINETYPE
 70
     6
  9
$SPLINESEGS
 70
     8
  9
$HANDSEED
  5
2F3
  9
$SURFTAB1
 70
     6
  9
$SURFTAB2
 70
     6
  9
$SURFTYPE
 70
     6
  9
$SURFU
 70
     6
  9
$SURFV
 70
     6
  9
$UCSBASE
  2

  9
$UCSNAME
  2

  9
$UCSORG
 10
0.0
 20
0.0
 30
0.0
  9
$UCSXDIR
 10
1.0
 20
0.0
 30
0.0
  9
$UCSYDIR
 10
0.0
 20
1.0
 30
0.0
  9
$UCSORTHOREF
  2

  9
$UCSORTHOVIEW
 70
     0
  9
$UCSORGTOP
 10
0.0
 20
0.0
 30
0.0
  9
$UCSORGBOTTOM
 10
0.0
 20
0.0
 30
0.0
  9
$UCSORGLEFT
 10
0.0
 20
0.0
 30
0.0
  9
$UCSORGRIGHT
 10
0.0
 20
0.0
 30
0.0
  9
$UCSORGFRONT
 10
0.0
 20
0.0
 30
0.0
  9
$UCSORGBACK
 10
0.0
 20
0.0
 30
0.0
  9
$PUCSBASE
  2

  9
$PUCSNAME
  2

  9
$PUCSORG
 10
0.0
 20
0.0
 30
0.0
  9
$PUCSXDIR
 10
1.0
 20
0.0
 30
0.0
  9
$PUCSYDIR
 10
0.0
 20
1.0
 30
0.0
  9
$PUCSORTHOREF
  2

  9
$PUCSORTHOVIEW
 70
     0
  9
$PUCSORGTOP
 10
0.0
 20
0.0
 30
0.0
  9
$PUCSORGBOTTOM
 10
0.0
 20
0.0
 30
0.0
  9
$PUCSORGLEFT
 10
0.0
 20
0.0
 30
0.0
  9
$PUCSORGRIGHT
 10
0.0
 20
0.0
 30
0.0
  9
$PUCSORGFRONT
 10
0.0
 20
0.0
 30
0.0
  9
$PUCSORGBACK
 10
0.0
 20
0.0
 30
0.0
  9
$USERI1
 70
     0
  9
$USERI2
 70
     0
  9
$USERI3
 70
     0
  9
$USERI4
 70
     0
  9
$USERI5
 70
     0
  9
$USERR1
 40
0.0
  9
$USERR2
 40
0.0
  9
$USERR3
 40
0.0
  9
$USERR4
 40
0.0
  9
$USERR5
 40
0.0
  9
$WORLDVIEW
 70
     1
  9
$SHADEDGE
 70
     3
  9
$SHADEDIF
 70
    70
  9
$TILEMODE
 70
     1
  9
$MAXACTVP
 70
    64
  9
$PINSBASE
 10
0.0
 20
0.0
 30
0.0
  9
$PLIMCHECK
 70
     0
  9
$PEXTMIN
 10
1.0000000000E+20
 20
1.0000000000E+20
 30
1.0000000000E+20
  9
$PEXTMAX
 10
-1.0000000000E+20
 20
-1.0000000000E+20
 30
-1.0000000000E+20
  9
$PLIMMIN
 10
0.0
 20
0.0
  9
$PLIMMAX
 10
420.0
 20
297.0
  9
$UNITMODE
 70
     0
  9
$VISRETAIN
 70
     1
  9
$PLINEGEN
 70
     0
  9
$PSLTSCALE
 70
     1
  9
$TREEDEPTH
 70
  3020
  9
$CMLSTYLE
  2
Standard
  9
$CMLJUST
 70
     0
  9
$CMLSCALE
 40
20.0
  9
$PROXYGRAPHICS
 70
     1
  9
$MEASUREMENT
 70
     1
  9
$CELWEIGHT
370
    -1
  9
$ENDCAPS
280
     0
  9
$JOINSTYLE
280
     0
  9
$LWDISPLAY
290
     1
  9
$INSUNITS
 70
     4
  9
$HYPERLINKBASE
  1

  9
$STYLESHEET
  1

  9
$XEDIT
290
     1
  9
$CEPSNTYPE
380
     0
  9
$PSTYLEMODE
290
     1
  9
$FINGERPRINTGUID
  2
{9338d22d-7f82-4a2f-80ba-73901835dc39}
  9
$VERSIONGUID
  2
{FAEB1C32-E019-11D5-929B-00C0DF256EC4}
  9
$EXTNAMES
290
     1
  9
$PSVPSCALE
 40
0.0
  9
$OLESTARTUP
290
     0
  0
ENDSEC
  0
SECTION
  2
CLASSES
  0
CLASS
  1
ACDBDICTIONARYWDFLT
  2
AcDbDictionaryWithDefault
  3
ObjectDBX Classes
 90
        0
280
     0
281
     0
  0
CLASS
  1
VISUALSTYLE
  2
AcDbVisualStyle
  3
ObjectDBX Classes
 90
     4095
280
     0
281
     0
  0
CLASS
  1
MATERIAL
  2
AcDbMaterial
  3
ObjectDBX Classes
 90
     1153
280
     0
281
     0
  0
CLASS
  1
SCALE
  2
AcDbScale
  3
ObjectDBX Classes
 90
     1153
280
     0
281
     0
  0
CLASS
  1
TABLESTYLE
  2
AcDbTableStyle
  3
ObjectDBX Classes
 90
     4095
280
     0
281
     0
  0
CLASS
  1
MLEADERSTYLE
  2
AcDbMLeaderStyle
  3
ACDB_MLEADERSTYLE_CLASS
 90
     4095
280
     0
281
     0
  0
CLASS
  1
SUN
  2
AcDbSun
  3
SCENEOE
 90
     1153
280
     0
281
     0
  0
CLASS
  1
ACDBPLACEHOLDER
  2
AcDbPlaceHolder
  3
ObjectDBX Classes
 90
        0
280
     0
281
     0
  0
CLASS
  1
LAYOUT
  2
AcDbLayout
  3
ObjectDBX Classes
 90
        0
280
     0
281
     0
  0
ENDSEC
  0
SECTION
  2
TABLES
  0
TABLE
  2
VPORT
  5
8
330
0
100
AcDbSymbolTable
 70
     1
  0
VPORT
  5
29
330
8
100
AcDbSymbolTableRecord
100
AcDbViewportTableRecord
  2
*Active
 70
     0
 10
0.0
 20
0.0
 11
1.0
 21
1.0
 12
215.9
 22
139.7
 13
0.0
 23
0.0
 14
10.0
 24
10.0
 15
10.0
 25
10.0
 16
0.0
 26
0.0
 36
1.0
 17
0.0
 27
0.0
 37
0.0
 40
279.4
 41
1.5454545455
 42
50.0
 43
0.0
 44
0.0
 50
0.0
 51
0.0
 71
     0
 72
  2000
 73
     1
 74
     3
 75
     0
 76
     0
 77
     0
 78
     0
281
     0
 65
     1
110
0.0
120
0.0
130
0.0
111
1.0
121
0.0
131
0.0
112
0.0
122
1.0
132
0.0
 79
     0
146
0.0
  0
ENDTAB
  0
TABLE
  2
LTYPE
  5
5
330
0
100
AcDbSymbolTable
 70
     6
  0
LTYPE
  5
14
330
5
100
AcDbSymbolTableRecord
100
AcDbLinetypeTableRecord
  2
ByBlock
 70
     0
  3

 72
    65
 73
     0
 40
0.0
  0
LTYPE
  5
15
330
5
100
AcDbSymbolTableRecord
100
AcDbLinetypeTableRecord
  2
ByLayer
 70
     0
  3

 72
    65
 73
     0
 40
0.0
  0
LTYPE
  5
16
330
5
100
AcDbSymbolTableRecord
100
AcDbLinetypeTableRecord
  2
Continuous
 70
     0
  3
Solid line
 72
    65
 73
     0
 40
0.0
  0
LTYPE
  5
5E
330
5
100
AcDbSymbolTableRecord
100
AcDbLinetypeTableRecord
  2
HIDDEN
 70
     0
  3
Hidden __ __ __ __ __ __ __ __ __ __ __ __ __ __
 72
    65
 73
     2
 40
1.905
 49
1.27
 74
     0
 49
-0.635
 74
     0
  0
LTYPE
  5
5F
330
5
100
AcDbSymbolTableRecord
100
AcDbLinetypeTableRecord
  2
PHANTOM
 70
     0
  3
Phantom ______  __  __  ______  __  __  ______
 72
    65
 73
     6
 40
12.7
 49
6.35
 74
     0
 49
-1.27
 74
     0
 49
1.27
 74
     0
 49
-1.27
 74
     0
 49
1.27
 74
     0
 49
-1.27
 74
     0
  0
LTYPE
  5
60
330
5
100
AcDbSymbolTableRecord
100
AcDbLinetypeTableRecord
  2
CENTER
 70
     0
  3
Center ____ _ ____ _ ____ _ ____ _ ____ _ ____
 72
    65
 73
     4
 40
10.16
 49
6.35
 74
     0
 49
-1.27
 74
     0
 49
1.27
 74
     0
 49
-1.27
 74
     0
  0
LTYPE
  5
61
330
5
100
AcDbSymbolTableRecord
100
AcDbLinetypeTableRecord
  2
CENTERX2
 70
     0
  3
Center (2x) ________  __  ________  __  _____
 72
    65
 73
     4
 40
20.32
 49
12.7
 74
     0
 49
-2.54
 74
     0
 49
2.54
 74
     0
 49
-2.54
 74
     0
  0
LTYPE
  5
62
330
5
100
AcDbSymbolTableRecord
100
AcDbLinetypeTableRecord
  2
DOT2
 70
     0
  3
Dot (.5x) ........................................
 72
    65
 73
     2
 40
0.635
 49
0.0
 74
     0
 49
-0.635
 74
     0
  0
ENDTAB
  0
TABLE
  2
LAYER
  5
2
330
0
100
AcDbSymbolTable
 70
     1
  0
LAYER
  5
10
330
2
100
AcDbSymbolTableRecord
100
AcDbLayerTableRecord
  2
0
 70
     0
 62
     7
  6
Continuous
370
    -3
390
F
  0
ENDTAB
  0
TABLE
  2
STYLE
  5
3
330
0
100
AcDbSymbolTable
 70
     2
  0
STYLE
  5
11
330
3
100
AcDbSymbolTableRecord
100
AcDbTextStyleTableRecord
  2
Standard
 70
     0
 40
0.0
 41
1.0
 50
0.0
 71
     0
 42
3.5
  3
txt
  4
bigfont
  0
STYLE
  5
63
330
3
100
AcDbSymbolTableRecord
100
AcDbTextStyleTableRecord
  2
SLDTEXTSTYLE0
 70
     0
 40
0.0
 41
0.7
 50
0.0
 71
     0
 42
3.5
  3
TXT
  4
bigfont
  0
ENDTAB
  0
TABLE
  2
VIEW
  5
6
330
0
100
AcDbSymbolTable
 70
     0
  0
ENDTAB
  0
TABLE
  2
UCS
  5
7
330
0
100
AcDbSymbolTable
 70
     0
  0
ENDTAB
  0
TABLE
  2
APPID
  5
9
330
0
100
AcDbSymbolTable
 70
     1
  0
APPID
  5
12
330
9
100
AcDbSymbolTableRecord
100
AcDbRegAppTableRecord
  2
ACAD
 70
     0
  0
ENDTAB
  0
TABLE
  2
DIMSTYLE
  5
A
330
0
100
AcDbSymbolTable
 70
     1
100
AcDbDimStyleTable
  0
DIMSTYLE
105
27
330
A
100
AcDbSymbolTableRecord
100
AcDbDimStyleTableRecord
  2
ISO-25
 70
     0
 41
2.5
 42
0.625
 43
3.75
 44
1.25
 73
     0
 74
     0
 77
     1
 78
     8
140
2.5
141
2.5
143
0.0393700787
147
0.625
171
     3
172
     1
178
     0
271
     2
272
     2
274
     3
278
    44
283
     0
284
     8
340
11
  0
ENDTAB
  0
TABLE
  2
BLOCK_RECORD
  5
1
330
0
100
AcDbSymbolTable
 70
     3
  0
BLOCK_RECORD
  5
1F
330
1
100
AcDbSymbolTableRecord
100
AcDbBlockTableRecord
  2
*Model_Space
340
22
  0
BLOCK_RECORD
  5
1B
330
1
100
AcDbSymbolTableRecord
100
AcDbBlockTableRecord
  2
*Paper_Space
340
1E
  0
BLOCK_RECORD
  5
23
330
1
100
AcDbSymbolTableRecord
100
AcDbBlockTableRecord
  2
*Paper_Space0
340
26
  0
BLOCK_RECORD
  5
1F2
330
1
100
AcDbSymbolTableRecord
100
AcDbBlockTableRecord
  2
SW_CENTERMARKSYMBOL_0
340
0
102
{BLKREFS
331
1FD
102
}
  0
BLOCK_RECORD
  5
2DE
330
1
100
AcDbSymbolTableRecord
100
AcDbBlockTableRecord
  2
SW_CENTERMARKSYMBOL_1
340
0
102
{BLKREFS
331
2E9
102
}
  0
ENDTAB
  0
ENDSEC
  0
SECTION
  2
BLOCKS
  0
BLOCK
  5
20
330
1F
100
AcDbEntity
  8
0
100
AcDbBlockBegin
  2
*Model_Space
 70
     0
 10
0.0
 20
0.0
 30
0.0
  3
*Model_Space
  1

  0
ENDBLK
  5
21
330
1F
100
AcDbEntity
  8
0
100
AcDbBlockEnd
  0
BLOCK
  5
1C
330
1B
100
AcDbEntity
 67
     1
  8
0
100
AcDbBlockBegin
  2
*Paper_Space
 70
     0
 10
0.0
 20
0.0
 30
0.0
  3
*Paper_Space
  1

  0
ENDBLK
  5
1D
330
1B
100
AcDbEntity
 67
     1
  8
0
100
AcDbBlockEnd
  0
BLOCK
  5
24
330
23
100
AcDbEntity
  8
0
100
AcDbBlockBegin
  2
*Paper_Space0
 70
     0
 10
0.0
 20
0.0
 30
0.0
  3
*Paper_Space0
  1

  0
ENDBLK
  5
25
330
23
100
AcDbEntity
  8
0
100
AcDbBlockEnd
  0
BLOCK
  5
1F3
330
1F2
100
AcDbEntity
  8
0
100
AcDbBlockBegin
  2
SW_CENTERMARKSYMBOL_0
 70
     0
 10
0.0
 20
0.0
 30
0.0
  3
SW_CENTERMARKSYMBOL_0
  1

  0
LINE
  5
1F5
330
1F2
100
AcDbEntity
  8
0
  6
Continuous
 62
     0
370
    18
100
AcDbLine
 10
0.0
 20
0.0
 30
0.0
 11
0.0
 21
2.5
 31
0.0
  0
LINE
  5
1F6
330
1F2
100
AcDbEntity
  8
0
  6
Continuous
 62
     0
370
    18
100
AcDbLine
 10
0.0
 20
0.0
 30
0.0
 11
-2.5
 21
0.0
 31
0.0
  0
LINE
  5
1F7
330
1F2
100
AcDbEntity
  8
0
  6
Continuous
 62
     0
370
    18
100
AcDbLine
 10
0.0
 20
0.0
 30
0.0
 11
0.0
 21
-2.5
 31
0.0
  0
LINE
  5
1F8
330
1F2
100
AcDbEntity
  8
0
  6
Continuous
 62
     0
370
    18
100
AcDbLine
 10
0.0
 20
0.0
 30
0.0
 11
2.5
 21
0.0
 31
0.0
  0
LINE
  5
1F9
330
1F2
100
AcDbEntity
  8
0
  6
Continuous
 62
     0
370
    18
100
AcDbLine
 10
0.0
 20
5.0
 30
0.0
 11
0.0
 21
41.6149016757
 31
0.0
  0
LINE
  5
1FA
330
1F2
100
AcDbEntity
  8
0
  6
Continuous
 62
     0
370
    18
100
AcDbLine
 10
-5.0
 20
0.0
 30
0.0
 11
-15.0
 21
0.0
 31
0.0
  0
LINE
  5
1FB
330
1F2
100
AcDbEntity
  8
0
  6
Continuous
 62
     0
370
    18
100
AcDbLine
 10
0.0
 20
-5.0
 30
0.0
 11
0.0
 21
-15.0
 31
0.0
  0
LINE
  5
1FC
330
1F2
100
AcDbEntity
  8
0
  6
Continuous
 62
     0
370
    18
100
AcDbLine
 10
5.0
 20
0.0
 30
0.0
 11
15.0
 21
0.0
 31
0.0
  0
ENDBLK
  5
1F4
330
1F2
100
AcDbEntity
  8
0
100
AcDbBlockEnd
  0
BLOCK
  5
2DF
330
2DE
100
AcDbEntity
  8
0
100
AcDbBlockBegin
  2
SW_CENTERMARKSYMBOL_1
 70
     0
 10
0.0
 20
0.0
 30
0.0
  3
SW_CENTERMARKSYMBOL_1
  1

  0
LINE
  5
2E1
330
2DE
100
AcDbEntity
  8
0
  6
Continuous
 62
     0
370
    18
100
AcDbLine
 10
0.0
 20
0.0
 30
0.0
 11
0.0
 21
2.5
 31
0.0
  0
LINE
  5
2E2
330
2DE
100
AcDbEntity
  8
0
  6
Continuous
 62
     0
370
    18
100
AcDbLine
 10
0.0
 20
0.0
 30
0.0
 11
-2.5
 21
0.0
 31
0.0
  0
LINE
  5
2E3
330
2DE
100
AcDbEntity
  8
0
  6
Continuous
 62
     0
370
    18
100
AcDbLine
 10
0.0
 20
0.0
 30
0.0
 11
0.0
 21
-2.5
 31
0.0
  0
LINE
  5
2E4
330
2DE
100
AcDbEntity
  8
0
  6
Continuous
 62
     0
370
    18
100
AcDbLine
 10
0.0
 20
0.0
 30
0.0
 11
2.5
 21
0.0
 31
0.0
  0
LINE
  5
2E5
330
2DE
100
AcDbEntity
  8
0
  6
Continuous
 62
     0
370
    18
100
AcDbLine
 10
0.0
 20
5.0
 30
0.0
 11
0.0
 21
14.5377339238
 31
0.0
  0
LINE
  5
2E6
330
2DE
100
AcDbEntity
  8
0
  6
Continuous
 62
     0
370
    18
100
AcDbLine
 10
-5.0
 20
0.0
 30
0.0
 11
-57.2141011908
 21
0.0
 31
0.0
  0
LINE
  5
2E7
330
2DE
100
AcDbEntity
  8
0
  6
Continuous
 62
     0
370
    18
100
AcDbLine
 10
0.0
 20
-5.0
 30
0.0
 11
0.0
 21
-13.7725420912
 31
0.0
  0
LINE
  5
2E8
330
2DE
100
AcDbEntity
  8
0
  6
Continuous
 62
     0
370
    18
100
AcDbLine
 10
5.0
 20
0.0
 30
0.0
 11
29.0458477937
 21
0.0
 31
0.0
  0
ENDBLK
  5
2E0
330
2DE
100
AcDbEntity
  8
0
100
AcDbBlockEnd
  0
ENDSEC
  0
SECTION
  2
ENTITIES
  0
MTEXT
  5
64
330
1F
100
AcDbEntity
  8
0
  6
Continuous
 62
     7
370
     0
100
AcDbMText
 10
167.0049820104
 20
115.7363938955
 30
0.0
 40
4.2333333333
 41
0.0
 71
     1
 72
     1
  1
エースボールZERO　BS-0033
  7
SLDTEXTSTYLE0
 73
     1
 44
1.0
  0
ARC
  5
65
330
1F
100
AcDbEntity
  8
0
  6
Continuous
 62
     7
370
    25
100
AcDbCircle
 10
139.7305866051
 20
76.9816599307
 30
0.0
 40
20.6
100
AcDbArc
 50
90.5278568872
 51
93.3558231766
  0
ARC
  5
66
330
1F
100
AcDbEntity
  8
0
  6
Continuous
 62
     7
370
    25
100
AcDbCircle
 10
139.7305866051
 20
76.9816599307
 30
0.0
 40
20.6
100
AcDbArc
 50
86.6441768145
 51
89.4759482465
  0
ARC
  5
67
330
1F
100
AcDbEntity
  8
0
  6
Continuous
 62
     7
370
    25
100
AcDbCircle
 10
147.7243569734
 20
89.4692392355
 30
0.0
 40
0.9999999999999943
100
AcDbArc
 50
354.2894068625
 51
7.1250163489
  0
LINE
  5
68
330
1F
100
AcDbEntity
  8
0
  6
Continuous
 62
     7
370
    25
100
AcDbLine
 10
131.3239587484
 20
83.547938497
 30
0.0
 11
131.5505866051
 21
81.2816599307
 31
0.0
  0
LINE
  5
69
330
1F
100
AcDbEntity
  8
0
  6
Continuous
 62
     7
370
    25
100
AcDbLine
 10
147.7756114191
 20
79.9319080712
 30
0.0
 11
148.7193941637
 21
89.3697355165
 31
0.0
  0
LINE
  5
6A
330
1F
100
AcDbEntity
  8
0
  6
Continuous
 62
     7
370
    25
100
AcDbLine
 10
148.7166348502
 20
89.5932739701
 30
0.0
 11
147.7853344342
 21
97.043677298
 31
0.0
  0
LINE
  5
6B
330
1F
100
AcDbEntity
  8
0
  6
Continuous
 62
     7
370
    25
100
AcDbLine
 10
131.675838776
 20
97.043677298
 30
0.0
 11
131.4805866051
 21
95.4816599307
 31
0.0
  0
ARC
  5
6C
330
1F
100
AcDbEntity
  8
0
  6
Continuous
 62
     7
370
    25
100
AcDbCircle
 10
132.1719777143
 20
96.9816599307
 30
0.0
 40
0.5
100
AcDbArc
 50
90.0
 51
172.8749836511
  0
ARC
  5
6D
330
1F
100
AcDbEntity
  8
0
  6
Continuous
 62
     7
370
    25
100
AcDbCircle
 10
147.2891954958
 20
96.9816599307
 30
0.0
 40
0.5000000000000017
100
AcDbArc
 50
7.1250163489
 51
90.0
  0
ARC
  5
6E
330
1F
100
AcDbEntity
  8
0
  6
Continuous
 62
     7
370
    25
100
AcDbCircle
 10
147.278092824
 20
79.9816599307
 30
0.0
 40
0.5
100
AcDbArc
 50
270.0
 51
354.2894068625
  0
LINE
  5
6F
330
1F
100
AcDbEntity
  8
0
  6
Continuous
 62
     7
370
    25
100
AcDbLine
 10
134.2305866051
 20
78.9816599307
 30
0.0
 11
134.2305866051
 21
79.4816599307
 31
0.0
  0
LINE
  5
70
330
1F
100
AcDbEntity
  8
0
  6
Continuous
 62
     7
370
    25
100
AcDbLine
 10
132.2305866051
 20
79.4848946627
 30
0.0
 11
132.2305866051
 21
78.9816599307
 31
0.0
  0
LINE
  5
71
330
1F
100
AcDbEntity
  8
0
  6
Continuous
 62
     7
370
    25
100
AcDbLine
 10
126.7305866051
 20
72.2816599307
 30
0.0
 11
123.9805866051
 21
72.2816599307
 31
0.0
  0
LINE
  5
72
330
1F
100
AcDbEntity
  8
0
  6
Continuous
 62
     7
370
    25
100
AcDbLine
 10
123.9805866051
 20
48.2816599307
 30
0.0
 11
126.7305866051
 21
48.2816599307
 31
0.0
  0
LINE
  5
73
330
1F
100
AcDbEntity
  8
0
  6
Continuous
 62
     7
370
    25
100
AcDbLine
 10
123.9805866051
 20
72.2816599307
 30
0.0
 11
123.7305866051
 21
72.0316599307
 31
0.0
  0
LINE
  5
74
330
1F
100
AcDbEntity
  8
0
  6
Continuous
 62
     7
370
    25
100
AcDbLine
 10
123.7305866051
 20
48.5316599307
 30
0.0
 11
123.9805866051
 21
48.2816599307
 31
0.0
  0
LINE
  5
75
330
1F
100
AcDbEntity
  8
0
  6
Continuous
 62
     7
370
    25
100
AcDbLine
 10
120.2305866051
 20
68.6126599307
 30
0.0
 11
112.7305866051
 21
68.6126599307
 31
0.0
  0
LINE
  5
76
330
1F
100
AcDbEntity
  8
0
  6
Continuous
 62
     7
370
    25
100
AcDbLine
 10
112.7305866051
 20
51.9506599307
 30
0.0
 11
120.2305866051
 21
51.9506599307
 31
0.0
  0
LINE
  5
77
330
1F
100
AcDbEntity
  8
0
  6
Continuous
 62
     7
370
    25
100
AcDbLine
 10
120.2305866051
 20
51.9506599307
 30
0.0
 11
121.2305866051
 21
52.9506599307
 31
0.0
  0
LINE
  5
78
330
1F
100
AcDbEntity
  8
0
  6
Continuous
 62
     7
370
    25
100
AcDbLine
 10
121.2305866051
 20
67.6126599307
 30
0.0
 11
120.2305866051
 21
68.6126599307
 31
0.0
  0
LINE
  5
79
330
1F
100
AcDbEntity
  8
0
  6
Continuous
 62
     7
370
    25
100
AcDbLine
 10
112.7305866051
 20
68.6126599307
 30
0.0
 11
111.7305866051
 21
67.6126599307
 31
0.0
  0
LINE
  5
7A
330
1F
100
AcDbEntity
  8
0
  6
Continuous
 62
     7
370
    25
100
AcDbLine
 10
111.7305866051
 20
52.9506599307
 30
0.0
 11
112.7305866051
 21
51.9506599307
 31
0.0
  0
LINE
  5
7B
330
1F
100
AcDbEntity
  8
0
  6
Continuous
 62
     7
370
    25
100
AcDbLine
 10
123.7305866051
 20
67.2816599307
 30
0.0
 11
121.2305866051
 21
67.2816599307
 31
0.0
  0
LINE
  5
7C
330
1F
100
AcDbEntity
  8
0
  6
Continuous
 62
     7
370
    25
100
AcDbLine
 10
121.2305866051
 20
53.2816599307
 30
0.0
 11
123.7305866051
 21
53.2816599307
 31
0.0
  0
LINE
  5
7D
330
1F
100
AcDbEntity
  8
0
  6
Continuous
 62
     7
370
    25
100
AcDbLine
 10
154.9805866051
 20
48.2816599307
 30
0.0
 11
155.2305866051
 21
48.5316599307
 31
0.0
  0
LINE
  5
7E
330
1F
100
AcDbEntity
  8
0
  6
Continuous
 62
     7
370
    25
100
AcDbLine
 10
155.2305866051
 20
72.0316599307
 30
0.0
 11
154.9805866051
 21
72.2816599307
 31
0.0
  0
LINE
  5
7F
330
1F
100
AcDbEntity
  8
0
  6
Continuous
 62
     7
370
    25
100
AcDbLine
 10
152.7305866051
 20
48.2816599307
 30
0.0
 11
154.9805866051
 21
48.2816599307
 31
0.0
  0
LINE
  5
80
330
1F
100
AcDbEntity
  8
0
  6
Continuous
 62
     7
370
    25
100
AcDbLine
 10
154.9805866051
 20
72.2816599307
 30
0.0
 11
152.7305866051
 21
72.2816599307
 31
0.0
  0
LINE
  5
81
330
1F
100
AcDbEntity
  8
0
  6
Continuous
 62
     7
370
    25
100
AcDbLine
 10
155.2305866051
 20
51.7631599307
 30
0.0
 11
165.1366487982
 21
52.0727243743
 31
0.0
  0
LINE
  5
82
330
1F
100
AcDbEntity
  8
0
  6
Continuous
 62
     7
370
    25
100
AcDbLine
 10
165.1366487982
 20
68.4905954872
 30
0.0
 11
155.2305866051
 21
68.8001599307
 31
0.0
  0
ARC
  5
83
330
1F
100
AcDbEntity
  8
0
  6
Continuous
 62
     7
370
    25
100
AcDbCircle
 10
148.2305866051
 20
73.0316599307
 30
0.0
 40
0.25
100
AcDbArc
 50
180.0
 51
270.0
  0
ARC
  5
84
330
1F
100
AcDbEntity
  8
0
  6
Continuous
 62
     7
370
    25
100
AcDbCircle
 10
131.2305866051
 20
73.0316599307
 30
0.0
 40
0.25
100
AcDbArc
 50
270.0
 51
0.0
  0
LINE
  5
85
330
1F
100
AcDbEntity
  8
0
  6
Continuous
 62
     7
370
    25
100
AcDbLine
 10
147.9805866051
 20
78.4816599307
 30
0.0
 11
147.4805866051
 21
78.9816599307
 31
0.0
  0
LINE
  5
86
330
1F
100
AcDbEntity
  8
0
  6
Continuous
 62
     7
370
    25
100
AcDbLine
 10
131.9805866051
 20
78.9816599307
 30
0.0
 11
131.4805866051
 21
78.4816599307
 31
0.0
  0
LINE
  5
87
330
1F
100
AcDbEntity
  8
0
  6
Continuous
 62
     7
370
    25
100
AcDbLine
 10
147.9805866051
 20
73.0316599307
 30
0.0
 11
147.9805866051
 21
78.4816599307
 31
0.0
  0
LINE
  5
88
330
1F
100
AcDbEntity
  8
0
  6
Continuous
 62
     7
370
    25
100
AcDbLine
 10
131.4805866051
 20
78.4816599307
 30
0.0
 11
131.4805866051
 21
73.0316599307
 31
0.0
  0
LINE
  5
89
330
1F
100
AcDbEntity
  8
0
  6
Continuous
 62
     7
370
    25
100
AcDbLine
 10
165.1366487982
 20
52.0727243743
 30
0.0
 11
167.2305866051
 21
53.2816599307
 31
0.0
  0
LINE
  5
8A
330
1F
100
AcDbEntity
  8
0
  6
Continuous
 62
     7
370
    25
100
AcDbLine
 10
167.2305866051
 20
67.2816599307
 30
0.0
 11
165.1366487982
 21
68.4905954872
 31
0.0
  0
LINE
  5
8B
330
1F
100
AcDbEntity
  8
0
  6
Continuous
 62
     7
370
    25
100
AcDbLine
 10
134.7305866051
 20
79.4816599307
 30
0.0
 11
134.7305866051
 21
78.9816599307
 31
0.0
  0
LINE
  5
8C
330
1F
100
AcDbEntity
  8
0
  6
Continuous
 62
     7
370
    25
100
AcDbLine
 10
144.7305866051
 20
78.9816599307
 30
0.0
 11
144.7305866051
 21
79.4816599307
 31
0.0
  0
ARC
  5
8D
330
1F
100
AcDbEntity
  8
0
  6
Continuous
 62
     7
370
    25
100
AcDbCircle
 10
138.6636349359
 20
95.1827359814
 30
0.0
 40
2.367678303607912
100
AcDbArc
 50
93.3632881502
 51
99.4868245016
  0
ARC
  5
8E
330
1F
100
AcDbEntity
  8
0
  6
Continuous
 62
     7
370
    25
100
AcDbCircle
 10
140.7975419608
 20
95.1827772322
 30
0.0
 40
2.367636907662778
100
AcDbArc
 50
80.5187694298
 51
86.636742268
  0
SPLINE
  5
8F
330
1F
100
AcDbEntity
  8
0
  6
Continuous
 62
     7
370
    25
100
AcDbSpline
210
0.0
220
0.0
230
1.0
 70
     8
 71
     3
 72
    15
 73
    11
 74
     0
 42
0.00000001
 43
0.00000001
 40
0.0
 40
0.0
 40
0.0
 40
0.0
 40
0.1233867499278388
 40
0.2487396502211602
 40
0.3739317114754985
 40
0.4999973617625659
 40
0.6259591330513601
 40
0.7512551380600303
 40
0.8765613478174267
 40
1.0
 40
1.0
 40
1.0
 40
1.0
 10
139.6677037402747
 20
97.58155282802043
 30
0.0
 10
139.6705819414666
 20
97.58155348709258
 30
0.0
 10
139.6763842075783
 20
97.58155481573907
 30
0.0
 10
139.691913612299
 20
97.58155876536622
 30
0.0
 10
139.7102681941724
 20
97.58156054771561
 30
0.0
 10
139.7305810106554
 20
97.58156210129357
 30
0.0
 10
139.7508994283705
 20
97.5815605471586
 30
0.0
 10
139.7692522975346
 20
97.58155877027808
 30
0.0
 10
139.7847904019301
 20
97.58155480275991
 30
0.0
 10
139.7905909639613
 20
97.58155348296397
 30
0.0
 10
139.7934694698869
 20
97.58155282802045
 30
0.0
  0
ARC
  5
90
330
1F
100
AcDbEntity
  8
0
  6
Continuous
 62
     7
370
    25
100
AcDbCircle
 10
139.6685981679
 20
95.0372034152
 30
0.0
 40
2.544349570055241
100
AcDbArc
 50
90.0201414662
 51
95.4127462174
  0
SPLINE
  5
91
330
1F
100
AcDbEntity
  8
0
  6
Continuous
 62
     7
370
    25
100
AcDbSpline
210
0.0
220
0.0
230
1.0
 70
     8
 71
     3
 72
    15
 73
    11
 74
     0
 42
0.00000001
 43
0.00000001
 40
0.0
 40
0.0
 40
0.0
 40
0.0
 40
0.1261585224210644
 40
0.2513121451548802
 40
0.3762846848783791
 40
0.4993062783340883
 40
0.6261594278645745
 40
0.7521171342021309
 40
0.8758196922692798
 40
1.0
 40
1.0
 40
1.0
 40
1.0
 10
139.4914730794031
 20
97.5683096966097
 30
0.0
 10
139.4862419829144
 20
97.56825877085923
 30
0.0
 10
139.4758214575717
 20
97.56815732500088
 30
0.0
 10
139.4610349070573
 20
97.56815314336363
 30
0.0
 10
139.4478445544318
 20
97.56825248218423
 30
0.0
 10
139.4369739795906
 20
97.56847302438732
 30
0.0
 10
139.428966392262
 20
97.56879689178878
 30
0.0
 10
139.4247997652293
 20
97.56921676163627
 30
0.0
 10
139.4241787137177
 20
97.56969547870199
 30
0.0
 10
139.4271178260725
 20
97.57003676794757
 30
0.0
 10
139.4285902145552
 20
97.57020774145717
 30
0.0
  0
ARC
  5
92
330
1F
100
AcDbEntity
  8
0
  6
Continuous
 62
     7
370
    25
100
AcDbCircle
 10
139.7305866051
 20
76.9816599307
 30
0.0
 40
20.58803836847345
100
AcDbArc
 50
89.3345405821
 51
90.66545941
  0
SPLINE
  5
93
330
1F
100
AcDbEntity
  8
0
  6
Continuous
 62
     7
370
    25
100
AcDbSpline
210
0.0
220
0.0
230
1.0
 70
     8
 71
     3
 72
    15
 73
    11
 74
     0
 42
0.00000001
 43
0.00000001
 40
0.0
 40
0.0
 40
0.0
 40
0.0
 40
0.1241186784437694
 40
0.2478474916628981
 40
0.373657414947894
 40
0.5005082335853294
 40
0.6234527658309922
 40
0.7484986612277523
 40
0.8736976492452768
 40
1.0
 40
1.0
 40
1.0
 40
1.0
 10
140.0325829983324
 20
97.57020774142387
 30
0.0
 10
140.0340540709412
 20
97.57003686114538
 30
0.0
 10
140.0369915954196
 20
97.569695637335
 30
0.0
 10
140.0363748609195
 20
97.56921710104751
 30
0.0
 10
140.0322128993249
 20
97.56879731117562
 30
0.0
 10
140.0242141515265
 20
97.5684735233292
 30
0.0
 10
140.0133480599897
 20
97.56825282512352
 30
0.0
 10
140.0001603421651
 20
97.56815323321332
 30
0.0
 10
139.9853658955899
 20
97.56815714761196
 30
0.0
 10
139.9749373046825
 20
97.56825869841737
 30
0.0
 10
139.9697001335681
 20
97.56830969657707
 30
0.0
  0
ARC
  5
94
330
1F
100
AcDbEntity
  8
0
  6
Continuous
 62
     7
370
    25
100
AcDbCircle
 10
139.7925750421
 20
95.0372033629
 30
0.0
 40
2.544349622300146
100
AcDbArc
 50
84.5872538302
 51
89.9798585321
  0
ELLIPSE
  5
95
330
1F
100
AcDbEntity
  8
0
  6
Continuous
 62
     7
370
    25
100
AcDbEllipse
 10
242.2444820775
 20
82.103482649
 30
0.0
 11
171.0000000000011
 21
0.0
 31
0.0
210
0.0
220
0.0
230
1.0
 40
0.0555555556
 41
2.292395939553284
 42
2.365524293035126
  0
LINE
  5
96
330
1F
100
AcDbEntity
  8
0
  6
Continuous
 62
     7
370
    25
100
AcDbLine
 10
129.2842032502
 20
89.2356077213
 30
0.0
 11
129.7305866051
 21
89.1981457555
 31
0.0
  0
LINE
  5
97
330
1F
100
AcDbEntity
  8
0
  6
Continuous
 62
     7
370
    25
100
AcDbLine
 10
129.7305866051
 20
84.3695431339
 30
0.0
 11
129.7305866051
 21
89.1981457555
 31
0.0
  0
SPLINE
  5
98
330
1F
100
AcDbEntity
  8
0
  6
Continuous
 62
     7
370
    25
100
AcDbSpline
210
0.0
220
0.0
230
1.0
 70
     8
 71
     3
 72
    13
 73
     9
 74
     0
 42
0.00000001
 43
0.00000001
 40
0.0
 40
0.0
 40
0.0
 40
0.0
 40
0.1374692963454099
 40
0.2749820892813126
 40
0.4163021045260215
 40
0.5576318202769774
 40
0.777008491451321
 40
1.0
 40
1.0
 40
1.0
 40
1.0
 10
120.2063858377248
 20
88.75803253274219
 30
0.0
 10
120.6917137290885
 20
88.67179212331331
 30
0.0
 10
121.6625230741684
 20
88.49928401717119
 30
0.0
 10
123.0832154419782
 20
88.1003019438482
 30
0.0
 10
124.4753117669943
 20
87.59999253237594
 30
0.0
 10
126.0796709512359
 20
86.8711720607732
 30
0.0
 10
127.8705388268683
 20
85.85495311057153
 30
0.0
 10
129.1072021900832
 20
84.867369824268
 30
0.0
 10
129.7305866050808
 20
84.36954313391206
 30
0.0
  0
SPLINE
  5
99
330
1F
100
AcDbEntity
  8
0
  6
Continuous
 62
     7
370
    25
100
AcDbSpline
210
0.0
220
0.0
230
1.0
 70
     8
 71
     3
 72
    11
 73
     7
 74
     0
 42
0.00000001
 43
0.00000001
 40
0.0
 40
0.0
 40
0.0
 40
0.0
 40
0.2795638428677817
 40
0.5590315779132448
 40
0.7794196683689383
 40
0.9999999999999999
 40
0.9999999999999999
 40
0.9999999999999999
 40
0.9999999999999999
 10
117.2942586510033
 20
88.98165993071595
 30
0.0
 10
117.1706853052272
 20
89.02017878266405
 30
0.0
 10
116.9235810954387
 20
89.09720324463687
 30
0.0
 10
116.6698251875154
 20
89.63000114242655
 30
0.0
 10
116.553206746535
 20
90.25773770929295
 30
0.0
 10
116.5797261325702
 20
90.65872052546159
 30
0.0
 10
116.5929916061808
 20
90.85929933822618
 30
0.0
  0
SPLINE
  5
9A
330
1F
100
AcDbEntity
  8
0
  6
Continuous
 62
     7
370
    25
100
AcDbSpline
210
0.0
220
0.0
230
1.0
 70
     8
 71
     3
 72
     9
 73
     5
 74
     0
 42
0.00000001
 43
0.00000001
 40
0.0
 40
0.0
 40
0.0
 40
0.0
 40
0.4986740982738612
 40
1.0
 40
1.0
 40
1.0
 40
1.0
 10
117.8845521472497
 20
90.88910036365664
 30
0.0
 10
117.6780785061799
 20
90.89056544291329
 30
0.0
 10
117.2640332574203
 20
90.89350339229088
 30
0.0
 10
116.8170671554754
 20
90.87072011335917
 30
0.0
 10
116.5929914713769
 20
90.85929826550446
 30
0.0
  0
SPLINE
  5
9B
330
1F
100
AcDbEntity
  8
0
  6
Continuous
 62
     7
370
    25
100
AcDbSpline
210
0.0
220
0.0
230
1.0
 70
     8
 71
     3
 72
    13
 73
     9
 74
     0
 42
0.00000001
 43
0.00000001
 40
0.0
 40
0.0
 40
0.0
 40
0.0
 40
0.3327087167328941
 40
0.5628656559531299
 40
0.69871241253847
 40
0.8016200683166478
 40
0.9052998751809794
 40
1.0
 40
1.0
 40
1.0
 40
1.0
 10
119.8753528875203
 20
88.80620696956682
 30
0.0
 10
119.5129620571931
 20
88.89199254448498
 30
0.0
 10
118.8998811784398
 20
89.03712175652298
 30
0.0
 10
118.2503358537773
 20
89.48748845295026
 30
0.0
 10
117.9076388381793
 20
89.88722960155614
 30
0.0
 10
117.7587152270355
 20
90.2431218479677
 30
0.0
 10
117.7465425076089
 20
90.59055569500192
 30
0.0
 10
117.839959101429
 20
90.79263456618101
 30
0.0
 10
117.8845531438801
 20
90.88910044436516
 30
0.0
  0
SPLINE
  5
9C
330
1F
100
AcDbEntity
  8
0
  6
Continuous
 62
     7
370
    25
100
AcDbSpline
210
0.0
220
0.0
230
1.0
 70
     8
 71
     3
 72
     9
 73
     5
 74
     0
 42
0.00000001
 43
0.00000001
 40
0.0
 40
0.0
 40
0.0
 40
0.0
 40
0.5551829690770672
 40
1.0
 40
1.0
 40
1.0
 40
1.0
 10
117.2942586510033
 20
88.98165993071595
 30
0.0
 10
117.8242815247245
 20
88.9686609102249
 30
0.0
 10
118.7789629599319
 20
88.94524697064986
 30
0.0
 10
119.5378064010894
 20
88.84901333129815
 30
0.0
 10
119.8753528875203
 20
88.80620696956682
 30
0.0
  0
LINE
  5
9D
330
1F
100
AcDbEntity
  8
0
  6
Continuous
 62
     7
370
    25
100
AcDbLine
 10
129.7305866051
 20
94.4816599307
 30
0.0
 11
129.2842032502
 21
94.4816599307
 31
0.0
  0
ARC
  5
9E
330
1F
100
AcDbEntity
  8
0
  6
Continuous
 62
     7
370
    25
100
AcDbCircle
 10
136.1070156637
 20
94.8555060846
 30
0.0
 40
6.833046917561756
100
AcDbArc
 50
170.513808076
 51
183.1363032674
  0
ARC
  5
9F
330
1F
100
AcDbEntity
  8
0
  6
Continuous
 62
     7
370
    25
100
AcDbCircle
 10
129.3630187387
 20
95.1914099823
 30
0.0
 40
0.7902621394872118
100
AcDbArc
 50
62.2819181136
 51
89.6817467964
  0
LINE
  5
A0
330
1F
100
AcDbEntity
  8
0
  6
Continuous
 62
     7
370
    25
100
AcDbLine
 10
129.7305866051
 20
94.4816599307
 30
0.0
 11
129.7305866051
 21
95.8909870779
 31
0.0
  0
LINE
  5
A1
330
1F
100
AcDbEntity
  8
0
  6
Continuous
 62
     7
370
    25
100
AcDbLine
 10
129.2842032502
 20
94.4816599307
 30
0.0
 11
129.2842032502
 21
89.2356077213
 31
0.0
  0
LINE
  5
A2
330
1F
100
AcDbEntity
  8
0
  6
Continuous
 62
     7
370
    25
100
AcDbLine
 10
129.7305866051
 20
89.1981457555
 30
0.0
 11
129.7305866051
 21
94.4816599307
 31
0.0
  0
LINE
  5
A3
330
1F
100
AcDbEntity
  8
0
  6
Continuous
 62
     7
370
    25
100
AcDbLine
 10
129.3674082796
 20
95.9816599307
 30
0.0
 11
117.9516789961
 21
95.9816599307
 31
0.0
  0
LINE
  5
A4
330
1F
100
AcDbEntity
  8
0
  6
Continuous
 62
     7
370
    25
100
AcDbLine
 10
119.9505252387
 20
94.4816599307
 30
0.0
 11
129.2842032502
 21
94.4816599307
 31
0.0
  0
SPLINE
  5
A5
330
1F
100
AcDbEntity
  8
0
  6
Continuous
 62
     7
370
    25
100
AcDbSpline
210
0.0
220
0.0
230
1.0
 70
     8
 71
     3
 72
    15
 73
    11
 74
     0
 42
0.00000001
 43
0.00000001
 40
0.0
 40
0.0
 40
0.0
 40
0.0
 40
0.2070474010410781
 40
0.417596863024684
 40
0.5931232720441638
 40
0.6923428991082528
 40
0.773099683107911
 40
0.8543284120985949
 40
0.9261475166372038
 40
1.0
 40
1.0
 40
1.0
 40
1.0
 10
117.9491127093953
 20
95.98164520460995
 30
0.0
 10
118.1802019463602
 20
95.97779496576864
 30
0.0
 10
118.6462891319518
 20
95.97002936400811
 30
0.0
 10
119.2708869312589
 20
95.88337940127067
 30
0.0
 10
119.7325661216896
 20
95.71342889172806
 30
0.0
 10
119.9944698206734
 20
95.4840640343795
 30
0.0
 10
120.1149364768045
 20
95.24627056910019
 30
0.0
 10
120.1337305150003
 20
94.98435759182694
 30
0.0
 10
120.0726921230002
 20
94.71881518981156
 30
0.0
 10
119.9914970293854
 20
94.56151756679783
 30
0.0
 10
119.9503327955996
 20
94.48177092399682
 30
0.0
  0
LINE
  5
A6
330
1F
100
AcDbEntity
  8
0
  6
Continuous
 62
     7
370
    25
100
AcDbLine
 10
117.8843790735
 20
90.8892008501
 30
0.0
 11
119.9503328084
 21
94.4817709366
 31
0.0
  0
ARC
  5
A7
330
1F
100
AcDbEntity
  8
0
  6
Continuous
 62
     7
370
    25
100
AcDbCircle
 10
117.2942586511
 20
69.9086526835
 30
0.0
 40
19.07300724724769
100
AcDbArc
 50
81.2175477188
 51
82.2224666688
  0
SPLINE
  5
A8
330
1F
100
AcDbEntity
  8
0
  6
Continuous
 62
     7
370
    25
100
AcDbSpline
210
0.0
220
0.0
230
1.0
 70
     8
 71
     3
 72
    11
 73
     7
 74
     0
 42
0.00000001
 43
0.00000001
 40
0.0
 40
0.0
 40
0.0
 40
0.0
 40
0.2491150002829079
 40
0.4989585322854286
 40
0.7493328274976518
 40
1.0
 40
1.0
 40
1.0
 40
1.0
 10
116.5929916061808
 20
90.85929933822618
 30
0.0
 10
116.1672803248674
 20
90.83304623025735
 30
0.0
 10
115.3146127783115
 20
90.78046323764278
 30
0.0
 10
113.9510470170597
 20
90.69614220741627
 30
0.0
 10
112.5503743998474
 20
90.60940893860453
 30
0.0
 10
111.5995541643603
 20
90.55043137317695
 30
0.0
 10
111.1238661517997
 20
90.52092535317777
 30
0.0
  0
SPLINE
  5
A9
330
1F
100
AcDbEntity
  8
0
  6
Continuous
 62
     7
370
    25
100
AcDbSpline
210
0.0
220
0.0
230
1.0
 70
     8
 71
     3
 72
     9
 73
     5
 74
     0
 42
0.00000001
 43
0.00000001
 40
0.0
 40
0.0
 40
0.0
 40
0.0
 40
0.5599987526606142
 40
1.0
 40
1.0
 40
1.0
 40
1.0
 10
113.6877675194571
 20
95.49474840486977
 30
0.0
 10
113.2080012615699
 20
94.56690710502046
 30
0.0
 10
112.3512738927896
 20
92.91004395052046
 30
0.0
 10
111.498908144317
 20
91.25093525061001
 30
0.0
 10
111.1238661517997
 20
90.52092535317777
 30
0.0
  0
SPLINE
  5
AA
330
1F
100
AcDbEntity
  8
0
  6
Continuous
 62
     7
370
    25
100
AcDbSpline
210
0.0
220
0.0
230
1.0
 70
     8
 71
     3
 72
     9
 73
     5
 74
     0
 42
0.00000001
 43
0.00000001
 40
0.0
 40
0.0
 40
0.0
 40
0.0
 40
0.5600000882143319
 40
1.0
 40
1.0
 40
1.0
 40
1.0
 10
114.1922546570092
 20
96.4685714565619
 30
0.0
 10
114.0980422414775
 20
96.2868125857301
 30
0.0
 10
113.9298058116725
 20
95.96224322465847
 30
0.0
 10
113.7617236540039
 20
95.63759402436166
 30
0.0
 10
113.6877675194571
 20
95.49474840486977
 30
0.0
  0
SPLINE
  5
AB
330
1F
100
AcDbEntity
  8
0
  6
Continuous
 62
     7
370
    25
100
AcDbSpline
210
0.0
220
0.0
230
1.0
 70
     8
 71
     3
 72
    10
 73
     6
 74
     0
 42
0.00000001
 43
0.00000001
 40
0.0
 40
0.0
 40
0.0
 40
0.0
 40
0.428349366631063
 40
0.7616603141144169
 40
1.0
 40
1.0
 40
1.0
 40
1.0
 10
114.1922546570094
 20
96.4685714565621
 30
0.0
 10
114.6391818582924
 20
96.36677519373896
 30
0.0
 10
115.433875953892
 20
96.18576833448442
 30
0.0
 10
116.4704307548975
 20
96.01210595153131
 30
0.0
 10
117.056296087898
 20
95.99061867363552
 30
0.0
 10
117.3005623429979
 20
95.98165993071586
 30
0.0
  0
LINE
  5
AC
330
1F
100
AcDbEntity
  8
0
  6
Continuous
 62
     7
370
    25
100
AcDbLine
 10
117.2984621829
 20
95.9816599307
 30
0.0
 11
117.949115649
 21
95.9816599307
 31
0.0
  0
LINE
  5
AD
330
1F
100
AcDbEntity
  8
0
  6
Continuous
 62
     7
370
    25
100
AcDbLine
 10
129.7305866051
 20
95.9816599307
 30
0.0
 11
129.3674082796
 21
95.9816599307
 31
0.0
  0
LINE
  5
AE
330
1F
100
AcDbEntity
  8
0
  6
Continuous
 62
     7
370
    25
100
AcDbLine
 10
129.7305866051
 20
95.8909870779
 30
0.0
 11
129.7305866051
 21
95.9816599307
 31
0.0
  0
SPLINE
  5
AF
330
1F
100
AcDbEntity
  8
0
  6
Continuous
 62
     7
370
    25
100
AcDbSpline
210
0.0
220
0.0
230
1.0
 70
    24
 71
     3
 72
    11
 73
     7
 74
     0
 42
0.00000001
 43
0.00000001
 40
0.0
 40
0.0
 40
0.0
 40
0.0
 40
0.2799857774483057
 40
0.5599458358671288
 40
0.779998565900937
 40
0.9999999999999999
 40
0.9999999999999999
 40
0.9999999999999999
 40
0.9999999999999999
 10
111.1631181189819
 20
88.98165993071595
 30
0.0
 10
111.7604421060659
 20
88.98165993071596
 30
0.0
 10
112.9550352110423
 20
88.98165993071595
 30
0.0
 10
114.582396966525
 20
88.98165993071595
 30
0.0
 10
116.0381265360231
 20
88.98165993071595
 30
0.0
 10
116.8755804859309
 20
88.98165993071595
 30
0.0
 10
117.2942586510033
 20
88.98165993071595
 30
0.0
  0
SPLINE
  5
B0
330
1F
100
AcDbEntity
  8
0
  6
Continuous
 62
     7
370
    25
100
AcDbSpline
210
0.0
220
0.0
230
1.0
 70
     8
 71
     3
 72
    11
 73
     7
 74
     0
 42
0.00000001
 43
0.00000001
 40
0.0
 40
0.0
 40
0.0
 40
0.0
 40
0.2500000000000001
 40
0.4999999999999997
 40
0.75
 40
1.0
 40
1.0
 40
1.0
 40
1.0
 10
111.1631181189819
 20
88.98165993071595
 30
0.0
 10
111.1578870852218
 20
89.00498146302425
 30
0.0
 10
111.1474250177015
 20
89.05162452764087
 30
0.0
 10
111.1343105298342
 20
89.40960559600755
 30
0.0
 10
111.1252861863403
 20
89.91979853404949
 30
0.0
 10
111.1243394966466
 20
90.32054974680169
 30
0.0
 10
111.1238661517997
 20
90.52092535317777
 30
0.0
  0
SPLINE
  5
B1
330
1F
100
AcDbEntity
  8
0
  6
Continuous
 62
     7
370
    25
100
AcDbSpline
210
0.0
220
0.0
230
1.0
 70
     8
 71
     3
 72
    11
 73
     7
 74
     0
 42
0.00000001
 43
0.00000001
 40
0.0
 40
0.0
 40
0.0
 40
0.0
 40
0.2499999999999989
 40
0.4999999999999996
 40
0.749999999999999
 40
1.0
 40
1.0
 40
1.0
 40
1.0
 10
126.7175160712997
 20
95.98165993071595
 30
0.0
 10
126.7192025418037
 20
95.9889222403681
 30
0.0
 10
126.7225754828115
 20
96.00344685967237
 30
0.0
 10
126.7268553797128
 20
96.11541906326487
 30
0.0
 10
126.7298975005266
 20
96.27593064128983
 30
0.0
 10
126.7303658737492
 20
96.40435785147127
 30
0.0
 10
126.7306000603604
 20
96.468571456562
 30
0.0
  0
SPLINE
  5
B2
330
1F
100
AcDbEntity
  8
0
  6
Continuous
 62
     7
370
    25
100
AcDbSpline
210
0.0
220
0.0
230
1.0
 70
     8
 71
     3
 72
    13
 73
     9
 74
     0
 42
0.00000001
 43
0.00000001
 40
0.0
 40
0.0
 40
0.0
 40
0.0
 40
0.2886949682914851
 40
0.554553683594315
 40
0.6780091910936104
 40
0.7888922083801199
 40
0.8964194071406489
 40
1.0
 40
1.0
 40
1.0
 40
1.0
 10
126.7306000603604
 20
96.468571456562
 30
0.0
 10
127.0023252509366
 20
96.42994130268401
 30
0.0
 10
127.5242817167911
 20
96.35573670446176
 30
0.0
 10
128.1218571248943
 20
96.27267398493315
 30
0.0
 10
128.4857113050739
 20
96.22369305432454
 30
0.0
 10
128.6822587966396
 20
96.19767609455305
 30
0.0
 10
128.8085420857457
 20
96.1823172842088
 30
0.0
 10
128.8233305877168
 20
96.18187630052135
 30
0.0
 10
128.8305866050808
 20
96.18165993071597
 30
0.0
  0
SPLINE
  5
B3
330
1F
100
AcDbEntity
  8
0
  6
Continuous
 62
     7
370
    25
100
AcDbSpline
210
0.0
220
0.0
230
1.0
 70
     8
 71
     3
 72
    11
 73
     7
 74
     0
 42
0.00000001
 43
0.00000001
 40
0.0
 40
0.0
 40
0.0
 40
0.0
 40
0.2500000000000007
 40
0.5000000000000022
 40
0.7500000000000036
 40
1.0
 40
1.0
 40
1.0
 40
1.0
 10
128.8305866050808
 20
96.18165993071595
 30
0.0
 10
128.855846543285
 20
96.15228226088418
 30
0.0
 10
128.9063664196933
 20
96.09352692122064
 30
0.0
 10
129.0052250288937
 20
96.03093677834165
 30
0.0
 10
129.1146123087171
 20
95.98940397670873
 30
0.0
 10
129.1919285062929
 20
95.98424127938021
 30
0.0
 10
129.2305866050808
 20
95.98165993071596
 30
0.0
  0
LINE
  5
B4
330
1F
100
AcDbEntity
  8
0
  6
Continuous
 62
     7
370
    25
100
AcDbLine
 10
126.7306000604
 20
96.4685714566
 30
0.0
 11
114.192254657
 21
96.4685714566
 31
0.0
  0
LINE
  5
B5
330
1F
100
AcDbEntity
  8
0
  6
Continuous
 62
     7
370
    25
100
AcDbLine
 10
128.8305866051
 20
96.1816599307
 30
0.0
 11
126.4305866051
 21
99.3816599307
 31
0.0
  0
LINE
  5
B6
330
1F
100
AcDbEntity
  8
0
  6
Continuous
 62
     7
370
    25
100
AcDbLine
 10
124.6070408069
 20
99.2999837945
 30
0.0
 11
126.7306000604
 21
96.4685714566
 31
0.0
  0
ELLIPSE
  5
B7
330
1F
100
AcDbEntity
  8
0
  6
Continuous
 62
     7
370
    25
100
AcDbEllipse
 10
124.6305866051
 20
99.2816599307
 30
0.0
 11
1.560063634884884
 21
0.4198716740992978
 31
0.0
210
0.0
220
0.0
230
1.0
 40
0.0147408623
 41
0.9331929812037206
 42
1.581922327328506
  0
SPLINE
  5
B8
330
1F
100
AcDbEntity
  8
0
  6
Continuous
 62
     7
370
    25
100
AcDbSpline
210
0.0
220
0.0
230
1.0
 70
     8
 71
     3
 72
    11
 73
     7
 74
     0
 42
0.00000001
 43
0.00000001
 40
0.0
 40
0.0
 40
0.0
 40
0.0
 40
0.2307374805226512
 40
0.4903955403005855
 40
0.7438105520730652
 40
0.9999999999999999
 40
0.9999999999999999
 40
0.9999999999999999
 40
0.9999999999999999
 10
125.5542746087158
 20
99.55007592586927
 30
0.0
 10
125.6459066134754
 20
99.56879177627373
 30
0.0
 10
125.840655756012
 20
99.60856931718509
 30
0.0
 10
126.08816332325
 20
99.59124932862647
 30
0.0
 10
126.297972052644
 20
99.52026443630034
 30
0.0
 10
126.3862216021244
 20
99.42802881849663
 30
0.0
 10
126.4305866050808
 20
99.38165993071595
 30
0.0
  0
LINE
  5
B9
330
1F
100
AcDbEntity
  8
0
  6
Continuous
 62
     7
370
    25
100
AcDbLine
 10
111.1238661518
 20
90.5209253532
 30
0.0
 11
89.4963179831
 21
90.5209253532
 31
0.0
  0
LINE
  5
BA
330
1F
100
AcDbEntity
  8
0
  6
Continuous
 62
     7
370
    25
100
AcDbLine
 10
89.4963179831
 20
90.5209253532
 30
0.0
 11
89.7187628942
 21
99.0157537896
 31
0.0
  0
ARC
  5
BB
330
1F
100
AcDbEntity
  8
0
  6
Continuous
 62
     7
370
    25
100
AcDbCircle
 10
90.3303030091
 20
98.4999837945
 30
0.0
 40
0.7999999999999972
100
AcDbArc
 50
90.0
 51
139.8558773282
  0
LINE
  5
BC
330
1F
100
AcDbEntity
  8
0
  6
Continuous
 62
     7
370
    25
100
AcDbLine
 10
90.3303030091
 20
99.2999837945
 30
0.0
 11
124.6070408069
 21
99.2999837945
 31
0.0
  0
SPLINE
  5
BD
330
1F
100
AcDbEntity
  8
0
  6
Continuous
 62
     7
370
    25
100
AcDbSpline
210
0.0
220
0.0
230
1.0
 70
     8
 71
     3
 72
    11
 73
     7
 74
     0
 42
0.00000001
 43
0.00000001
 40
0.0
 40
0.0
 40
0.0
 40
0.0
 40
0.249999999999998
 40
0.4999999999999973
 40
0.7500000000000001
 40
1.0
 40
1.0
 40
1.0
 40
1.0
 10
90.33030300914568
 20
99.29998379453147
 30
0.0
 10
90.33063087040149
 20
99.38988284165848
 30
0.0
 10
90.33128659291312
 20
99.5696809359125
 30
0.0
 10
90.33554556205236
 20
99.79439714514746
 30
0.0
 10
90.3415374177142
 20
99.95115823017694
 30
0.0
 10
90.3462595351252
 20
99.97149269720296
 30
0.0
 10
90.34862059383072
 20
99.98165993071595
 30
0.0
  0
LINE
  5
BE
330
1F
100
AcDbEntity
  8
0
  6
Continuous
 62
     7
370
    25
100
AcDbLine
 10
124.6253583916
 20
99.9816599307
 30
0.0
 11
90.3486205938
 21
99.9816599307
 31
0.0
  0
SPLINE
  5
BF
330
1F
100
AcDbEntity
  8
0
  6
Continuous
 62
     7
370
    25
100
AcDbSpline
210
0.0
220
0.0
230
1.0
 70
     8
 71
     3
 72
    11
 73
     7
 74
     0
 42
0.00000001
 43
0.00000001
 40
0.0
 40
0.0
 40
0.0
 40
0.0
 40
0.2499999999999988
 40
0.5000000000000004
 40
0.7499999999999976
 40
1.0
 40
1.0
 40
1.0
 40
1.0
 10
124.6253583915684
 20
99.98165993071595
 30
0.0
 10
124.6229973328629
 20
99.97149269720296
 30
0.0
 10
124.6182752154518
 20
99.95115823017696
 30
0.0
 10
124.6122833597901
 20
99.79439714514743
 30
0.0
 10
124.6080243906508
 20
99.5696809359125
 30
0.0
 10
124.6073686681391
 20
99.38988284165848
 30
0.0
 10
124.6070408068833
 20
99.29998379453146
 30
0.0
  0
LINE
  5
C0
330
1F
100
AcDbEntity
  8
0
  6
Continuous
 62
     7
370
    25
100
AcDbLine
 10
125.2305866051
 20
99.9816599307
 30
0.0
 11
124.6253583916
 21
99.9816599307
 31
0.0
  0
SPLINE
  5
C1
330
1F
100
AcDbEntity
  8
0
  6
Continuous
 62
     7
370
    25
100
AcDbSpline
210
0.0
220
0.0
230
1.0
 70
     8
 71
     3
 72
    10
 73
     6
 74
     0
 42
0.00000001
 43
0.00000001
 40
0.0
 40
0.0
 40
0.0
 40
0.0
 40
0.2808335173386708
 40
0.5616510917414125
 40
1.0
 40
1.0
 40
1.0
 40
1.0
 10
125.2305866050808
 20
99.98165993071595
 30
0.0
 10
125.2689370540433
 20
99.97408532244803
 30
0.0
 10
125.3456357748108
 20
99.95893653592317
 30
0.0
 10
125.4707901248528
 20
99.82530560286348
 30
0.0
 10
125.5226591912061
 20
99.65430488850527
 30
0.0
 10
125.5542746087158
 20
99.55007592586925
 30
0.0
  0
LINE
  5
C2
330
1F
100
AcDbEntity
  8
0
  6
Continuous
 62
     7
370
    25
100
AcDbLine
 10
89.4963179831
 20
90.5209253532
 30
0.0
 11
89.4533255556
 21
90.4580382683
 31
0.0
  0
ELLIPSE
  5
C3
330
1F
100
AcDbEntity
  8
0
  6
Continuous
 62
     7
370
    25
100
AcDbEllipse
 10
85.2305866051
 20
90.4816599307
 30
0.0
 11
0.5000325503427945
 21
1.499994860148021
 31
0.0
210
0.0
220
0.0
230
1.0
 40
0.0078530307
 41
2.363888000155707
 42
3.144210503885311
  0
SPLINE
  5
C4
330
1F
100
AcDbEntity
  8
0
  6
Continuous
 62
     7
370
    25
100
AcDbSpline
210
0.0
220
0.0
230
1.0
 70
     8
 71
     3
 72
    12
 73
     8
 74
     0
 42
0.00000001
 43
0.00000001
 40
0.0
 40
0.0
 40
0.0
 40
0.0
 40
0.0715202026166142
 40
0.1260836237049476
 40
0.3855387013103047
 40
0.8475626424815554
 40
1.0
 40
1.0
 40
1.0
 40
1.0
 10
85.20515799208025
 20
89.80996788036515
 30
0.0
 10
85.19070385730137
 20
89.80685923250034
 30
0.0
 10
85.16522253001531
 20
89.801378968557
 30
0.0
 10
85.09875080236914
 20
89.76179042313659
 30
0.0
 10
84.99404641523611
 20
89.65535629015432
 30
0.0
 10
84.90721785638978
 20
89.52484927444608
 30
0.0
 10
84.87422128967992
 20
89.43733956048274
 30
0.0
 10
84.86603540482898
 20
89.41562989450019
 30
0.0
  0
ELLIPSE
  5
C5
330
1F
100
AcDbEntity
  8
0
  6
Continuous
 62
     7
370
    25
100
AcDbEllipse
 10
53.3064497645
 20
90.4816599307
 30
0.0
 11
36.17607470647087
 21
0.04043410480178978
 31
0.0
210
0.0
220
0.0
230
1.0
 40
0.0414488012
 41
5.791928562280354
 42
6.243021298617577
  0
ELLIPSE
  5
C6
330
1F
100
AcDbEntity
  8
0
  6
Continuous
 62
     7
370
    25
100
AcDbEllipse
 10
89.5355699502
 20
90.4816599307
 30
0.0
 11
0.03725061189165047
 21
1.499998630535871
 31
0.0
210
0.0
220
0.0
230
1.0
 40
0.0544129722
 41
1.585352277991062
 42
1.587896030767889
  0
LINE
  5
C7
330
1F
100
AcDbEntity
  8
0
  6
Continuous
 62
     7
370
    25
100
AcDbLine
 10
84.7305866051
 20
88.9816599307
 30
0.0
 11
111.163118119
 21
88.9816599307
 31
0.0
  0
SPLINE
  5
C8
330
1F
100
AcDbEntity
  8
0
  6
Continuous
 62
     7
370
    25
100
AcDbSpline
210
0.0
220
0.0
230
1.0
 70
     8
 71
     3
 72
    11
 73
     7
 74
     0
 42
0.00000001
 43
0.00000001
 40
0.0
 40
0.0
 40
0.0
 40
0.0
 40
0.2561894651307314
 40
0.509604493920692
 40
0.769274206655365
 40
1.0
 40
1.0
 40
1.0
 40
1.0
 10
126.4305866050808
 20
99.38165993071595
 30
0.0
 10
126.354990472787
 20
99.46967029570439
 30
0.0
 10
126.2046168861123
 20
99.644737906259
 30
0.0
 10
125.905404100157
 20
99.83492547596057
 30
0.0
 10
125.5778843652703
 20
99.95892427668623
 30
0.0
 10
125.3417059844564
 20
99.97438556256542
 30
0.0
 10
125.2305866050808
 20
99.98165993071595
 30
0.0
  0
ARC
  5
C9
330
1F
100
AcDbEntity
  8
0
  6
Continuous
 62
     7
370
    25
100
AcDbCircle
 10
93.9293248271
 20
90.4866639786
 30
0.0
 40
8.750371682090107
100
AcDbArc
 50
182.878079786
 51
184.4353064954
  0
ELLIPSE
  5
CA
330
1F
100
AcDbEntity
  8
0
  6
Continuous
 62
     7
370
    25
100
AcDbEllipse
 10
53.2795794056
 20
90.4950951102
 30
0.0
 11
36.18915847374971
 21
0.02692057091444156
 31
0.0
210
0.0
220
0.0
230
1.0
 40
0.0276225703
 41
5.791964074121238
 42
6.254836299513471
  0
SPLINE
  5
CB
330
1F
100
AcDbEntity
  8
0
  6
Continuous
 62
     7
370
    25
100
AcDbSpline
210
0.0
220
0.0
230
1.0
 70
     8
 71
     3
 72
     9
 73
     5
 74
     0
 42
0.00000001
 43
0.00000001
 40
0.0
 40
0.0
 40
0.0
 40
0.0
 40
0.8673350121727758
 40
1.0
 40
1.0
 40
1.0
 40
1.0
 10
89.45421792875644
 20
90.49366992657852
 30
0.0
 10
89.45398054312656
 20
90.48447150320331
 30
0.0
 10
89.45370684769567
 20
90.47386611630425
 30
0.0
 10
89.45345096118703
 20
90.46326049170287
 30
0.0
 10
89.4534170140065
 20
90.46185349664421
 30
0.0
  0
LINE
  5
CC
330
1F
100
AcDbEntity
  8
0
  6
Continuous
 62
     7
370
    25
100
AcDbLine
 10
89.7035176701
 20
98.9744701653
 30
0.0
 11
89.6766473112
 21
98.9879053448
 31
0.0
  0
LINE
  5
CD
330
1F
100
AcDbEntity
  8
0
  6
Continuous
 62
     7
370
    25
100
AcDbLine
 10
89.7035176701
 20
98.9744701653
 30
0.0
 11
89.4815896639
 21
90.4993815346
 31
0.0
  0
LINE
  5
CE
330
1F
100
AcDbEntity
  8
0
  6
Continuous
 62
     7
370
    25
100
AcDbLine
 10
89.6766473112
 20
98.9879053448
 30
0.0
 11
89.4542179288
 21
90.4936699266
 31
0.0
  0
ARC
  5
CF
330
1F
100
AcDbEntity
  8
0
  6
Continuous
 62
     7
370
    25
100
AcDbCircle
 10
90.3110020914
 20
98.5004691819
 30
0.0
 40
0.8000000000000038
100
AcDbArc
 50
142.4614409777
 51
153.4349488229
  0
LINE
  5
D0
330
1F
100
AcDbEntity
  8
0
  6
Continuous
 62
     7
370
    25
100
AcDbLine
 10
85.1899905144
 20
90.0473004099
 30
0.0
 11
89.5954603386
 21
98.8582400583
 31
0.0
  0
SPLINE
  5
D1
330
1F
100
AcDbEntity
  8
0
  6
Continuous
 62
     7
370
    25
100
AcDbSpline
210
0.0
220
0.0
230
1.0
 70
     8
 71
     3
 72
    12
 73
     8
 74
     0
 42
0.00000001
 43
0.00000001
 40
0.0
 40
0.0
 40
0.0
 40
0.0
 40
0.139683458618249
 40
0.3831896274038307
 40
0.55131692930133
 40
0.8194729461607051
 40
0.9999999999999999
 40
0.9999999999999999
 40
0.9999999999999999
 40
0.9999999999999999
 10
84.42802966417563
 20
89.99458003765542
 30
0.0
 10
84.43827104492189
 20
90.00789241131636
 30
0.0
 10
84.46636593111022
 20
90.04441186432433
 30
0.0
 10
84.573516292465
 20
90.08208392491571
 30
0.0
 10
84.753853379878
 20
90.1064512456772
 30
0.0
 10
84.96230952444697
 20
90.10533421091324
 30
0.0
 10
85.1246664251509
 20
90.06395092253568
 30
0.0
 10
85.1899905143993
 20
90.04730040992027
 30
0.0
  0
LWPOLYLINE
  5
D2
330
1F
100
AcDbEntity
  8
0
  6
Continuous
 62
     7
370
    25
100
AcDbPolyline
 90
        9
 70
   128
 43
0.0
 10
84.4280296642
 20
89.9945800377
 10
84.4051791744
 20
89.91824956
 10
84.4080843004
 20
89.8338495608
 10
84.4365858654
 20
89.7460044602
 10
84.4891222199
 20
89.6595274419
 10
84.5628148071
 20
89.5791567296
 10
84.6536258839
 20
89.5092959722
 10
84.7565797561
 20
89.4537729602
 10
84.8660354048
 20
89.4156298945
  0
SPLINE
  5
D3
330
1F
100
AcDbEntity
  8
0
  6
Continuous
 62
     7
370
    25
100
AcDbSpline
210
0.0
220
0.0
230
1.0
 70
    24
 71
     3
 72
    11
 73
     7
 74
     0
 42
0.00000001
 43
0.00000001
 40
0.0
 40
0.0
 40
0.0
 40
0.0
 40
0.2499999999999991
 40
0.4999999999999979
 40
0.7499999999999996
 40
1.0
 40
1.0
 40
1.0
 40
1.0
 10
89.59546033860387
 20
98.85824005832939
 30
0.0
 10
89.5172252302716
 20
98.89735761249551
 30
0.0
 10
89.36075501360706
 20
98.97559272082779
 30
0.0
 10
89.1674288621906
 20
99.07225579653601
 30
0.0
 10
89.03305242991165
 20
99.1394440126755
 30
0.0
 10
89.01567068152444
 20
99.1481348868691
 30
0.0
 10
89.00697980733084
 20
99.1524803239659
 30
0.0
  0
LINE
  5
D4
330
1F
100
AcDbEntity
  8
0
  6
Continuous
 62
     7
370
    25
100
AcDbLine
 10
89.0069798073
 20
99.152480324
 30
0.0
 11
84.4280296642
 21
89.9945800377
 31
0.0
  0
LINE
  5
D5
330
1F
100
AcDbEntity
  8
0
  6
Continuous
 62
     7
370
    25
100
AcDbLine
 10
89.5841954502
 20
99.1263724246
 30
0.0
 11
89.2019828784
 21
99.4487286716
 31
0.0
  0
SPLINE
  5
D6
330
1F
100
AcDbEntity
  8
0
  6
Continuous
 62
     7
370
    25
100
AcDbSpline
210
0.0
220
0.0
230
1.0
 70
     8
 71
     3
 72
    12
 73
     8
 74
     0
 42
0.00000001
 43
0.00000001
 40
0.0
 40
0.0
 40
0.0
 40
0.0
 40
0.2198609600791294
 40
0.4397396970008148
 40
0.6583291451397767
 40
0.87912395168436
 40
1.0
 40
1.0
 40
1.0
 40
1.0
 10
89.7187628942398
 20
99.01575378964644
 30
0.0
 10
89.65884783151093
 20
99.06624200577433
 30
0.0
 10
89.53901286162493
 20
99.16722252025129
 30
0.0
 10
89.38227787335039
 20
99.29888551320131
 30
0.0
 10
89.26570954956425
 20
99.3964468359744
 30
0.0
 10
89.20945285777
 20
99.44310622745111
 30
0.0
 10
89.20393498655372
 20
99.44725937445246
 30
0.0
 10
89.2019828783822
 20
99.44872867155654
 30
0.0
  0
SPLINE
  5
D7
330
1F
100
AcDbEntity
  8
0
  6
Continuous
 62
     7
370
    25
100
AcDbSpline
210
0.0
220
0.0
230
1.0
 70
     8
 71
     3
 72
    12
 73
     8
 74
     0
 42
0.00000001
 43
0.00000001
 40
0.0
 40
0.0
 40
0.0
 40
0.0
 40
0.0006864401058021
 40
0.2840613788817195
 40
0.5703177902163796
 40
0.8469872112136485
 40
1.0
 40
1.0
 40
1.0
 40
1.0
 10
89.6814911295503
 20
99.04507747714408
 30
0.0
 10
89.6814504117932
 20
99.045111771781
 30
0.0
 10
89.66460066463188
 20
99.05930351519234
 30
0.0
 10
89.63537172851868
 20
99.08383579504044
 30
0.0
 10
89.60212568281996
 20
99.1116653797875
 30
0.0
 10
89.58644345971004
 20
99.12466624276024
 30
0.0
 10
89.58486323190404
 20
99.1258590556463
 30
0.0
 10
89.58430050191895
 20
99.12628382451511
 30
0.0
  0
SPLINE
  5
D8
330
1F
100
AcDbEntity
  8
0
  6
Continuous
 62
     7
370
    25
100
AcDbSpline
210
0.0
220
0.0
230
1.0
 70
     8
 71
     3
 72
    12
 73
     8
 74
     0
 42
0.00000001
 43
0.00000001
 40
0.0
 40
0.0
 40
0.0
 40
0.0
 40
0.2225634137435274
 40
0.446206317369568
 40
0.6680851268158019
 40
0.8917990985569294
 40
1.0
 40
1.0
 40
1.0
 40
1.0
 10
89.15920538096233
 20
99.39560273603654
 30
0.0
 10
89.16479194706484
 20
99.39017566342284
 30
0.0
 10
89.1759921755544
 20
99.37929519549539
 30
0.0
 10
89.27004295324147
 20
99.30400176447509
 30
0.0
 10
89.40953401663951
 20
99.19452321972175
 30
0.0
 10
89.55475811647584
 20
99.08180857917529
 30
0.0
 10
89.6466812852059
 20
99.01099112173108
 30
0.0
 10
89.67664731120733
 20
98.98790534476706
 30
0.0
  0
LINE
  5
D9
330
1F
100
AcDbEntity
  8
0
  6
Continuous
 62
     7
370
    25
100
AcDbLine
 10
89.5556771186
 20
99.0909551343
 30
0.0
 11
89.159205381
 21
99.395602736
 31
0.0
  0
ARC
  5
DA
330
1F
100
AcDbEntity
  8
0
  6
Continuous
 62
     7
370
    25
100
AcDbCircle
 10
90.3486205938
 20
98.4816599307
 30
0.0
 40
1.500000000000012
100
AcDbArc
 50
90.0
 51
139.8558773282
  0
ARC
  5
DB
330
1F
100
AcDbEntity
  8
0
  6
Continuous
 62
     7
370
    25
100
AcDbCircle
 10
90.3486205938
 20
98.4816599307
 30
0.0
 40
1.500000000000026
100
AcDbArc
 50
142.4614409777
 51
153.4349488229
  0
LINE
  5
DC
330
1F
100
AcDbEntity
  8
0
  6
Continuous
 62
     7
370
    25
100
AcDbLine
 10
84.2833730096
 20
89.7052667285
 30
0.0
 11
84.4280296642
 21
89.9945800377
 31
0.0
  0
ARC
  5
DD
330
1F
100
AcDbEntity
  8
0
  6
Continuous
 62
     7
370
    25
100
AcDbCircle
 10
84.7305866051
 20
89.4816599307
 30
0.0
 40
0.5000000000000023
100
AcDbArc
 50
153.4349488229
 51
270.0
  0
SPLINE
  5
DE
330
1F
100
AcDbEntity
  8
0
  6
Continuous
 62
     7
370
    25
100
AcDbSpline
210
0.0
220
0.0
230
1.0
 70
     8
 71
     3
 72
     9
 73
     5
 74
     0
 42
0.00000001
 43
0.00000001
 40
0.0
 40
0.0
 40
0.0
 40
0.0
 40
0.5600029565045499
 40
1.0
 40
1.0
 40
1.0
 40
1.0
 10
89.2019828783822
 20
99.44872867155654
 30
0.0
 10
89.19383511902907
 20
99.43894220939659
 30
0.0
 10
89.1792856255693
 20
99.4214664763736
 30
0.0
 10
89.16534098262878
 20
99.4035055087078
 30
0.0
 10
89.15920538096233
 20
99.39560273603654
 30
0.0
  0
LINE
  5
DF
330
1F
100
AcDbEntity
  8
0
  6
Continuous
 62
     7
370
    25
100
AcDbLine
 10
131.32452575
 20
89.3697355165
 30
0.0
 11
131.3266658652
 21
89.5932739701
 31
0.0
  0
SPLINE
  5
E0
330
1F
100
AcDbEntity
  8
0
  6
Continuous
 62
     7
370
    25
100
AcDbSpline
210
0.0
220
0.0
230
1.0
 70
     8
 71
     3
 72
    10
 73
     6
 74
     0
 42
0.00000001
 43
0.00000001
 40
0.0
 40
0.0
 40
0.0
 40
0.0
 40
0.3536466237081646
 40
0.7182931081305524
 40
1.0
 40
1.0
 40
1.0
 40
1.0
 10
131.47581371387
 20
87.42346687000172
 30
0.0
 10
131.4383066795608
 20
86.97992921988315
 30
0.0
 10
131.3621259883152
 20
86.07905807926258
 30
0.0
 10
131.4005623909284
 20
84.70104878445134
 30
0.0
 10
131.4635445102614
 20
83.78301475314645
 30
0.0
 10
131.4909946601815
 20
83.38289846525302
 30
0.0
  0
LINE
  5
E1
330
1F
100
AcDbEntity
  8
0
  6
Continuous
 62
     7
370
    25
100
AcDbLine
 10
131.32452575
 20
89.3697355165
 30
0.0
 11
131.4758137139
 21
87.42346687
 31
0.0
  0
LINE
  5
E2
330
1F
100
AcDbEntity
  8
0
  6
Continuous
 62
     7
370
    25
100
AcDbLine
 10
131.5505866051
 20
81.2816599307
 30
0.0
 11
131.6119413979
 21
81.2816599307
 31
0.0
  0
LWPOLYLINE
  5
E3
330
1F
100
AcDbEntity
  8
0
  6
Continuous
 62
     7
370
    25
100
AcDbPolyline
 90
        3
 70
   128
 43
0.0
 10
131.7479539404
 20
79.9319080712
 10
131.7066551682
 20
80.3417092158
 10
131.6119413979
 20
81.2816599307
  0
SPLINE
  5
E4
330
1F
100
AcDbEntity
  8
0
  6
Continuous
 62
     7
370
    25
100
AcDbSpline
210
0.0
220
0.0
230
1.0
 70
     8
 71
     3
 72
    11
 73
     7
 74
     0
 42
0.00000001
 43
0.00000001
 40
0.0
 40
0.0
 40
0.0
 40
0.0
 40
0.2920574028183094
 40
0.5665622171831318
 40
0.8065682389915578
 40
1.0
 40
1.0
 40
1.0
 40
1.0
 10
131.6143809980274
 20
95.48165993071598
 30
0.0
 10
131.6460415343429
 20
95.46482813466727
 30
0.0
 10
131.7074598154036
 20
95.4321761299706
 30
0.0
 10
131.7873721746681
 20
95.17678424292963
 30
0.0
 10
131.8264709883956
 20
94.84106132635496
 30
0.0
 10
131.8110546254661
 20
94.5925596315339
 30
0.0
 10
131.8041747124819
 20
94.48165993070386
 30
0.0
  0
LINE
  5
E5
330
1F
100
AcDbEntity
  8
0
  6
Continuous
 62
     7
370
    25
100
AcDbLine
 10
131.8041747125
 20
94.4816599307
 30
0.0
 11
131.3266658652
 21
89.5932739701
 31
0.0
  0
LINE
  5
E6
330
1F
100
AcDbEntity
  8
0
  6
Continuous
 62
     7
370
    25
100
AcDbLine
 10
132.1719777143
 20
97.4816599307
 30
0.0
 11
147.2891954958
 21
97.4816599307
 31
0.0
  0
LINE
  5
E7
330
1F
100
AcDbEntity
  8
0
  6
Continuous
 62
     7
370
    25
100
AcDbLine
 10
147.278092824
 20
79.4816599307
 30
0.0
 11
132.24962075
 21
79.4816599307
 31
0.0
  0
SPLINE
  5
E8
330
1F
100
AcDbEntity
  8
0
  6
Continuous
 62
     7
370
    25
100
AcDbSpline
210
0.0
220
0.0
230
1.0
 70
     8
 71
     3
 72
    12
 73
     8
 74
     0
 42
0.00000001
 43
0.00000001
 40
0.0
 40
0.0
 40
0.0
 40
0.0
 40
0.2316347876629375
 40
0.46330664808196
 40
0.6939442291381526
 40
0.9227406525226395
 40
1.0
 40
1.0
 40
1.0
 40
1.0
 10
132.2496207499925
 20
79.48165993071596
 30
0.0
 10
132.1925674323437
 20
79.48724939574622
 30
0.0
 10
132.0784516657592
 20
79.49842922039119
 30
0.0
 10
131.9265983352811
 20
79.58575228634686
 30
0.0
 10
131.8124309523972
 20
79.71406246012891
 30
0.0
 10
131.76067662003
 20
79.83874188682672
 30
0.0
 10
131.7505182690429
 20
79.91312989558003
 30
0.0
 10
131.7479539404354
 20
79.93190807120546
 30
0.0
  0
SPLINE
  5
E9
330
1F
100
AcDbEntity
  8
0
  6
Continuous
 62
     7
370
    25
100
AcDbSpline
210
0.0
220
0.0
230
1.0
 70
     8
 71
     3
 72
     9
 73
     5
 74
     0
 42
0.00000001
 43
0.00000001
 40
0.0
 40
0.0
 40
0.0
 40
0.0
 40
0.4474581094010271
 40
1.0
 40
1.0
 40
1.0
 40
1.0
 10
129.7305866050808
 20
85.01397174989305
 30
0.0
 10
130.0042372067591
 20
84.78603880652614
 30
0.0
 10
130.6158041801338
 20
84.27664376243582
 30
0.0
 10
131.1795187474168
 20
83.70097794459565
 30
0.0
 10
131.4909946601815
 20
83.38289846525302
 30
0.0
  0
SPLINE
  5
EA
330
1F
100
AcDbEntity
  8
0
  6
Continuous
 62
     7
370
    25
100
AcDbSpline
210
0.0
220
0.0
230
1.0
 70
     8
 71
     3
 72
     9
 73
     5
 74
     0
 42
0.00000001
 43
0.00000001
 40
0.0
 40
0.0
 40
0.0
 40
0.0
 40
0.7210175706402088
 40
0.9999999999999999
 40
0.9999999999999999
 40
0.9999999999999999
 40
0.9999999999999999
 10
130.0745150607783
 20
89.17946006695084
 30
0.0
 10
130.005581841782
 20
89.24271087986013
 30
0.0
 10
129.9099763783326
 20
89.33043525092246
 30
0.0
 10
129.7697166146847
 20
89.37524443726642
 30
0.0
 10
129.7305866050808
 20
89.38774541293029
 30
0.0
  0
ARC
  5
EB
330
1F
100
AcDbEntity
  8
0
  6
Continuous
 62
     7
370
    25
100
AcDbCircle
 10
123.0083602662
 20
82.103482649
 30
0.0
 40
10.00000000000002
100
AcDbArc
 50
32.1405798582
 51
45.0397956095
  0
LINE
  5
EC
330
1F
100
AcDbEntity
  8
0
  6
Continuous
 62
     7
370
    25
100
AcDbLine
 10
130.0745150608
 20
94.4816599307
 30
0.0
 11
130.0745150608
 21
89.179460067
 31
0.0
  0
LINE
  5
ED
330
1F
100
AcDbEntity
  8
0
  6
Continuous
 62
     7
370
    25
100
AcDbLine
 10
131.8041747125
 20
94.4816599307
 30
0.0
 11
130.0745150608
 21
94.4816599307
 31
0.0
  0
LINE
  5
EE
330
1F
100
AcDbEntity
  8
0
  6
Continuous
 62
     7
370
    25
100
AcDbLine
 10
129.7305866051
 20
95.4816599307
 30
0.0
 11
131.614380998
 21
95.4816599307
 31
0.0
  0
ARC
  5
EF
330
1F
100
AcDbEntity
  8
0
  6
Continuous
 62
     7
370
    25
100
AcDbCircle
 10
92.1180459307
 20
102.1910051519
 30
0.0
 40
4.021945305542523
100
AcDbArc
 50
230.4243196696
 51
233.1058614851
  0
LINE
  5
F0
330
1F
100
AcDbEntity
  8
0
  6
Continuous
 62
     7
370
    25
100
AcDbLine
 10
123.9805866051
 20
72.2816599307
 30
0.0
 11
123.9805866051
 21
48.2816599307
 31
0.0
  0
LINE
  5
F1
330
1F
100
AcDbEntity
  8
0
  6
Continuous
 62
     7
370
    25
100
AcDbLine
 10
123.7305866051
 20
48.5316599307
 30
0.0
 11
123.7305866051
 21
72.0316599307
 31
0.0
  0
LINE
  5
F2
330
1F
100
AcDbEntity
  8
0
  6
Continuous
 62
     7
370
    25
100
AcDbLine
 10
112.7305866051
 20
68.6126599307
 30
0.0
 11
112.7305866051
 21
51.9506599307
 31
0.0
  0
LINE
  5
F3
330
1F
100
AcDbEntity
  8
0
  6
Continuous
 62
     7
370
    25
100
AcDbLine
 10
120.2305866051
 20
51.9506599307
 30
0.0
 11
120.2305866051
 21
68.6126599307
 31
0.0
  0
LINE
  5
F4
330
1F
100
AcDbEntity
  8
0
  6
Continuous
 62
     7
370
    25
100
AcDbLine
 10
121.2305866051
 20
67.6126599307
 30
0.0
 11
121.2305866051
 21
52.9506599307
 31
0.0
  0
LINE
  5
F5
330
1F
100
AcDbEntity
  8
0
  6
Continuous
 62
     7
370
    25
100
AcDbLine
 10
111.7305866051
 20
52.9506599307
 30
0.0
 11
111.7305866051
 21
67.6126599307
 31
0.0
  0
LINE
  5
F6
330
1F
100
AcDbEntity
  8
0
  6
Continuous
 62
     7
370
    25
100
AcDbLine
 10
151.1428733648
 20
69.0173625355
 30
0.0
 11
128.3182998454
 21
69.0173625355
 31
0.0
  0
LINE
  5
F7
330
1F
100
AcDbEntity
  8
0
  6
Continuous
 62
     7
370
    25
100
AcDbLine
 10
128.3182998454
 20
69.0173625355
 30
0.0
 11
128.3182998454
 21
72.7816599307
 31
0.0
  0
LINE
  5
F8
330
1F
100
AcDbEntity
  8
0
  6
Continuous
 62
     7
370
    25
100
AcDbLine
 10
151.1428733648
 20
72.7816599307
 30
0.0
 11
128.3182998454
 21
72.7816599307
 31
0.0
  0
LINE
  5
F9
330
1F
100
AcDbEntity
  8
0
  6
Continuous
 62
     7
370
    25
100
AcDbLine
 10
151.1428733648
 20
72.7816599307
 30
0.0
 11
151.1428733648
 21
69.0173625355
 31
0.0
  0
SPLINE
  5
FA
330
1F
100
AcDbEntity
  8
0
  6
Continuous
 62
     7
370
    25
100
AcDbSpline
210
0.0
220
0.0
230
1.0
 70
     8
 71
     3
 72
    10
 73
     6
 74
     0
 42
0.00000001
 43
0.00000001
 40
0.0
 40
0.0
 40
0.0
 40
0.0
 40
0.5
 40
0.5
 40
1.0
 40
1.0
 40
1.0
 40
1.0
 10
151.1428733648094
 20
51.54595732588789
 30
0.0
 10
151.6099162034699
 20
52.95813502098446
 30
0.0
 10
152.0122653322358
 20
54.40477334599719
 30
0.0
 10
152.5729843565074
 20
57.31779269134285
 30
0.0
 10
152.7305866050808
 20
58.78978658274586
 30
0.0
 10
152.7305866050808
 20
60.28165993071595
 30
0.0
  0
LINE
  5
FB
330
1F
100
AcDbEntity
  8
0
  6
Continuous
 62
     7
370
    25
100
AcDbLine
 10
151.1428733648
 20
51.5459573259
 30
0.0
 11
128.3182998454
 21
51.5459573259
 31
0.0
  0
SPLINE
  5
FC
330
1F
100
AcDbEntity
  8
0
  6
Continuous
 62
     7
370
    25
100
AcDbSpline
210
0.0
220
0.0
230
1.0
 70
     8
 71
     3
 72
    10
 73
     6
 74
     0
 42
0.00000001
 43
0.00000001
 40
0.0
 40
0.0
 40
0.0
 40
0.0
 40
0.5
 40
0.5
 40
1.0
 40
1.0
 40
1.0
 40
1.0
 10
128.3182998453523
 20
51.54595732588789
 30
0.0
 10
127.8512969464585
 20
52.95801425679966
 30
0.0
 10
127.4488931993319
 20
54.40479718067752
 30
0.0
 10
126.8881346287401
 20
57.3181268271527
 30
0.0
 10
126.7305866050808
 20
58.79008528300868
 30
0.0
 10
126.7305866050808
 20
60.28165993071595
 30
0.0
  0
SPLINE
  5
FD
330
1F
100
AcDbEntity
  8
0
  6
Continuous
 62
     7
370
    25
100
AcDbSpline
210
0.0
220
0.0
230
1.0
 70
     8
 71
     3
 72
    12
 73
     8
 74
     0
 42
0.00000001
 43
0.00000001
 40
0.0
 40
0.0
 40
0.0
 40
0.0
 40
0.2500000000000001
 40
0.2500000000000001
 40
0.5000000000000001
 40
0.5000000000000001
 40
1.0
 40
1.0
 40
1.0
 40
1.0
 10
126.7305866050808
 20
60.28165993071595
 30
0.0
 10
126.7305866050808
 20
61.02700614299027
 30
0.0
 10
126.7699796904504
 20
61.7788329928593
 30
0.0
 10
126.9206110932158
 20
63.25953345403457
 30
0.0
 10
127.0314915223876
 20
63.9925050586366
 30
0.0
 10
127.452678928352
 20
66.17304917959258
 30
0.0
 10
127.8503666738317
 20
67.60249277860181
 30
0.0
 10
128.3182998453523
 20
69.01736253554402
 30
0.0
  0
SPLINE
  5
FE
330
1F
100
AcDbEntity
  8
0
  6
Continuous
 62
     7
370
    25
100
AcDbSpline
210
0.0
220
0.0
230
1.0
 70
     8
 71
     3
 72
    12
 73
     8
 74
     0
 42
0.00000001
 43
0.00000001
 40
0.0
 40
0.0
 40
0.0
 40
0.0
 40
0.2499999999999999
 40
0.2499999999999999
 40
0.4999999999999999
 40
0.4999999999999999
 40
1.0
 40
1.0
 40
1.0
 40
1.0
 10
152.7305866050808
 20
60.28165993071595
 30
0.0
 10
152.7305866050808
 20
61.02722115067463
 30
0.0
 10
152.6911776397014
 20
61.77902025273967
 30
0.0
 10
152.5405582183685
 20
63.25954061275531
 30
0.0
 10
152.4296890025777
 20
63.99245555320844
 30
0.0
 10
152.0085260054055
 20
66.1729082117312
 30
0.0
 10
151.6108392481819
 20
67.60239386915732
 30
0.0
 10
151.1428733648094
 20
69.01736253554402
 30
0.0
  0
LINE
  5
FF
330
1F
100
AcDbEntity
  8
0
  6
Continuous
 62
     7
370
    25
100
AcDbLine
 10
151.1428733648
 20
47.7816599307
 30
0.0
 11
128.3182998454
 21
47.7816599307
 31
0.0
  0
LINE
  5
100
330
1F
100
AcDbEntity
  8
0
  6
Continuous
 62
     7
370
    25
100
AcDbLine
 10
128.3182998454
 20
47.7816599307
 30
0.0
 11
128.3182998454
 21
51.5459573259
 31
0.0
  0
LINE
  5
101
330
1F
100
AcDbEntity
  8
0
  6
Continuous
 62
     7
370
    25
100
AcDbLine
 10
151.1428733648
 20
51.5459573259
 30
0.0
 11
151.1428733648
 21
47.7816599307
 31
0.0
  0
SPLINE
  5
102
330
1F
100
AcDbEntity
  8
0
  6
Continuous
 62
     7
370
    25
100
AcDbSpline
210
0.0
220
0.0
230
1.0
 70
    24
 71
     3
 72
    12
 73
     8
 74
     0
 42
0.00000001
 43
0.00000001
 40
0.0
 40
0.0
 40
0.0
 40
0.0
 40
0.2500000000000001
 40
0.2500000000000001
 40
0.5000000000000001
 40
0.5000000000000001
 40
1.0
 40
1.0
 40
1.0
 40
1.0
 10
126.7305866050808
 20
47.78165993071595
 30
0.0
 10
126.7305866050808
 20
47.78165993071595
 30
0.0
 10
126.7699796904505
 20
47.78165993071595
 30
0.0
 10
126.9206110932158
 20
47.78165993071595
 30
0.0
 10
127.0314915223876
 20
47.78165993071594
 30
0.0
 10
127.4526789283519
 20
47.78165993071594
 30
0.0
 10
127.8503666738316
 20
47.78165993071594
 30
0.0
 10
128.3182998453523
 20
47.78165993071594
 30
0.0
  0
LINE
  5
103
330
1F
100
AcDbEntity
  8
0
  6
Continuous
 62
     7
370
    25
100
AcDbLine
 10
126.7305866051
 20
47.7816599307
 30
0.0
 11
126.7305866051
 21
60.2816599307
 31
0.0
  0
LINE
  5
104
330
1F
100
AcDbEntity
  8
0
  6
Continuous
 62
     7
370
    25
100
AcDbLine
 10
152.7305866051
 20
60.2816599307
 30
0.0
 11
152.7305866051
 21
47.7816599307
 31
0.0
  0
SPLINE
  5
105
330
1F
100
AcDbEntity
  8
0
  6
Continuous
 62
     7
370
    25
100
AcDbSpline
210
0.0
220
0.0
230
1.0
 70
    24
 71
     3
 72
    12
 73
     8
 74
     0
 42
0.00000001
 43
0.00000001
 40
0.0
 40
0.0
 40
0.0
 40
0.0
 40
0.25
 40
0.25
 40
0.5
 40
0.5
 40
1.0
 40
1.0
 40
1.0
 40
1.0
 10
152.7305866050808
 20
47.78165993071595
 30
0.0
 10
152.7305866050808
 20
47.78165993071595
 30
0.0
 10
152.6911776397013
 20
47.78165993071595
 30
0.0
 10
152.5405582183685
 20
47.78165993071595
 30
0.0
 10
152.4296890025777
 20
47.78165993071595
 30
0.0
 10
152.0085260054058
 20
47.78165993071595
 30
0.0
 10
151.6108392481822
 20
47.78165993071594
 30
0.0
 10
151.1428733648094
 20
47.78165993071594
 30
0.0
  0
LINE
  5
106
330
1F
100
AcDbEntity
  8
0
  6
Continuous
 62
     7
370
    25
100
AcDbLine
 10
126.7305866051
 20
60.2816599307
 30
0.0
 11
126.7305866051
 21
72.7816599307
 31
0.0
  0
SPLINE
  5
107
330
1F
100
AcDbEntity
  8
0
  6
Continuous
 62
     7
370
    25
100
AcDbSpline
210
0.0
220
0.0
230
1.0
 70
    24
 71
     3
 72
    12
 73
     8
 74
     0
 42
0.00000001
 43
0.00000001
 40
0.0
 40
0.0
 40
0.0
 40
0.0
 40
0.2500000000000001
 40
0.2500000000000001
 40
0.5000000000000001
 40
0.5000000000000001
 40
1.0
 40
1.0
 40
1.0
 40
1.0
 10
126.7305866050808
 20
72.78165993071595
 30
0.0
 10
126.7305866050808
 20
72.78165993071595
 30
0.0
 10
126.7699796904504
 20
72.78165993071595
 30
0.0
 10
126.9206110932158
 20
72.78165993071595
 30
0.0
 10
127.0314915223876
 20
72.78165993071595
 30
0.0
 10
127.452678928352
 20
72.78165993071595
 30
0.0
 10
127.8503666738317
 20
72.78165993071595
 30
0.0
 10
128.3182998453523
 20
72.78165993071595
 30
0.0
  0
SPLINE
  5
108
330
1F
100
AcDbEntity
  8
0
  6
Continuous
 62
     7
370
    25
100
AcDbSpline
210
0.0
220
0.0
230
1.0
 70
    24
 71
     3
 72
    12
 73
     8
 74
     0
 42
0.00000001
 43
0.00000001
 40
0.0
 40
0.0
 40
0.0
 40
0.0
 40
0.2500000000000001
 40
0.2500000000000001
 40
0.5000000000000001
 40
0.5000000000000001
 40
1.0
 40
1.0
 40
1.0
 40
1.0
 10
152.7305866050808
 20
72.78165993071595
 30
0.0
 10
152.7305866050808
 20
72.78165993071595
 30
0.0
 10
152.6911776397014
 20
72.78165993071595
 30
0.0
 10
152.5405582183685
 20
72.78165993071595
 30
0.0
 10
152.4296890025777
 20
72.78165993071595
 30
0.0
 10
152.0085260054055
 20
72.78165993071595
 30
0.0
 10
151.6108392481819
 20
72.78165993071595
 30
0.0
 10
151.1428733648094
 20
72.78165993071595
 30
0.0
  0
LINE
  5
109
330
1F
100
AcDbEntity
  8
0
  6
Continuous
 62
     7
370
    25
100
AcDbLine
 10
152.7305866051
 20
72.7816599307
 30
0.0
 11
152.7305866051
 21
60.2816599307
 31
0.0
  0
LINE
  5
10A
330
1F
100
AcDbEntity
  8
0
  6
Continuous
 62
     7
370
    25
100
AcDbLine
 10
155.2305866051
 20
72.0316599307
 30
0.0
 11
155.2305866051
 21
48.5316599307
 31
0.0
  0
LINE
  5
10B
330
1F
100
AcDbEntity
  8
0
  6
Continuous
 62
     7
370
    25
100
AcDbLine
 10
154.9805866051
 20
48.2816599307
 30
0.0
 11
154.9805866051
 21
72.2816599307
 31
0.0
  0
LINE
  5
10C
330
1F
100
AcDbEntity
  8
0
  6
Continuous
 62
     7
370
    25
100
AcDbLine
 10
165.1366487982
 20
52.0727243743
 30
0.0
 11
165.1366487982
 21
68.4905954872
 31
0.0
  0
LINE
  5
10D
330
1F
100
AcDbEntity
  8
0
  6
Continuous
 62
     7
370
    25
100
AcDbLine
 10
139.7305866051
 20
78.9816599307
 30
0.0
 11
147.4805866051
 21
78.9816599307
 31
0.0
  0
LINE
  5
10E
330
1F
100
AcDbEntity
  8
0
  6
Continuous
 62
     7
370
    25
100
AcDbLine
 10
131.9805866051
 20
78.9816599307
 30
0.0
 11
139.7305866051
 21
78.9816599307
 31
0.0
  0
LINE
  5
10F
330
1F
100
AcDbEntity
  8
0
  6
Continuous
 62
     7
370
    25
100
AcDbLine
 10
139.7305866051
 20
78.4816599307
 30
0.0
 11
131.4805866051
 21
78.4816599307
 31
0.0
  0
LINE
  5
110
330
1F
100
AcDbEntity
  8
0
  6
Continuous
 62
     7
370
    25
100
AcDbLine
 10
147.9805866051
 20
78.4816599307
 30
0.0
 11
139.7305866051
 21
78.4816599307
 31
0.0
  0
LINE
  5
111
330
1F
100
AcDbEntity
  8
0
  6
Continuous
 62
     7
370
    25
100
AcDbLine
 10
167.2305866051
 20
67.2816599307
 30
0.0
 11
167.2305866051
 21
53.2816599307
 31
0.0
  0
LINE
  5
112
330
1F
100
AcDbEntity
  8
0
  6
Continuous
 62
     7
370
    25
100
AcDbLine
 10
139.6677037403
 20
97.5696022661
 30
0.0
 11
139.6677037403
 21
97.581552828
 31
0.0
  0
LINE
  5
113
330
1F
100
AcDbEntity
  8
0
  6
Continuous
 62
     7
370
    25
100
AcDbLine
 10
139.7934694699
 20
97.5696022661
 30
0.0
 11
139.7934694699
 21
97.581552828
 31
0.0
  0
LINE
  5
114
330
1F
100
AcDbEntity
  8
0
  6
Continuous
 62
     7
370
    25
100
AcDbLine
 10
131.3266658652
 20
89.5932739701
 30
0.0
 11
148.7166348502
 21
89.5932739701
 31
0.0
  0
LINE
  5
115
330
1F
100
AcDbEntity
  8
0
  6
Continuous
 62
     7
370
    25
100
AcDbLine
 10
148.7193941637
 20
89.3697355165
 30
0.0
 11
131.32452575
 21
89.3697355165
 31
0.0
  0
LINE
  5
116
330
1F
100
AcDbEntity
  8
0
  6
Continuous
 62
     7
370
    25
100
AcDbLine
 10
131.7479539404
 20
79.9319080712
 30
0.0
 11
147.7756114191
 21
79.9319080712
 31
0.0
  0
LINE
  5
117
330
1F
100
AcDbEntity
  8
0
  6
Continuous
 62
     7
370
    25
100
AcDbLine
 10
147.7853344342
 20
97.043677298
 30
0.0
 11
131.675838776
 21
97.043677298
 31
0.0
  0
LINE
  5
118
330
1F
100
AcDbEntity
  8
0
  6
Continuous
 62
     7
370
    25
100
AcDbLine
 10
129.7305866051
 20
94.4816599307
 30
0.0
 11
130.0745150608
 21
94.4816599307
 31
0.0
  0
ARC
  5
119
330
1F
100
AcDbEntity
  8
0
  6
Continuous
 62
     7
370
    25
100
AcDbCircle
 10
128.9686413419
 20
94.5363245138
 30
0.0
 40
1.107223960532893
100
AcDbArc
 50
357.1701084939
 51
46.5155082001
  0
LINE
  5
11A
330
1F
100
AcDbEntity
  8
0
  6
Continuous
 62
     7
370
    25
100
AcDbLine
 10
89.4815896639
 20
90.4993815346
 30
0.0
 11
89.7035171003
 21
98.9744484062
 31
0.0
  0
LINE
  5
11B
330
1F
100
AcDbEntity
  8
0
  6
Continuous
 62
     7
370
    25
100
AcDbLine
 10
131.4805866051
 20
73.0316599307
 30
0.0
 11
147.9805866051
 21
73.0316599307
 31
0.0
  0
LINE
  5
11C
330
1F
100
AcDbEntity
  8
0
  6
Continuous
 62
     7
370
    18
100
AcDbLine
 10
155.7305866051
 20
52.4472849307
 30
0.0
 11
166.3607829686
 21
52.7794785671
 31
0.0
  0
LINE
  5
11D
330
1F
100
AcDbEntity
  8
0
  6
Continuous
 62
     7
370
    18
100
AcDbLine
 10
166.3607829686
 20
67.7838412944
 30
0.0
 11
155.7305866051
 21
68.1160349307
 31
0.0
  0
LINE
  5
11E
330
1F
100
AcDbEntity
  8
0
  6
Continuous
 62
     7
370
    18
100
AcDbLine
 10
121.0865866051
 20
67.7566599307
 30
0.0
 11
111.8745866051
 21
67.7566599307
 31
0.0
  0
LINE
  5
11F
330
1F
100
AcDbEntity
  8
0
  6
Continuous
 62
     7
370
    18
100
AcDbLine
 10
111.8745866051
 20
52.8066599307
 30
0.0
 11
121.0865866051
 21
52.8066599307
 31
0.0
  0
LINE
  5
120
330
1F
100
AcDbEntity
  8
0
  6
Continuous
 62
     7
370
    18
100
AcDbLine
 10
121.0865866051
 20
52.807524394
 30
0.0
 11
121.0865866051
 21
52.8066599307
 31
0.0
  0
SPLINE
  5
121
330
1F
100
AcDbEntity
  8
0
  6
Continuous
 62
     7
370
     0
100
AcDbSpline
210
0.0
220
0.0
230
1.0
 70
     8
 71
     3
 72
    34
 73
    30
 74
     0
 42
0.00000001
 43
0.00000001
 40
0.0
 40
0.0
 40
0.0
 40
0.0
 40
0.0141021543374637
 40
0.0520213022475614
 40
0.089940450157659
 40
0.1278595980677568
 40
0.1657787459778546
 40
0.2036978938879521
 40
0.2416170417980502
 40
0.2795361897081478
 40
0.3174553376182453
 40
0.355374485528343
 40
0.3932936334384409
 40
0.4312127813485386
 40
0.4691319292586364
 40
0.507051077168734
 40
0.544970225078832
 40
0.5828893729889295
 40
0.6208085208990272
 40
0.658727668809125
 40
0.6966468167192227
 40
0.7345659646293204
 40
0.7724851125394182
 40
0.8104042604495161
 40
0.8483234083596136
 40
0.8862425562697114
 40
0.9241617041798091
 40
0.9620808520899067
 40
1.0
 40
1.0
 40
1.0
 40
1.0
 10
121.0865378379822
 20
67.75665993071595
 30
0.0
 10
121.0865866050808
 20
67.74940331246754
 30
0.0
 10
121.0865866050808
 20
67.65804142856146
 30
0.0
 10
121.0865866050808
 20
67.46313131765332
 30
0.0
 10
121.0865866050808
 20
67.16740909045198
 30
0.0
 10
121.0865866050808
 20
66.77502603879624
 30
0.0
 10
121.0865866050808
 20
66.29149036061713
 30
0.0
 10
121.0865866050808
 20
65.72358983691295
 30
0.0
 10
121.0865866050808
 20
65.07929654618326
 30
0.0
 10
121.0865866050808
 20
64.36765495392156
 30
0.0
 10
121.0865866050808
 20
63.59865494814561
 30
0.0
 10
121.0865866050808
 20
62.78309160326769
 30
0.0
 10
121.0865866050808
 20
61.93241364091299
 30
0.0
 10
121.0865866050808
 20
61.05856271496388
 30
0.0
 10
121.0865866050808
 20
60.17380577691585
 30
0.0
 10
121.0865866050808
 20
59.29056287476794
 30
0.0
 10
121.0865866050808
 20
58.421232802774
 30
0.0
 10
121.0865866050808
 20
57.57801904954982
 30
0.0
 10
121.0865866050808
 20
56.77275848784329
 30
0.0
 10
121.0865866050808
 20
56.01675521078789
 30
0.0
 10
121.0865866050808
 20
55.32062184721383
 30
0.0
 10
121.0865866050808
 20
54.69413058360254
 30
0.0
 10
121.0865866050808
 20
54.14607598400934
 30
0.0
 10
121.0865866050808
 20
53.68415153366203
 30
0.0
 10
121.0865866050808
 20
53.3148416392926
 30
0.0
 10
121.0865866050808
 20
53.0433306022807
 30
0.0
 10
121.0865866050808
 20
52.87342984242648
 30
0.0
 10
121.0865866050808
 20
52.8075243939712
 30
0.0
 10
121.0865866050808
 20
52.82213629456757
 30
0.0
 10
121.0865866050808
 20
52.8075243939712
 30
0.0
  0
LINE
  5
122
330
1F
100
AcDbEntity
  8
0
  6
CENTERX2
 62
     7
370
    18
100
AcDbLine
 10
139.7305866051
 20
45.0101853885
 30
0.0
 11
139.7305866051
 21
99.1054076331
 31
0.0
  0
LINE
  5
123
330
1F
100
AcDbEntity
  8
0
  6
CENTERX2
 62
     7
370
    18
100
AcDbLine
 10
168.6435223049
 20
60.2816599307
 30
0.0
 11
109.7634646775
 21
60.2816599307
 31
0.0
  0
SPLINE
  5
124
330
1F
100
AcDbEntity
  8
0
  6
Continuous
 62
     7
370
    25
100
AcDbSpline
210
0.0
220
0.0
230
1.0
 70
     8
 71
     3
 72
     9
 73
     5
 74
     0
 42
0.00000001
 43
0.00000001
 40
0.0
 40
0.0
 40
0.0
 40
0.0
 40
0.4993165458323629
 40
1.0
 40
1.0
 40
1.0
 40
1.0
 10
211.9797957361984
 20
99.96922735946767
 30
0.0
 10
211.9566651185511
 20
99.9725783951153
 30
0.0
 10
211.910340561834
 20
99.97928964006724
 30
0.0
 10
211.8637811687057
 20
99.97496247076157
 30
0.0
 10
211.8404696509303
 20
99.97279592868684
 30
0.0
  0
SPLINE
  5
125
330
1F
100
AcDbEntity
  8
0
  6
Continuous
 62
     7
370
    25
100
AcDbSpline
210
0.0
220
0.0
230
1.0
 70
     8
 71
     3
 72
     9
 73
     5
 74
     0
 42
0.00000001
 43
0.00000001
 40
0.0
 40
0.0
 40
0.0
 40
0.0
 40
0.5006834545219033
 40
1.0
 40
1.0
 40
1.0
 40
1.0
 10
210.1005361790502
 20
99.97279592861442
 30
0.0
 10
210.0772246643992
 20
99.97496246927972
 30
0.0
 10
210.0306652775441
 20
99.97928963576727
 30
0.0
 10
209.9843407272876
 20
99.97257838941262
 30
0.0
 10
209.9612101128826
 20
99.96922735306696
 30
0.0
  0
LINE
  5
126
330
1F
100
AcDbEntity
  8
0
  6
Continuous
 62
     7
370
    25
100
AcDbLine
 10
208.494648423
 20
99.3137103202
 30
0.0
 11
208.3638710684
 21
96.4604488301
 31
0.0
  0
LINE
  5
127
330
1F
100
AcDbEntity
  8
0
  6
Continuous
 62
     7
370
    25
100
AcDbLine
 10
213.5771348142
 20
96.4604488301
 30
0.0
 11
213.4463574596
 21
99.3137103202
 31
0.0
  0
LINE
  5
128
330
1F
100
AcDbEntity
  8
0
  6
Continuous
 62
     7
370
    25
100
AcDbLine
 10
209.0175289611
 20
99.9588112112
 30
0.0
 11
208.9690980181
 21
99.9376066972
 31
0.0
  0
SPLINE
  5
129
330
1F
100
AcDbEntity
  8
0
  6
Continuous
 62
     7
370
    25
100
AcDbSpline
210
0.0
220
0.0
230
1.0
 70
     8
 71
     3
 72
     9
 73
     5
 74
     0
 42
0.00000001
 43
0.00000001
 40
0.0
 40
0.0
 40
0.0
 40
0.0
 40
0.0503631419175414
 40
1.0
 40
1.0
 40
1.0
 40
1.0
 10
208.5510107470679
 20
99.55221848865675
 30
0.0
 10
208.5491146664737
 20
99.54904843129275
 30
0.0
 10
208.5114664872314
 20
99.48610443607508
 30
0.0
 10
208.5049260442161
 20
99.41095683738119
 30
0.0
 10
208.4987149984606
 20
99.33959390786508
 30
0.0
  0
SPLINE
  5
12A
330
1F
100
AcDbEntity
  8
0
  6
Continuous
 62
     7
370
    25
100
AcDbSpline
210
0.0
220
0.0
230
1.0
 70
     8
 71
     3
 72
    11
 73
     7
 74
     0
 42
0.00000001
 43
0.00000001
 40
0.0
 40
0.0
 40
0.0
 40
0.0
 40
0.2436788845968631
 40
0.491588446668192
 40
0.7437897073051962
 40
0.9999999999999999
 40
0.9999999999999999
 40
0.9999999999999999
 40
0.9999999999999999
 10
213.4422908841374
 20
99.3395939078651
 30
0.0
 10
213.4309869273089
 20
99.40871325976191
 30
0.0
 10
213.4081827578475
 20
99.54815199237876
 30
0.0
 10
213.295017958943
 20
99.7328058849187
 30
0.0
 10
213.1327343661327
 20
99.88343439072791
 30
0.0
 10
212.9935951262143
 20
99.93355386689075
 30
0.0
 10
212.9234769214819
 20
99.95881121120803
 30
0.0
  0
SPLINE
  5
12B
330
1F
100
AcDbEntity
  8
0
  6
Continuous
 62
     7
370
    25
100
AcDbSpline
210
0.0
220
0.0
230
1.0
 70
     8
 71
     3
 72
    10
 73
     6
 74
     0
 42
0.00000001
 43
0.00000001
 40
0.0
 40
0.0
 40
0.0
 40
0.0
 40
0.2663464296502981
 40
0.5214744039517447
 40
1.0
 40
1.0
 40
1.0
 40
1.0
 10
213.9252701382139
 20
96.00490570878226
 30
0.0
 10
213.8800886742974
 20
96.02389177452177
 30
0.0
 10
213.7916287801795
 20
96.06106421692282
 30
0.0
 10
213.64504444078
 20
96.19063133503873
 30
0.0
 10
213.591020324003
 20
96.3211107264816
 30
0.0
 10
213.5557830898008
 20
96.40621591929413
 30
0.0
  0
SPLINE
  5
12C
330
1F
100
AcDbEntity
  8
0
  6
Continuous
 62
     7
370
    25
100
AcDbSpline
210
0.0
220
0.0
230
1.0
 70
     8
 71
     3
 72
    10
 73
     6
 74
     0
 42
0.00000001
 43
0.00000001
 40
0.0
 40
0.0
 40
0.0
 40
0.0
 40
0.4785255960482541
 40
0.7336535703497082
 40
1.0
 40
1.0
 40
1.0
 40
1.0
 10
208.3852227927973
 20
96.40621591929413
 30
0.0
 10
208.349985558595
 20
96.32111072648159
 30
0.0
 10
208.295961441818
 20
96.19063133503873
 30
0.0
 10
208.1493771024185
 20
96.0610642169228
 30
0.0
 10
208.0609172083006
 20
96.02389177452177
 30
0.0
 10
208.0157357443841
 20
96.00490570878226
 30
0.0
  0
ARC
  5
12D
330
1F
100
AcDbEntity
  8
0
  6
Continuous
 62
     7
370
    25
100
AcDbCircle
 10
207.2437645171
 20
94.4816599307
 30
0.0
 40
1.500000000000028
100
AcDbArc
 50
90.0
 51
180.0
  0
LINE
  5
12E
330
1F
100
AcDbEntity
  8
0
  6
Continuous
 62
     7
370
    25
100
AcDbLine
 10
205.7437645171
 20
94.4816599307
 30
0.0
 11
205.7437645171
 21
89.2287052985
 31
0.0
  0
ARC
  5
12F
330
1F
100
AcDbEntity
  8
0
  6
Continuous
 62
     7
370
    25
100
AcDbCircle
 10
214.6972413655
 20
94.4816599307
 30
0.0
 40
1.5
100
AcDbArc
 50
0.0
 51
90.0
  0
LINE
  5
130
330
1F
100
AcDbEntity
  8
0
  6
Continuous
 62
     7
370
    25
100
AcDbLine
 10
216.1972413655
 20
89.2287052985
 30
0.0
 11
216.1972413655
 21
94.4816599307
 31
0.0
  0
LINE
  5
131
330
1F
100
AcDbEntity
  8
0
  6
Continuous
 62
     7
370
    25
100
AcDbLine
 10
201.9816953827
 20
89.3697355165
 30
0.0
 11
202.7905029413
 21
81.2816599307
 31
0.0
  0
LINE
  5
132
330
1F
100
AcDbEntity
  8
0
  6
Continuous
 62
     7
370
    25
100
AcDbLine
 10
219.0155277553
 20
79.9319080712
 30
0.0
 11
219.9593104999
 21
89.3697355165
 31
0.0
  0
ARC
  5
133
330
1F
100
AcDbEntity
  8
0
  6
Continuous
 62
     7
370
    25
100
AcDbCircle
 10
218.9642733097
 20
89.4692392355
 30
0.0
 40
1.000000000000022
100
AcDbArc
 50
354.2894068625
 51
7.1250163489
  0
ARC
  5
134
330
1F
100
AcDbEntity
  8
0
  6
Continuous
 62
     7
370
    25
100
AcDbCircle
 10
202.9767325729
 20
89.4692392355
 30
0.0
 40
1.000000000000022
100
AcDbArc
 50
172.8749836511
 51
185.7105931375
  0
LINE
  5
135
330
1F
100
AcDbEntity
  8
0
  6
Continuous
 62
     7
370
    25
100
AcDbLine
 10
219.9565511864
 20
89.5932739701
 30
0.0
 11
219.0252507704
 21
97.043677298
 31
0.0
  0
LINE
  5
136
330
1F
100
AcDbEntity
  8
0
  6
Continuous
 62
     7
370
    25
100
AcDbLine
 10
202.9157551122
 20
97.043677298
 30
0.0
 11
201.9844546962
 21
89.5932739701
 31
0.0
  0
ARC
  5
137
330
1F
100
AcDbEntity
  8
0
  6
Continuous
 62
     7
370
    25
100
AcDbCircle
 10
203.4118940506
 20
96.9816599307
 30
0.0
 40
0.5
100
AcDbArc
 50
90.0
 51
172.8749836511
  0
ARC
  5
138
330
1F
100
AcDbEntity
  8
0
  6
Continuous
 62
     7
370
    25
100
AcDbCircle
 10
218.529111832
 20
96.9816599307
 30
0.0
 40
0.5000000000000017
100
AcDbArc
 50
7.1250163489
 51
90.0
  0
ARC
  5
139
330
1F
100
AcDbEntity
  8
0
  6
Continuous
 62
     7
370
    25
100
AcDbCircle
 10
218.5180091602
 20
79.9816599307
 30
0.0
 40
0.5
100
AcDbArc
 50
270.0
 51
354.2894068625
  0
LINE
  5
13A
330
1F
100
AcDbEntity
  8
0
  6
Continuous
 62
     7
370
    25
100
AcDbLine
 10
211.9705029413
 20
78.9816599307
 30
0.0
 11
211.9705029413
 21
79.4528687771
 31
0.0
  0
LINE
  5
13B
330
1F
100
AcDbEntity
  8
0
  6
Continuous
 62
     7
370
    25
100
AcDbLine
 10
209.9705029413
 20
80.7816599307
 30
0.0
 11
209.9705029413
 21
78.9816599307
 31
0.0
  0
ARC
  5
13C
330
1F
100
AcDbEntity
  8
0
  6
Continuous
 62
     7
370
    25
100
AcDbCircle
 10
210.1705029413
 20
80.7816599307
 30
0.0
 40
0.2000000000000171
100
AcDbArc
 50
90.0
 51
180.0
  0
ARC
  5
13D
330
1F
100
AcDbEntity
  8
0
  6
Continuous
 62
     7
370
    25
100
AcDbCircle
 10
211.7705029413
 20
80.7816599307
 30
0.0
 40
0.2000000000000028
100
AcDbArc
 50
0.0
 51
90.0
  0
ARC
  5
13E
330
1F
100
AcDbEntity
  8
0
  6
Continuous
 62
     7
370
    25
100
AcDbCircle
 10
219.4705029413
 20
73.0316599307
 30
0.0
 40
0.25
100
AcDbArc
 50
180.0
 51
270.0
  0
ARC
  5
13F
330
1F
100
AcDbEntity
  8
0
  6
Continuous
 62
     7
370
    25
100
AcDbCircle
 10
202.4705029413
 20
73.0316599307
 30
0.0
 40
0.25
100
AcDbArc
 50
270.0
 51
0.0
  0
LINE
  5
140
330
1F
100
AcDbEntity
  8
0
  6
Continuous
 62
     7
370
    25
100
AcDbLine
 10
219.2205029413
 20
78.4816599307
 30
0.0
 11
218.7205029413
 21
78.9816599307
 31
0.0
  0
LINE
  5
141
330
1F
100
AcDbEntity
  8
0
  6
Continuous
 62
     7
370
    25
100
AcDbLine
 10
203.2205029413
 20
78.9816599307
 30
0.0
 11
202.7205029413
 21
78.4816599307
 31
0.0
  0
LINE
  5
142
330
1F
100
AcDbEntity
  8
0
  6
Continuous
 62
     7
370
    25
100
AcDbLine
 10
219.2205029413
 20
73.0316599307
 30
0.0
 11
219.2205029413
 21
78.4816599307
 31
0.0
  0
LINE
  5
143
330
1F
100
AcDbEntity
  8
0
  6
Continuous
 62
     7
370
    25
100
AcDbLine
 10
202.7205029413
 20
78.4816599307
 30
0.0
 11
202.7205029413
 21
73.0316599307
 31
0.0
  0
LINE
  5
144
330
1F
100
AcDbEntity
  8
0
  6
Continuous
 62
     7
370
    25
100
AcDbLine
 10
205.9705029413
 20
81.2816599307
 30
0.0
 11
205.9705029413
 21
78.9816599307
 31
0.0
  0
LINE
  5
145
330
1F
100
AcDbEntity
  8
0
  6
Continuous
 62
     7
370
    25
100
AcDbLine
 10
215.9705029413
 20
78.9816599307
 30
0.0
 11
215.9705029413
 21
79.4816599307
 31
0.0
  0
ELLIPSE
  5
146
330
1F
100
AcDbEntity
  8
0
  6
Continuous
 62
     7
370
    25
100
AcDbEllipse
 10
210.7959643862
 20
90.7052667285
 30
0.0
 11
0.7234244958980014
 21
-0.7001325129304661
 31
0.0
210
0.0
220
0.0
230
1.0
 40
0.9869902583
 41
4.70764954536258
 42
5.487972049091436
  0
LINE
  5
147
330
1F
100
AcDbEntity
  8
0
  6
Continuous
 62
     7
370
    25
100
AcDbLine
 10
210.809057347
 20
89.7052667285
 30
0.0
 11
210.809057347
 21
88.9816599307
 31
0.0
  0
ELLIPSE
  5
148
330
1F
100
AcDbEntity
  8
0
  6
Continuous
 62
     7
370
    25
100
AcDbEllipse
 10
210.7959643862
 20
90.4816599307
 30
0.0
 11
1.074619436156752
 21
-1.056020081253664
 31
0.0
210
0.0
220
0.0
230
1.0
 40
0.9913091236
 41
4.71309943438346
 42
5.493421938112297
  0
LWPOLYLINE
  5
149
330
1F
100
AcDbEntity
  8
0
  6
Continuous
 62
     7
370
    25
100
AcDbPolyline
 90
        9
 70
   128
 43
0.0
 10
210.1015195668
 20
89.9945800377
 10
210.0157906847
 20
89.91824956
 10
209.9347590348
 20
89.8338495608
 10
209.8628644799
 20
89.7460044602
 10
209.8040462457
 20
89.6595274419
 10
209.761527084
 20
89.5791567296
 10
209.7376366923
 20
89.5092959722
 10
209.7336840662
 20
89.4537729602
 10
209.7498857768
 20
89.4156298945
  0
LINE
  5
14A
330
1F
100
AcDbEntity
  8
0
  6
Continuous
 62
     7
370
    25
100
AcDbLine
 10
210.809057347
 20
89.7052667285
 30
0.0
 11
211.1319485356
 21
89.7052667285
 31
0.0
  0
LINE
  5
14B
330
1F
100
AcDbEntity
  8
0
  6
Continuous
 62
     7
370
    25
100
AcDbLine
 10
211.1319485356
 20
89.7052667285
 30
0.0
 11
211.1319485356
 21
88.9816599307
 31
0.0
  0
LINE
  5
14C
330
1F
100
AcDbEntity
  8
0
  6
Continuous
 62
     7
370
    25
100
AcDbLine
 10
211.1319485356
 20
88.9816599307
 30
0.0
 11
210.809057347
 21
88.9816599307
 31
0.0
  0
ELLIPSE
  5
14D
330
1F
100
AcDbEntity
  8
0
  6
Continuous
 62
     7
370
    25
100
AcDbEllipse
 10
211.1450414964
 20
90.7052667285
 30
0.0
 11
0.7234244958980014
 21
0.7001325129304519
 31
0.0
210
0.0
220
0.0
230
1.0
 40
0.9869902583
 41
3.936805911677976
 42
4.717128415406837
  0
LWPOLYLINE
  5
14E
330
1F
100
AcDbEntity
  8
0
  6
Continuous
 62
     7
370
    25
100
AcDbPolyline
 90
        9
 70
   128
 43
0.0
 10
211.8394863158
 20
89.9945800377
 10
211.9252151979
 20
89.91824956
 10
212.0062468478
 20
89.8338495608
 10
212.0781414027
 20
89.7460044602
 10
212.1369596369
 20
89.6595274419
 10
212.1794787986
 20
89.5791567296
 10
212.2033691903
 20
89.5092959722
 10
212.2073218164
 20
89.4537729602
 10
212.1911201058
 20
89.4156298945
  0
ELLIPSE
  5
14F
330
1F
100
AcDbEntity
  8
0
  6
Continuous
 62
     7
370
    25
100
AcDbEllipse
 10
211.1450414964
 20
90.4816599307
 30
0.0
 11
1.074619436156752
 21
1.056020081253678
 31
0.0
210
0.0
220
0.0
230
0.9999999999999999
 40
0.9913091236
 41
3.931356022657103
 42
4.711678526385939
  0
LINE
  5
150
330
1F
100
AcDbEntity
  8
0
  6
Continuous
 62
     7
370
    25
100
AcDbLine
 10
210.1015195668
 20
89.9945800377
 30
0.0
 11
210.1015195668
 21
99.152480324
 31
0.0
  0
LINE
  5
151
330
1F
100
AcDbEntity
  8
0
  6
Continuous
 62
     7
370
    25
100
AcDbLine
 10
210.1015195668
 20
99.152480324
 30
0.0
 11
211.8394863158
 21
99.152480324
 31
0.0
  0
LINE
  5
152
330
1F
100
AcDbEntity
  8
0
  6
Continuous
 62
     7
370
    25
100
AcDbLine
 10
211.8394863158
 20
99.152480324
 30
0.0
 11
211.8394863158
 21
89.9945800377
 31
0.0
  0
SPLINE
  5
153
330
1F
100
AcDbEntity
  8
0
  6
Continuous
 62
     7
370
    25
100
AcDbSpline
210
0.0
220
0.0
230
1.0
 70
     8
 71
     3
 72
    12
 73
     8
 74
     0
 42
0.00000001
 43
0.00000001
 40
0.0
 40
0.0
 40
0.0
 40
0.0
 40
0.139683458618249
 40
0.3831896274038307
 40
0.55131692930133
 40
0.8194729461607051
 40
0.9999999999999999
 40
0.9999999999999999
 40
0.9999999999999999
 40
0.9999999999999999
 10
211.8394863158177
 20
89.99458003765542
 30
0.0
 10
211.8892012362962
 20
90.00789241131636
 30
0.0
 10
212.025582752354
 20
90.04441186432433
 30
0.0
 10
212.2054988615662
 20
90.08208392491571
 30
0.0
 10
212.383840289951
 20
90.1064512456772
 30
0.0
 10
212.5043605145025
 20
90.10533421091324
 30
0.0
 10
212.5285065278094
 20
90.06395092253568
 30
0.0
 10
212.538221645069
 20
90.04730040992027
 30
0.0
  0
ARC
  5
154
330
1F
100
AcDbEntity
  8
0
  6
Continuous
 62
     7
370
    25
100
AcDbCircle
 10
212.0399674644
 20
90.0324474242
 30
0.0
 40
0.4984755156839236
100
AcDbArc
 50
333.4921832491
 51
1.7074848132
  0
SPLINE
  5
155
330
1F
100
AcDbEntity
  8
0
  6
Continuous
 62
     7
370
    25
100
AcDbSpline
210
0.0
220
0.0
230
1.0
 70
     8
 71
     3
 72
    12
 73
     8
 74
     0
 42
0.00000001
 43
0.00000001
 40
0.0
 40
0.0
 40
0.0
 40
0.0
 40
0.0715202026166142
 40
0.1260836237049476
 40
0.3855387013103047
 40
0.8475626424815554
 40
1.0
 40
1.0
 40
1.0
 40
1.0
 10
212.4860399835079
 20
89.80996788036515
 30
0.0
 10
212.4841039378027
 20
89.80685923250034
 30
0.0
 10
212.4806908650032
 20
89.801378968557
 30
0.0
 10
212.4585084144979
 20
89.76179042313659
 30
0.0
 10
212.3954949397316
 20
89.65535629015432
 30
0.0
 10
212.2984486142597
 20
89.52484927444608
 30
0.0
 10
212.2124539210415
 20
89.43733956048274
 30
0.0
 10
212.1911201058398
 20
89.41562989450019
 30
0.0
  0
SPLINE
  5
156
330
1F
100
AcDbEntity
  8
0
  6
Continuous
 62
     7
370
    25
100
AcDbSpline
210
0.0
220
0.0
230
1.0
 70
     8
 71
     3
 72
    11
 73
     7
 74
     0
 42
0.00000001
 43
0.00000001
 40
0.0
 40
0.0
 40
0.0
 40
0.0
 40
0.2499999999999991
 40
0.4999999999999979
 40
0.7499999999999996
 40
1.0
 40
1.0
 40
1.0
 40
1.0
 10
212.538221645069
 20
98.85824005832939
 30
0.0
 10
212.5232223399024
 20
98.89735761249551
 30
0.0
 10
212.4932237295693
 20
98.97559272082779
 30
0.0
 10
212.3297040267726
 20
99.07225579653601
 30
0.0
 10
212.1041244126903
 20
99.1394440126755
 30
0.0
 10
211.9276990147752
 20
99.1481348868691
 30
0.0
 10
211.8394863158177
 20
99.1524803239659
 30
0.0
  0
LINE
  5
157
330
1F
100
AcDbEntity
  8
0
  6
Continuous
 62
     7
370
    25
100
AcDbLine
 10
212.5382216451
 20
90.0473004099
 30
0.0
 11
212.5382216451
 21
98.8582400583
 31
0.0
  0
SPLINE
  5
158
330
1F
100
AcDbEntity
  8
0
  6
Continuous
 62
     7
370
    25
100
AcDbSpline
210
0.0
220
0.0
230
1.0
 70
     8
 71
     3
 72
    11
 73
     7
 74
     0
 42
0.00000001
 43
0.00000001
 40
0.0
 40
0.0
 40
0.0
 40
0.0
 40
0.249999999999999
 40
0.4999999999999998
 40
0.7499999999999988
 40
1.0
 40
1.0
 40
1.0
 40
1.0
 10
209.402784237529
 20
98.85824005832937
 30
0.0
 10
209.4177835426956
 20
98.8973576124955
 30
0.0
 10
209.4477821530287
 20
98.97559272082776
 30
0.0
 10
209.6113018558254
 20
99.072255796536
 30
0.0
 10
209.8368814699078
 20
99.13944401267553
 30
0.0
 10
210.0133068678228
 20
99.1481348868691
 30
0.0
 10
210.1015195667803
 20
99.1524803239659
 30
0.0
  0
SPLINE
  5
159
330
1F
100
AcDbEntity
  8
0
  6
Continuous
 62
     7
370
    25
100
AcDbSpline
210
0.0
220
0.0
230
1.0
 70
     8
 71
     3
 72
    13
 73
     9
 74
     0
 42
0.00000001
 43
0.00000001
 40
0.0
 40
0.0
 40
0.0
 40
0.0
 40
0.1143463544469914
 40
0.2890454840074685
 40
0.5294852105593209
 40
0.7014879056604271
 40
0.9335094878266192
 40
1.0
 40
1.0
 40
1.0
 40
1.0
 10
209.402784237529
 20
90.04730040992027
 30
0.0
 10
209.4076188290341
 20
90.05868724167826
 30
0.0
 10
209.4198397419642
 20
90.08747095159812
 30
0.0
 10
209.4924878370052
 20
90.107721129047
 30
0.0
 10
209.623000103412
 20
90.09986380230139
 30
0.0
 10
209.8098677025816
 20
90.06733638597342
 30
0.0
 10
209.9712411073382
 20
90.03021503102154
 30
0.0
 10
210.0777874581901
 20
90.00107146790256
 30
0.0
 10
210.1015195667803
 20
89.99458003765542
 30
0.0
  0
LINE
  5
15A
330
1F
100
AcDbEntity
  8
0
  6
Continuous
 62
     7
370
    25
100
AcDbLine
 10
209.4027842375
 20
98.8582400583
 30
0.0
 11
209.4027842375
 21
90.0473004099
 31
0.0
  0
SPLINE
  5
15B
330
1F
100
AcDbEntity
  8
0
  6
Continuous
 62
     7
370
    25
100
AcDbSpline
210
0.0
220
0.0
230
1.0
 70
     8
 71
     3
 72
    11
 73
     7
 74
     0
 42
0.00000001
 43
0.00000001
 40
0.0
 40
0.0
 40
0.0
 40
0.0
 40
0.3325271082490199
 40
0.7778992719027311
 40
0.9254453528959206
 40
1.0
 40
1.0
 40
1.0
 40
1.0
 10
209.7498857767582
 20
89.41562989450019
 30
0.0
 10
209.704654953612
 20
89.46356644262836
 30
0.0
 10
209.5988439579964
 20
89.57570709210142
 30
0.0
 10
209.5110839835188
 20
89.71106731011864
 30
0.0
 10
209.463471091581
 20
89.7960679438971
 30
0.0
 10
209.4571034016527
 20
89.80647458496324
 30
0.0
 10
209.4549658990901
 20
89.80996788036516
 30
0.0
  0
ARC
  5
15C
330
1F
100
AcDbEntity
  8
0
  6
Continuous
 62
     7
370
    25
100
AcDbCircle
 10
209.9010384182
 20
90.0324474242
 30
0.0
 40
0.4984755156844014
100
AcDbArc
 50
178.2925151868
 51
206.5078167509
  0
LINE
  5
15D
330
1F
100
AcDbEntity
  8
0
  6
Continuous
 62
     7
370
    25
100
AcDbLine
 10
210.1168971499
 20
88.9816599307
 30
0.0
 11
210.809057347
 21
88.9816599307
 31
0.0
  0
SPLINE
  5
15E
330
1F
100
AcDbEntity
  8
0
  6
Continuous
 62
     7
370
    25
100
AcDbSpline
210
0.0
220
0.0
230
1.0
 70
     8
 71
     3
 72
    11
 73
     7
 74
     0
 42
0.00000001
 43
0.00000001
 40
0.0
 40
0.0
 40
0.0
 40
0.0
 40
0.2500000000000002
 40
0.4999999999999996
 40
0.7499999999999999
 40
1.0
 40
1.0
 40
1.0
 40
1.0
 10
208.6179249988019
 20
90.52092535317777
 30
0.0
 10
208.6360013092199
 20
90.32054974680167
 30
0.0
 10
208.672153930056
 20
89.91979853404952
 30
0.0
 10
209.0167797042565
 20
89.40960559600755
 30
0.0
 10
209.5176017903767
 20
89.05162452764087
 30
0.0
 10
209.9171320300375
 20
89.00498146302427
 30
0.0
 10
210.1168971498678
 20
88.98165993071595
 30
0.0
  0
LINE
  5
15F
330
1F
100
AcDbEntity
  8
0
  6
Continuous
 62
     7
370
    25
100
AcDbLine
 10
209.1842622789
 20
90.5209253532
 30
0.0
 11
208.6179249988
 21
90.5209253532
 31
0.0
  0
SPLINE
  5
160
330
1F
100
AcDbEntity
  8
0
  6
Continuous
 62
     7
370
    25
100
AcDbSpline
210
0.0
220
0.0
230
1.0
 70
     8
 71
     3
 72
     9
 73
     5
 74
     0
 42
0.00000001
 43
0.00000001
 40
0.0
 40
0.0
 40
0.0
 40
0.0
 40
0.5407747560677784
 40
1.0
 40
1.0
 40
1.0
 40
1.0
 10
209.1842622788824
 20
90.52092535317779
 30
0.0
 10
209.1842327784695
 20
90.50959139937709
 30
0.0
 10
209.1841782263431
 20
90.48863266623813
 30
0.0
 10
209.184782471478
 20
90.46766647337019
 30
0.0
 10
209.1850599560975
 20
90.45803826833607
 30
0.0
  0
ELLIPSE
  5
161
330
1F
100
AcDbEntity
  8
0
  6
Continuous
 62
     7
370
    25
100
AcDbEllipse
 10
210.6832344299
 20
90.4816599307
 30
0.0
 11
-0.399986139932679
 21
1.445826639360064
 31
0.0
210
0.0
220
0.0
230
1.0
 40
0.9987379186
 41
1.314426961368734
 42
1.316970714136491
  0
ELLIPSE
  5
162
330
1F
100
AcDbEntity
  8
0
  6
Continuous
 62
     7
370
    25
100
AcDbEllipse
 10
211.6319273297
 20
90.4816599307
 30
0.0
 11
2.447559743736974
 21
-0.02501587584977472
 31
0.0
210
0.0
220
0.0
230
1.0
 40
0.6127700831
 41
3.171475350442025
 42
3.622568086779181
  0
LINE
  5
163
330
1F
100
AcDbEntity
  8
0
  6
Continuous
 62
     7
370
    25
100
AcDbLine
 10
212.7567436037
 20
90.5209253532
 30
0.0
 11
212.7559459265
 21
90.4580382683
 31
0.0
  0
LINE
  5
164
330
1F
100
AcDbEntity
  8
0
  6
Continuous
 62
     7
370
    25
100
AcDbLine
 10
213.3230808838
 20
90.5209253532
 30
0.0
 11
212.7567436037
 21
90.5209253532
 31
0.0
  0
SPLINE
  5
165
330
1F
100
AcDbEntity
  8
0
  6
Continuous
 62
     7
370
    25
100
AcDbSpline
210
0.0
220
0.0
230
1.0
 70
     8
 71
     3
 72
    11
 73
     7
 74
     0
 42
0.00000001
 43
0.00000001
 40
0.0
 40
0.0
 40
0.0
 40
0.0
 40
0.2500000000000001
 40
0.4999999999999997
 40
0.75
 40
1.0
 40
1.0
 40
1.0
 40
1.0
 10
211.8241087327302
 20
88.98165993071595
 30
0.0
 10
212.0238738525606
 20
89.00498146302425
 30
0.0
 10
212.4234040922214
 20
89.05162452764087
 30
0.0
 10
212.9242261783415
 20
89.40960559600755
 30
0.0
 10
213.268851952542
 20
89.91979853404949
 30
0.0
 10
213.3050045733781
 20
90.32054974680169
 30
0.0
 10
213.3230808837961
 20
90.52092535317777
 30
0.0
  0
LINE
  5
166
330
1F
100
AcDbEntity
  8
0
  6
Continuous
 62
     7
370
    25
100
AcDbLine
 10
211.1319485356
 20
88.9816599307
 30
0.0
 11
211.8241087327
 21
88.9816599307
 31
0.0
  0
ELLIPSE
  5
167
330
1F
100
AcDbEntity
  8
0
  6
Continuous
 62
     7
370
    25
100
AcDbEllipse
 10
210.3090785529
 20
90.4816599307
 30
0.0
 11
2.447559743736946
 21
0.02501587584978893
 31
0.0
210
0.0
220
0.0
230
1.0
 40
0.6127700831
 41
5.802209873990226
 42
6.253302610327371
  0
ELLIPSE
  5
168
330
1F
100
AcDbEntity
  8
0
  6
Continuous
 62
     7
370
    25
100
AcDbEllipse
 10
211.2577714526
 20
90.4816599307
 30
0.0
 11
0.3999861399325653
 21
1.445826639360106
 31
0.0
210
0.0
220
0.0
230
1.0
 40
0.9987379186
 41
4.966214593033936
 42
4.968758345810764
  0
ELLIPSE
  5
169
330
1F
100
AcDbEntity
  8
0
  6
Continuous
 62
     7
370
    25
100
AcDbEllipse
 10
209.3546300795
 20
98.5004691819
 30
0.0
 11
0.02159772760037981
 21
0.7999991561933228
 31
0.0
210
0.0
220
0.0
230
1.0
 40
0.0537988877
 41
5.177489007048905
 42
5.369012849440824
  0
ELLIPSE
  5
16A
330
1F
100
AcDbEntity
  8
0
  6
Continuous
 62
     7
370
    25
100
AcDbEllipse
 10
211.1328306659
 20
90.4950951102
 30
0.0
 11
1.947791790405574
 21
-0.01776981143129319
 31
0.0
210
0.0
220
0.0
230
1.0
 40
0.513320833
 41
3.160788584408909
 42
3.623660809788548
  0
LINE
  5
16B
330
1F
100
AcDbEntity
  8
0
  6
Continuous
 62
     7
370
    25
100
AcDbLine
 10
209.1852226422
 20
90.4936699266
 30
0.0
 11
209.4019037534
 21
98.9879053448
 31
0.0
  0
ELLIPSE
  5
16C
330
1F
100
AcDbEntity
  8
0
  6
Continuous
 62
     7
370
    25
100
AcDbEllipse
 10
212.5863758031
 20
98.5004691819
 30
0.0
 11
-0.02159772760037981
 21
0.7999991561933228
 31
0.0
210
0.0
220
0.0
230
1.0
 40
0.0537988877
 41
0.9141724577399847
 42
1.105696300131272
  0
LINE
  5
16D
330
1F
100
AcDbEntity
  8
0
  6
Continuous
 62
     7
370
    25
100
AcDbLine
 10
212.5391021292
 20
98.9879053448
 30
0.0
 11
212.7557832404
 21
90.4936699266
 31
0.0
  0
ELLIPSE
  5
16E
330
1F
100
AcDbEntity
  8
0
  6
Continuous
 62
     7
370
    25
100
AcDbEllipse
 10
210.8081752167
 20
90.4950951102
 30
0.0
 11
1.947791790405546
 21
0.0177698114313074
 31
0.0
210
0.0
220
0.0
230
1.0
 40
0.513320833
 41
5.801117150980865
 42
6.263989376373002
  0
LINE
  5
16F
330
1F
100
AcDbEntity
  8
0
  6
Continuous
 62
     7
370
    25
100
AcDbLine
 10
209.185002307
 20
90.4618534966
 30
0.0
 11
209.1852226422
 21
90.4936699266
 31
0.0
  0
SPLINE
  5
170
330
1F
100
AcDbEntity
  8
0
  6
Continuous
 62
     7
370
    25
100
AcDbSpline
210
0.0
220
0.0
230
1.0
 70
     8
 71
     3
 72
     9
 73
     5
 74
     0
 42
0.00000001
 43
0.00000001
 40
0.0
 40
0.0
 40
0.0
 40
0.0
 40
0.8673350121727758
 40
1.0
 40
1.0
 40
1.0
 40
1.0
 10
212.7557832404244
 20
90.49366992657852
 30
0.0
 10
212.7559539726116
 20
90.48447150320331
 30
0.0
 10
212.7561508194873
 20
90.47386611630425
 30
0.0
 10
212.756020821722
 20
90.46326049170287
 30
0.0
 10
212.7560035755701
 20
90.46185349664421
 30
0.0
  0
ELLIPSE
  5
171
330
1F
100
AcDbEntity
  8
0
  6
Continuous
 62
     7
370
    25
100
AcDbEllipse
 10
210.0709545708
 20
98.4816599307
 30
0.0
 11
0.0209600052571659
 21
1.499999971448759
 31
0.0
210
0.0
220
0.0
230
1.0
 40
0.013963099
 41
5.413231207420234
 42
6.283380418268021
  0
LINE
  5
172
330
1F
100
AcDbEntity
  8
0
  6
Continuous
 62
     7
370
    25
100
AcDbLine
 10
211.8490953934
 20
99.9816599307
 30
0.0
 11
210.0919104891
 21
99.9816599307
 31
0.0
  0
ELLIPSE
  5
173
330
1F
100
AcDbEntity
  8
0
  6
Continuous
 62
     7
370
    25
100
AcDbEllipse
 10
211.8700513118
 20
98.4816599307
 30
0.0
 11
-0.0209600052571659
 21
1.499999971448759
 31
0.0
210
0.0
220
0.0
230
1.0
 40
0.013963099
 41
6.282990196092134
 42
7.153139406939379
  0
SPLINE
  5
174
330
1F
100
AcDbEntity
  8
0
  6
Continuous
 62
     7
370
    25
100
AcDbSpline
210
0.0
220
0.0
230
1.0
 70
     8
 71
     3
 72
     9
 73
     5
 74
     0
 42
0.00000001
 43
0.00000001
 40
0.0
 40
0.0
 40
0.0
 40
0.0
 40
0.5600029565045499
 40
1.0
 40
1.0
 40
1.0
 40
1.0
 10
211.840527027923
 20
99.44872867155654
 30
0.0
 10
211.8405326659892
 20
99.43894220939659
 30
0.0
 10
211.8405427339114
 20
99.4214664763736
 30
0.0
 10
211.840420557308
 20
99.4035055087078
 30
0.0
 10
211.8403667999637
 20
99.39560273603654
 30
0.0
  0
ELLIPSE
  5
175
330
1F
100
AcDbEntity
  8
0
  6
Continuous
 62
     7
370
    25
100
AcDbEllipse
 10
211.8876404738
 20
98.4816599307
 30
0.0
 11
-0.02155295842280225
 21
1.499999872388912
 31
0.0
210
0.0
220
0.0
230
1.0
 40
0.0287076702
 41
0.9152123852435137
 42
1.1067362276349
  0
ELLIPSE
  5
176
330
1F
100
AcDbEntity
  8
0
  6
Continuous
 62
     7
370
    25
100
AcDbEllipse
 10
210.0533654088
 20
98.4816599307
 30
0.0
 11
0.0215529584228591
 21
1.499999872388912
 31
0.0
210
0.0
220
0.0
230
0.9999999999999998
 40
0.0287076702
 41
5.176449079544463
 42
5.367972921935946
  0
SPLINE
  5
177
330
1F
100
AcDbEntity
  8
0
  6
Continuous
 62
     7
370
    25
100
AcDbSpline
210
0.0
220
0.0
230
1.0
 70
     8
 71
     3
 72
     9
 73
     5
 74
     0
 42
0.00000001
 43
0.00000001
 40
0.0
 40
0.0
 40
0.0
 40
0.0
 40
0.5599925069633377
 40
1.0
 40
1.0
 40
1.0
 40
1.0
 10
210.1006390826344
 20
99.39560273603654
 30
0.0
 10
210.100573337483
 20
99.40565033033941
 30
0.0
 10
210.100455933856
 20
99.42359270309964
 30
0.0
 10
210.1004718510086
 20
99.4410481459209
 30
0.0
 10
210.1004788546751
 20
99.44872867155655
 30
0.0
  0
SPLINE
  5
178
330
1F
100
AcDbEntity
  8
0
  6
Continuous
 62
     7
370
    25
100
AcDbSpline
210
0.0
220
0.0
230
1.0
 70
     8
 71
     3
 72
    12
 73
     8
 74
     0
 42
0.00000001
 43
0.00000001
 40
0.0
 40
0.0
 40
0.0
 40
0.0
 40
0.2225634137434379
 40
0.4462063173695244
 40
0.6680851268156933
 40
0.8917990985568367
 40
1.0
 40
1.0
 40
1.0
 40
1.0
 10
209.401903753383
 20
98.98790534476706
 30
0.0
 10
209.4142568609498
 20
99.03549128807339
 30
0.0
 10
209.4390229918368
 20
99.13089397876784
 30
0.0
 10
209.5716069198346
 20
99.25511271134081
 30
0.0
 10
209.7579643233292
 20
99.34700251244527
 30
0.0
 10
209.9460551346825
 20
99.38945809145535
 30
0.0
 10
210.0626351675709
 20
99.3940920969705
 30
0.0
 10
210.1006390826344
 20
99.39560273603654
 30
0.0
  0
SPLINE
  5
179
330
1F
100
AcDbEntity
  8
0
  6
Continuous
 62
     7
370
    25
100
AcDbSpline
210
0.0
220
0.0
230
1.0
 70
     8
 71
     3
 72
    12
 73
     8
 74
     0
 42
0.00000001
 43
0.00000001
 40
0.0
 40
0.0
 40
0.0
 40
0.0
 40
0.2225634137435274
 40
0.446206317369568
 40
0.6680851268158019
 40
0.8917990985569294
 40
1.0
 40
1.0
 40
1.0
 40
1.0
 10
211.8403667999637
 20
99.39560273603654
 30
0.0
 10
211.9188704600063
 20
99.39017566342284
 30
0.0
 10
212.0762585430629
 20
99.37929519549539
 30
0.0
 10
212.2856100806903
 20
99.30400176447509
 30
0.0
 10
212.4443693751604
 20
99.19452321972175
 30
0.0
 10
212.522218245477
 20
99.08180857917529
 30
0.0
 10
212.5349512863104
 20
99.01099112173108
 30
0.0
 10
212.539102129215
 20
98.98790534476706
 30
0.0
  0
SPLINE
  5
17A
330
1F
100
AcDbEntity
  8
0
  6
Continuous
 62
     7
370
    25
100
AcDbSpline
210
0.0
220
0.0
230
1.0
 70
     8
 71
     3
 72
    12
 73
     8
 74
     0
 42
0.00000001
 43
0.00000001
 40
0.0
 40
0.0
 40
0.0
 40
0.0
 40
0.2198609600791294
 40
0.4397396970008148
 40
0.6583291451397767
 40
0.87912395168436
 40
1.0
 40
1.0
 40
1.0
 40
1.0
 10
212.5400473650871
 20
99.01575378964644
 30
0.0
 10
212.529375370443
 20
99.06624200577433
 30
0.0
 10
212.5080305182714
 20
99.16722252025129
 30
0.0
 10
212.3799121230044
 20
99.29888551320131
 30
0.0
 10
212.1969741869393
 20
99.3964468359744
 30
0.0
 10
212.0054250150522
 20
99.44310622745111
 30
0.0
 10
211.8836193433671
 20
99.44725937445246
 30
0.0
 10
211.840527027923
 20
99.44872867155654
 30
0.0
  0
SPLINE
  5
17B
330
1F
100
AcDbEntity
  8
0
  6
Continuous
 62
     7
370
    25
100
AcDbSpline
210
0.0
220
0.0
230
1.0
 70
     8
 71
     3
 72
    12
 73
     8
 74
     0
 42
0.00000001
 43
0.00000001
 40
0.0
 40
0.0
 40
0.0
 40
0.0
 40
0.2198610998683202
 40
0.4397399767664986
 40
0.6583294271823332
 40
0.8791242261983154
 40
1.0
 40
1.0
 40
1.0
 40
1.0
 10
210.1004788546751
 20
99.44872867155655
 30
0.0
 10
210.0217879449559
 20
99.44390487820692
 30
0.0
 10
209.8643997629066
 20
99.43425690147636
 30
0.0
 10
209.6551180144216
 20
99.3570827638146
 30
0.0
 10
209.4964686937573
 20
99.24321525460245
 30
0.0
 10
209.416368631042
 20
99.12173468509883
 30
0.0
 10
209.4049855937403
 20
99.04344944185434
 30
0.0
 10
209.400958517511
 20
99.01575378964644
 30
0.0
  0
LINE
  5
17C
330
1F
100
AcDbEntity
  8
0
  6
Continuous
 62
     7
370
    25
100
AcDbLine
 10
211.976585051
 20
99.9567255524
 30
0.0
 11
211.8490953934
 21
99.9816599307
 31
0.0
  0
ELLIPSE
  5
17D
330
1F
100
AcDbEntity
  8
0
  6
Continuous
 62
     7
370
    25
100
AcDbEllipse
 10
212.5695716489
 20
98.4999837945
 30
0.0
 11
-0.02097028290364733
 21
0.7999998117962832
 31
0.0
210
0.0
220
0.0
230
0.9999999999999999
 40
0.0261679535
 41
6.282499370390492
 42
7.152648581237388
  0
ELLIPSE
  5
17E
330
1F
100
AcDbEntity
  8
0
  6
Continuous
 62
     7
370
    25
100
AcDbEllipse
 10
209.3714342337
 20
98.4999837945
 30
0.0
 11
0.02097028290367575
 21
0.7999998117962832
 31
0.0
210
0.0
220
0.0
230
1.0
 40
0.0261679535
 41
5.4137220331217
 42
6.283871243969204
  0
SPLINE
  5
17F
330
1F
100
AcDbEntity
  8
0
  6
Continuous
 62
     7
370
    25
100
AcDbSpline
210
0.0
220
0.0
230
1.0
 70
     8
 71
     3
 72
    11
 73
     7
 74
     0
 42
0.00000001
 43
0.00000001
 40
0.0
 40
0.0
 40
0.0
 40
0.0
 40
0.2499999999999963
 40
0.4999999999999995
 40
0.7500000000000014
 40
1.0
 40
1.0
 40
1.0
 40
1.0
 10
209.3923901519856
 20
99.29998379453146
 30
0.0
 10
209.4049106682081
 20
99.38988284165846
 30
0.0
 10
209.4299517006533
 20
99.56968093591249
 30
0.0
 10
209.5925951702759
 20
99.79439714514746
 30
0.0
 10
209.8214149063303
 20
99.95115823017694
 30
0.0
 10
210.0017452948766
 20
99.97149269720296
 30
0.0
 10
210.0919104891497
 20
99.98165993071595
 30
0.0
  0
LINE
  5
180
330
1F
100
AcDbEntity
  8
0
  6
Continuous
 62
     7
370
    25
100
AcDbLine
 10
212.755089082
 20
90.5208820132
 30
0.0
 11
212.7567436037
 21
90.5209253532
 31
0.0
  0
LINE
  5
181
330
1F
100
AcDbEntity
  8
0
  6
Continuous
 62
     7
370
    25
100
AcDbLine
 10
209.1859168006
 20
90.5208820132
 30
0.0
 11
209.1842622789
 21
90.5209253532
 31
0.0
  0
SPLINE
  5
182
330
1F
100
AcDbEntity
  8
0
  6
Continuous
 62
     7
370
    25
100
AcDbSpline
210
0.0
220
0.0
230
1.0
 70
     8
 71
     3
 72
     9
 73
     5
 74
     0
 42
0.00000001
 43
0.00000001
 40
0.0
 40
0.0
 40
0.0
 40
0.0
 40
0.5600012771711205
 40
0.9999999999999999
 40
0.9999999999999999
 40
0.9999999999999999
 40
0.9999999999999999
 10
208.6179249988019
 20
90.52092535317777
 30
0.0
 10
208.6297594111469
 20
91.44997499260593
 30
0.0
 10
208.6508922421377
 20
93.10898842222046
 30
0.0
 10
208.6718529715502
 20
94.76576765738706
 30
0.0
 10
208.6810756657212
 20
95.49474840486977
 30
0.0
  0
SPLINE
  5
183
330
1F
100
AcDbEntity
  8
0
  6
Continuous
 62
     7
370
    25
100
AcDbSpline
210
0.0
220
0.0
230
1.0
 70
     8
 71
     3
 72
     9
 73
     5
 74
     0
 42
0.00000001
 43
0.00000001
 40
0.0
 40
0.0
 40
0.0
 40
0.0
 40
0.5599999095971039
 40
1.0
 40
1.0
 40
1.0
 40
1.0
 10
208.6810756657212
 20
95.49474840486977
 30
0.0
 10
208.6833730756184
 20
95.6765501196186
 30
0.0
 10
208.6874755939543
 20
96.00119609122171
 30
0.0
 10
208.6915719871474
 20
96.32576229677619
 30
0.0
 10
208.6933744005226
 20
96.4685714565619
 30
0.0
  0
LINE
  5
184
330
1F
100
AcDbEntity
  8
0
  6
Continuous
 62
     7
370
    25
100
AcDbLine
 10
208.6933744005
 20
96.4685714566
 30
0.0
 11
208.3650462712
 21
96.4685714566
 31
0.0
  0
LINE
  5
185
330
1F
100
AcDbEntity
  8
0
  6
Continuous
 62
     7
370
    25
100
AcDbLine
 10
208.3650462712
 20
96.4685714566
 30
0.0
 11
208.4948221844
 21
99.2999837945
 31
0.0
  0
LINE
  5
186
330
1F
100
AcDbEntity
  8
0
  6
Continuous
 62
     7
370
    25
100
AcDbLine
 10
208.4948221844
 20
99.2999837945
 30
0.0
 11
209.392390152
 21
99.2999837945
 31
0.0
  0
LINE
  5
187
330
1F
100
AcDbEntity
  8
0
  6
Continuous
 62
     7
370
    25
100
AcDbLine
 10
209.4009585175
 20
99.0157537896
 30
0.0
 11
209.1842622789
 21
90.5209253532
 31
0.0
  0
LINE
  5
188
330
1F
100
AcDbEntity
  8
0
  6
Continuous
 62
     7
370
    25
100
AcDbLine
 10
213.5759596114
 20
96.4685714566
 30
0.0
 11
213.2476314821
 21
96.4685714566
 31
0.0
  0
SPLINE
  5
189
330
1F
100
AcDbEntity
  8
0
  6
Continuous
 62
     7
370
    25
100
AcDbSpline
210
0.0
220
0.0
230
1.0
 70
     8
 71
     3
 72
     9
 73
     5
 74
     0
 42
0.00000001
 43
0.00000001
 40
0.0
 40
0.0
 40
0.0
 40
0.0
 40
0.5600000882143319
 40
1.0
 40
1.0
 40
1.0
 40
1.0
 10
213.2476314820754
 20
96.4685714565619
 30
0.0
 10
213.2499255982165
 20
96.2868125857301
 30
0.0
 10
213.2540222335374
 20
95.96224322465847
 30
0.0
 10
213.2581249999967
 20
95.63759402436166
 30
0.0
 10
213.2599302168768
 20
95.49474840486977
 30
0.0
  0
SPLINE
  5
18A
330
1F
100
AcDbEntity
  8
0
  6
Continuous
 62
     7
370
    25
100
AcDbSpline
210
0.0
220
0.0
230
1.0
 70
     8
 71
     3
 72
     9
 73
     5
 74
     0
 42
0.00000001
 43
0.00000001
 40
0.0
 40
0.0
 40
0.0
 40
0.0
 40
0.5599987526606142
 40
1.0
 40
1.0
 40
1.0
 40
1.0
 10
213.2599302168768
 20
95.49474840486977
 30
0.0
 10
213.2716718033992
 20
94.56690710502046
 30
0.0
 10
213.2926389688913
 20
92.91004395052046
 30
0.0
 10
213.3137791692634
 20
91.25093525061001
 30
0.0
 10
213.3230808837961
 20
90.52092535317777
 30
0.0
  0
LINE
  5
18B
330
1F
100
AcDbEntity
  8
0
  6
Continuous
 62
     7
370
    25
100
AcDbLine
 10
212.7567436037
 20
90.5209253532
 30
0.0
 11
212.5400473651
 21
99.0157537896
 31
0.0
  0
LINE
  5
18C
330
1F
100
AcDbEntity
  8
0
  6
Continuous
 62
     7
370
    25
100
AcDbLine
 10
212.5486157306
 20
99.2999837945
 30
0.0
 11
213.4461836982
 21
99.2999837945
 31
0.0
  0
LINE
  5
18D
330
1F
100
AcDbEntity
  8
0
  6
Continuous
 62
     7
370
    25
100
AcDbLine
 10
213.4461836982
 20
99.2999837945
 30
0.0
 11
213.5759596114
 21
96.4685714566
 31
0.0
  0
LINE
  5
18E
330
1F
100
AcDbEntity
  8
0
  6
Continuous
 62
     7
370
    25
100
AcDbLine
 10
210.0919104891
 20
99.9816599307
 30
0.0
 11
209.1943425215
 21
99.9816599307
 31
0.0
  0
SPLINE
  5
18F
330
1F
100
AcDbEntity
  8
0
  6
Continuous
 62
     7
370
    25
100
AcDbSpline
210
0.0
220
0.0
230
1.0
 70
     8
 71
     3
 72
    11
 73
     7
 74
     0
 42
0.00000001
 43
0.00000001
 40
0.0
 40
0.0
 40
0.0
 40
0.0
 40
0.2499999999999982
 40
0.4999999999999978
 40
0.750000000000001
 40
1.0
 40
1.0
 40
1.0
 40
1.0
 10
208.4948221843664
 20
99.29998379453147
 30
0.0
 10
208.507342700589
 20
99.38988284165848
 30
0.0
 10
208.5323837330341
 20
99.5696809359125
 30
0.0
 10
208.6950272026567
 20
99.79439714514746
 30
0.0
 10
208.9238469387112
 20
99.95115823017696
 30
0.0
 10
209.1041773272574
 20
99.97149269720296
 30
0.0
 10
209.1943425215305
 20
99.98165993071595
 30
0.0
  0
LINE
  5
190
330
1F
100
AcDbEntity
  8
0
  6
Continuous
 62
     7
370
    25
100
AcDbLine
 10
212.7466633611
 20
99.9816599307
 30
0.0
 11
211.8490953934
 21
99.9816599307
 31
0.0
  0
SPLINE
  5
191
330
1F
100
AcDbEntity
  8
0
  6
Continuous
 62
     7
370
    25
100
AcDbSpline
210
0.0
220
0.0
230
1.0
 70
     8
 71
     3
 72
    11
 73
     7
 74
     0
 42
0.00000001
 43
0.00000001
 40
0.0
 40
0.0
 40
0.0
 40
0.0
 40
0.2499999999999988
 40
0.5000000000000004
 40
0.7499999999999976
 40
1.0
 40
1.0
 40
1.0
 40
1.0
 10
212.7466633610675
 20
99.98165993071595
 30
0.0
 10
212.8368285553407
 20
99.97149269720296
 30
0.0
 10
213.0171589438869
 20
99.95115823017696
 30
0.0
 10
213.2459786799413
 20
99.79439714514743
 30
0.0
 10
213.4086221495639
 20
99.5696809359125
 30
0.0
 10
213.4336631820091
 20
99.38988284165848
 30
0.0
 10
213.4461836982317
 20
99.29998379453146
 30
0.0
  0
LINE
  5
192
330
1F
100
AcDbEntity
  8
0
  6
Continuous
 62
     7
370
    25
100
AcDbLine
 10
208.1055545291
 20
95.9816599307
 30
0.0
 11
207.8714593953
 21
95.9816599307
 31
0.0
  0
SPLINE
  5
193
330
1F
100
AcDbEntity
  8
0
  6
Continuous
 62
     7
370
    25
100
AcDbSpline
210
0.0
220
0.0
230
1.0
 70
     8
 71
     3
 72
    10
 73
     6
 74
     0
 42
0.00000001
 43
0.00000001
 40
0.0
 40
0.0
 40
0.0
 40
0.0
 40
0.2383396858856107
 40
0.571650633368965
 40
1.0
 40
1.0
 40
1.0
 40
1.0
 10
208.1119804992443
 20
95.98165993071586
 30
0.0
 10
208.1865787016712
 20
95.99061867363551
 30
0.0
 10
208.365500266945
 20
96.01210595153123
 30
0.0
 10
208.6018443792
 20
96.18576833448434
 30
0.0
 10
208.6604277553855
 20
96.3667751937389
 30
0.0
 10
208.6933744005226
 20
96.4685714565621
 30
0.0
  0
SPLINE
  5
194
330
1F
100
AcDbEntity
  8
0
  6
Continuous
 62
     7
370
    25
100
AcDbSpline
210
0.0
220
0.0
230
1.0
 70
     8
 71
     3
 72
    11
 73
     7
 74
     0
 42
0.00000001
 43
0.00000001
 40
0.0
 40
0.0
 40
0.0
 40
0.0
 40
0.2506671725023492
 40
0.5010414677145718
 40
0.7508849997170933
 40
1.0
 40
1.0
 40
1.0
 40
1.0
 10
208.6179249988019
 20
90.52092535317777
 30
0.0
 10
208.5910504321467
 20
90.55043137317695
 30
0.0
 10
208.5373326988406
 20
90.60940893860455
 30
0.0
 10
208.2518672351867
 20
90.69614220741626
 30
0.0
 10
207.830339088567
 20
90.78046323764278
 30
0.0
 10
207.41398201087
 20
90.83304623025734
 30
0.0
 10
207.2061074344935
 20
90.85929933822618
 30
0.0
  0
SPLINE
  5
195
330
1F
100
AcDbEntity
  8
0
  6
Continuous
 62
     7
370
    25
100
AcDbSpline
210
0.0
220
0.0
230
1.0
 70
     8
 71
     3
 72
     9
 73
     5
 74
     0
 42
0.00000001
 43
0.00000001
 40
0.0
 40
0.0
 40
0.0
 40
0.0
 40
0.501325902198991
 40
1.0
 40
1.0
 40
1.0
 40
1.0
 10
207.2061073811293
 20
90.85929910393895
 30
0.0
 10
207.0810647236592
 20
90.87072095105155
 30
0.0
 10
206.8316408320917
 20
90.89350422848152
 30
0.0
 10
206.5298727236704
 20
90.89056627457403
 30
0.0
 10
206.3793887844583
 20
90.88910119305983
 30
0.0
  0
LINE
  5
196
330
1F
100
AcDbEntity
  8
0
  6
Continuous
 62
     7
370
    25
100
AcDbLine
 10
206.2646223451
 20
94.4817709366
 30
0.0
 11
206.3793975526
 21
90.88920085
 31
0.0
  0
SPLINE
  5
197
330
1F
100
AcDbEntity
  8
0
  6
Continuous
 62
     7
370
    25
100
AcDbSpline
210
0.0
220
0.0
230
1.0
 70
     8
 71
     3
 72
    14
 73
    10
 74
     0
 42
0.00000001
 43
0.00000001
 40
0.0
 40
0.0
 40
0.0
 40
0.0
 40
0.0829413618596714
 40
0.1664594845668882
 40
0.2437726390188662
 40
0.3161479456895724
 40
0.4353725718192331
 40
0.6486290670514194
 40
1.0
 40
1.0
 40
1.0
 40
1.0
 10
206.2646223499617
 20
94.48177092397665
 30
0.0
 10
206.2664375395441
 20
94.57163483156653
 30
0.0
 10
206.2700805412443
 20
94.75198754585986
 30
0.0
 10
206.3517416737319
 20
95.03987225664575
 30
0.0
 10
206.4850251540167
 20
95.29139828407249
 30
0.0
 10
206.6733516102543
 20
95.52534761397352
 30
0.0
 10
206.9716186899167
 20
95.76615858448149
 30
0.0
 10
207.429645848702
 20
95.95810018772089
 30
0.0
 10
207.7019813773799
 20
95.97261349134376
 30
0.0
 10
207.8714573610297
 20
95.981645204611
 30
0.0
  0
LINE
  5
198
330
1F
100
AcDbEntity
  8
0
  6
Continuous
 62
     7
370
    25
100
AcDbLine
 10
215.56160833
 20
90.8892008501
 30
0.0
 11
215.6763835375
 21
94.4817709366
 31
0.0
  0
SPLINE
  5
199
330
1F
100
AcDbEntity
  8
0
  6
Continuous
 62
     7
370
    25
100
AcDbSpline
210
0.0
220
0.0
230
1.0
 70
     8
 71
     3
 72
     9
 73
     5
 74
     0
 42
0.00000001
 43
0.00000001
 40
0.0
 40
0.0
 40
0.0
 40
0.0
 40
0.4986740982738612
 40
1.0
 40
1.0
 40
1.0
 40
1.0
 10
215.5616172799749
 20
90.88910036365664
 30
0.0
 10
215.4111333436959
 20
90.89056544291329
 30
0.0
 10
215.1093652414425
 20
90.89350339229088
 30
0.0
 10
214.8599413498203
 20
90.87072011335917
 30
0.0
 10
214.7348986924407
 20
90.85929826550446
 30
0.0
  0
SPLINE
  5
19A
330
1F
100
AcDbEntity
  8
0
  6
Continuous
 62
     7
370
    25
100
AcDbSpline
210
0.0
220
0.0
230
1.0
 70
     8
 71
     3
 72
    11
 73
     7
 74
     0
 42
0.00000001
 43
0.00000001
 40
0.0
 40
0.0
 40
0.0
 40
0.0
 40
0.2491150002829079
 40
0.4989585322854286
 40
0.7493328274976518
 40
1.0
 40
1.0
 40
1.0
 40
1.0
 10
214.7348984481045
 20
90.85929933822618
 30
0.0
 10
214.527023871728
 20
90.83304623025735
 30
0.0
 10
214.1106667940311
 20
90.78046323764278
 30
0.0
 10
213.6891386474114
 20
90.69614220741627
 30
0.0
 10
213.4036731837575
 20
90.60940893860453
 30
0.0
 10
213.3499554504513
 20
90.55043137317695
 30
0.0
 10
213.3230808837961
 20
90.52092535317777
 30
0.0
  0
SPLINE
  5
19B
330
1F
100
AcDbEntity
  8
0
  6
Continuous
 62
     7
370
    25
100
AcDbSpline
210
0.0
220
0.0
230
1.0
 70
     8
 71
     3
 72
    10
 73
     6
 74
     0
 42
0.00000001
 43
0.00000001
 40
0.0
 40
0.0
 40
0.0
 40
0.0
 40
0.428349366631063
 40
0.7616603141144169
 40
1.0
 40
1.0
 40
1.0
 40
1.0
 10
213.2476314820754
 20
96.4685714565621
 30
0.0
 10
213.2805781272125
 20
96.36677519373896
 30
0.0
 10
213.339161503398
 20
96.18576833448442
 30
0.0
 10
213.5755056156529
 20
96.01210595153131
 30
0.0
 10
213.7544271809267
 20
95.99061867363552
 30
0.0
 10
213.8290253833536
 20
95.98165993071586
 30
0.0
  0
LINE
  5
19C
330
1F
100
AcDbEntity
  8
0
  6
Continuous
 62
     7
370
    25
100
AcDbLine
 10
213.8354513537
 20
95.9816599307
 30
0.0
 11
214.0695464875
 21
95.9816599307
 31
0.0
  0
SPLINE
  5
19D
330
1F
100
AcDbEntity
  8
0
  6
Continuous
 62
     7
370
    25
100
AcDbSpline
210
0.0
220
0.0
230
1.0
 70
     8
 71
     3
 72
    15
 73
    11
 74
     0
 42
0.00000001
 43
0.00000001
 40
0.0
 40
0.0
 40
0.0
 40
0.0
 40
0.2091652517822448
 40
0.4176299509274911
 40
0.5931463878153098
 40
0.6923603779431111
 40
0.7731125739307029
 40
0.8543366880968446
 40
0.9261517123972134
 40
1.0
 40
1.0
 40
1.0
 40
1.0
 10
214.0695485217998
 20
95.98164520460995
 30
0.0
 10
214.1672461542892
 20
95.97855371411148
 30
0.0
 10
214.3623142027086
 20
95.97238108737655
 30
0.0
 10
214.711594056061
 20
95.88210762756633
 30
0.0
 10
215.0444842430045
 20
95.71350117546292
 30
0.0
 10
215.3061023290405
 20
95.48405246740995
 30
0.0
 10
215.4866963419543
 20
95.24627342415363
 30
0.0
 10
215.6087905052646
 20
94.98435692731513
 30
0.0
 10
215.6728404945831
 20
94.71881535257715
 30
0.0
 10
215.6751915806209
 20
94.56151762155557
 30
0.0
 10
215.6763835326344
 20
94.48177092399682
 30
0.0
  0
SPLINE
  5
19E
330
1F
100
AcDbEntity
  8
0
  6
Continuous
 62
     7
370
    25
100
AcDbSpline
210
0.0
220
0.0
230
1.0
 70
     8
 71
     3
 72
    11
 73
     7
 74
     0
 42
0.00000001
 43
0.00000001
 40
0.0
 40
0.0
 40
0.0
 40
0.0
 40
0.279563842830426
 40
0.5590315778757569
 40
0.7794196683313495
 40
1.0
 40
1.0
 40
1.0
 40
1.0
 10
207.2061074344935
 20
90.85929933822618
 30
0.0
 10
207.1823582583666
 20
90.60203372804534
 30
0.0
 10
207.1348680705474
 20
90.08759094983601
 30
0.0
 10
207.4705551519656
 20
89.44507675059687
 30
0.0
 10
207.9492700412289
 20
89.05340344940294
 30
0.0
 10
208.3011556118983
 20
89.00558138632496
 30
0.0
 10
208.4771750999009
 20
88.98165993071595
 30
0.0
  0
SPLINE
  5
19F
330
1F
100
AcDbEntity
  8
0
  6
Continuous
 62
     7
370
    25
100
AcDbSpline
210
0.0
220
0.0
230
1.0
 70
    24
 71
     3
 72
    11
 73
     7
 74
     0
 42
0.00000001
 43
0.00000001
 40
0.0
 40
0.0
 40
0.0
 40
0.0
 40
0.2799317596299056
 40
0.5599103390525024
 40
0.7799480709991913
 40
1.0
 40
1.0
 40
1.0
 40
1.0
 10
208.4771750999009
 20
88.98165993071595
 30
0.0
 10
208.7447430573404
 20
88.98165993071595
 30
0.0
 10
209.279923724113
 20
88.98165993071594
 30
0.0
 10
209.7537905177755
 20
88.98165993071595
 30
0.0
 10
210.0390402753242
 20
88.98165993071594
 30
0.0
 10
210.0909443002214
 20
88.98165993071595
 30
0.0
 10
210.1168971498678
 20
88.98165993071595
 30
0.0
  0
SPLINE
  5
1A0
330
1F
100
AcDbEntity
  8
0
  6
Continuous
 62
     7
370
    25
100
AcDbSpline
210
0.0
220
0.0
230
1.0
 70
     8
 71
     3
 72
    11
 73
     7
 74
     0
 42
0.00000001
 43
0.00000001
 40
0.0
 40
0.0
 40
0.0
 40
0.0
 40
0.2795638428677817
 40
0.5590315779132448
 40
0.7794196683689383
 40
0.9999999999999999
 40
0.9999999999999999
 40
0.9999999999999999
 40
0.9999999999999999
 10
213.4638307826971
 20
88.98165993071595
 30
0.0
 10
213.6878111982634
 20
89.02017878266405
 30
0.0
 10
214.1356950299179
 20
89.09720324463687
 30
0.0
 10
214.5956352650233
 20
89.63000114242655
 30
0.0
 10
214.8070097059226
 20
90.25773770929295
 30
0.0
 10
214.7589425190433
 20
90.65872052546159
 30
0.0
 10
214.7348984481045
 20
90.85929933822618
 30
0.0
  0
SPLINE
  5
1A1
330
1F
100
AcDbEntity
  8
0
  6
Continuous
 62
     7
370
    25
100
AcDbSpline
210
0.0
220
0.0
230
1.0
 70
    24
 71
     3
 72
    11
 73
     7
 74
     0
 42
0.00000001
 43
0.00000001
 40
0.0
 40
0.0
 40
0.0
 40
0.0
 40
0.2799857774483057
 40
0.5599458358671288
 40
0.779998565900937
 40
0.9999999999999999
 40
0.9999999999999999
 40
0.9999999999999999
 40
0.9999999999999999
 10
211.8241087327302
 20
88.98165993071595
 30
0.0
 10
211.8618624523381
 20
88.98165993071596
 30
0.0
 10
211.9373664235597
 20
88.98165993071595
 30
0.0
 10
212.3189195738685
 20
88.98165993071595
 30
0.0
 10
212.8223502556816
 20
88.98165993071595
 30
0.0
 10
213.250020557819
 20
88.98165993071595
 30
0.0
 10
213.4638307826971
 20
88.98165993071595
 30
0.0
  0
SPLINE
  5
1A2
330
1F
100
AcDbEntity
  8
0
  6
Continuous
 62
     7
370
    25
100
AcDbSpline
210
0.0
220
0.0
230
1.0
 70
     8
 71
     3
 72
    11
 73
     7
 74
     0
 42
0.00000001
 43
0.00000001
 40
0.0
 40
0.0
 40
0.0
 40
0.0
 40
0.2499999999999989
 40
0.4999999999999996
 40
0.749999999999999
 40
1.0
 40
1.0
 40
1.0
 40
1.0
 10
214.0756169951036
 20
95.98165993071595
 30
0.0
 10
214.0112132849085
 20
95.9889222403681
 30
0.0
 10
213.8824058645183
 20
96.00344685967237
 30
0.0
 10
213.718963195908
 20
96.11541906326487
 30
0.0
 10
213.6027892890347
 20
96.27593064128983
 30
0.0
 10
213.5849028372882
 20
96.40435785147127
 30
0.0
 10
213.5759596114149
 20
96.468571456562
 30
0.0
  0
SPLINE
  5
1A3
330
1F
100
AcDbEntity
  8
0
  6
Continuous
 62
     7
370
    25
100
AcDbSpline
210
0.0
220
0.0
230
1.0
 70
     8
 71
     3
 72
    11
 73
     7
 74
     0
 42
0.00000001
 43
0.00000001
 40
0.0
 40
0.0
 40
0.0
 40
0.0
 40
0.2500000000000009
 40
0.5000000000000002
 40
0.7500000000000007
 40
0.9999999999999999
 40
0.9999999999999999
 40
0.9999999999999999
 40
0.9999999999999999
 10
208.3650462711831
 20
96.468571456562
 30
0.0
 10
208.3561030453099
 20
96.40435785147127
 30
0.0
 10
208.3382165935633
 20
96.27593064128983
 30
0.0
 10
208.22204268669
 20
96.11541906326485
 30
0.0
 10
208.0586000180797
 20
96.00344685967237
 30
0.0
 10
207.9297925976895
 20
95.98892224036808
 30
0.0
 10
207.8653888874944
 20
95.98165993071595
 30
0.0
  0
SPLINE
  5
1A4
330
1F
100
AcDbEntity
  8
0
  6
Continuous
 62
     7
370
    25
100
AcDbSpline
210
0.0
220
0.0
230
1.0
 70
     8
 71
     3
 72
     9
 73
     5
 74
     0
 42
0.00000001
 43
0.00000001
 40
0.0
 40
0.0
 40
0.0
 40
0.0
 40
0.5642319118445199
 40
1.0
 40
1.0
 40
1.0
 40
1.0
 10
206.2687878962996
 20
88.80620696956682
 30
0.0
 10
206.7442195075731
 20
88.85978893829414
 30
0.0
 10
207.5868368804885
 20
88.95475338040121
 30
0.0
 10
208.2069497153936
 20
88.97349355894168
 30
0.0
 10
208.4771750999009
 20
88.98165993071595
 30
0.0
  0
SPLINE
  5
1A5
330
1F
100
AcDbEntity
  8
0
  6
Continuous
 62
     7
370
    25
100
AcDbSpline
210
0.0
220
0.0
230
1.0
 70
     8
 71
     3
 72
    13
 73
     9
 74
     0
 42
0.00000001
 43
0.00000001
 40
0.0
 40
0.0
 40
0.0
 40
0.0
 40
0.0926677825201017
 40
0.1856533156297215
 40
0.2733112842947874
 40
0.413548892575832
 40
0.6528449691515644
 40
1.0
 40
1.0
 40
1.0
 40
1.0
 10
206.3793878820574
 20
90.88910044436516
 30
0.0
 10
206.3818225495085
 20
90.79486572724637
 30
0.0
 10
206.3867002326952
 20
90.6060731695229
 30
0.0
 10
206.3866257455492
 20
90.29286276530203
 30
0.0
 10
206.3802386884929
 20
89.95112863050896
 30
0.0
 10
206.3623240423961
 20
89.53427447360556
 30
0.0
 10
206.3252623016296
 20
89.05104582794272
 30
0.0
 10
206.2897875160758
 20
88.89724861758944
 30
0.0
 10
206.2687878962996
 20
88.80620696956683
 30
0.0
  0
SPLINE
  5
1A6
330
1F
100
AcDbEntity
  8
0
  6
Continuous
 62
     7
370
    25
100
AcDbSpline
210
0.0
220
0.0
230
1.0
 70
     8
 71
     3
 72
     9
 73
     5
 74
     0
 42
0.00000001
 43
0.00000001
 40
0.0
 40
0.0
 40
0.0
 40
0.0
 40
0.5551829690770672
 40
1.0
 40
1.0
 40
1.0
 40
1.0
 10
213.4638307826971
 20
88.98165993071595
 30
0.0
 10
213.8140852414452
 20
88.9686609102249
 30
0.0
 10
214.444966371193
 20
88.94524697064986
 30
0.0
 10
215.294383002392
 20
88.84901333129815
 30
0.0
 10
215.6722179862984
 20
88.80620696956682
 30
0.0
  0
SPLINE
  5
1A7
330
1F
100
AcDbEntity
  8
0
  6
Continuous
 62
     7
370
    25
100
AcDbSpline
210
0.0
220
0.0
230
1.0
 70
     8
 71
     3
 72
    13
 73
     9
 74
     0
 42
0.00000001
 43
0.00000001
 40
0.0
 40
0.0
 40
0.0
 40
0.0
 40
0.3327087167328941
 40
0.5628656559531299
 40
0.69871241253847
 40
0.8016200683166478
 40
0.9052998751809794
 40
1.0
 40
1.0
 40
1.0
 40
1.0
 10
215.6722179862984
 20
88.80620696956682
 30
0.0
 10
215.6520851623913
 20
88.89199254448498
 30
0.0
 10
215.6180251135717
 20
89.03712175652298
 30
0.0
 10
215.5819392622015
 20
89.48748845295026
 30
0.0
 10
215.5629005391128
 20
89.88722960155614
 30
0.0
 10
215.5546270051603
 20
90.2431218479677
 30
0.0
 10
215.55395074297
 20
90.59055569500192
 30
0.0
 10
215.5591405537378
 20
90.79263456618101
 30
0.0
 10
215.5616180005406
 20
90.88910044436516
 30
0.0
  0
SPLINE
  5
1A8
330
1F
100
AcDbEntity
  8
0
  6
Continuous
 62
     7
370
    25
100
AcDbSpline
210
0.0
220
0.0
230
1.0
 70
     8
 71
     3
 72
    13
 73
     9
 74
     0
 42
0.00000001
 43
0.00000001
 40
0.0
 40
0.0
 40
0.0
 40
0.0
 40
0.1400312919410834
 40
0.2800978778503041
 40
0.4240602241121907
 40
0.5680316995452359
 40
0.7822812815056388
 40
0.9999999999999999
 40
0.9999999999999999
 40
0.9999999999999999
 40
0.9999999999999999
 10
208.6962804097942
 20
84.36954312964451
 30
0.0
 10
208.6074347894849
 20
84.68766874978512
 30
0.0
 10
208.4297211559108
 20
85.32400017154112
 30
0.0
 10
208.0755051369124
 20
86.15710826296456
 30
0.0
 10
207.6843292110994
 20
86.89940503766744
 30
0.0
 10
207.2095564478317
 20
87.63786340946359
 30
0.0
 10
206.6692062643106
 20
88.32101803414585
 30
0.0
 10
206.390745644887
 20
88.61158319048545
 30
0.0
 10
206.2503971768438
 20
88.75803253274219
 30
0.0
  0
ELLIPSE
  5
1A9
330
1F
100
AcDbEntity
  8
0
  6
Continuous
 62
     7
370
    25
100
AcDbEllipse
 10
206.4121820205
 20
69.9086526835
 30
0.0
 11
0.0
 21
19.07300724724768
 31
0.0
210
0.0
220
0.0
230
1.0
 40
0.0555555556
 41
0.1357435643136148
 42
0.1532827087060954
  0
ELLIPSE
  5
1AA
330
1F
100
AcDbEntity
  8
0
  6
Continuous
 62
     7
370
    25
100
AcDbEllipse
 10
215.5288238621
 20
69.9086526835
 30
0.0
 11
0.0
 21
19.07300724724768
 31
0.0
210
0.0
220
0.0
230
1.0
 40
0.0555555556
 41
6.129902598473734
 42
6.147441742866274
  0
SPLINE
  5
1AB
330
1F
100
AcDbEntity
  8
0
  6
Continuous
 62
     7
370
    25
100
AcDbSpline
210
0.0
220
0.0
230
1.0
 70
     8
 71
     3
 72
    13
 73
     9
 74
     0
 42
0.00000001
 43
0.00000001
 40
0.0
 40
0.0
 40
0.0
 40
0.0
 40
0.1374692963454099
 40
0.2749820892813126
 40
0.4163021045260215
 40
0.5576318202769774
 40
0.777008491451321
 40
1.0
 40
1.0
 40
1.0
 40
1.0
 10
215.6906087057542
 20
88.75803253274219
 30
0.0
 10
215.6073302261383
 20
88.67179212331331
 30
0.0
 10
215.440746916805
 20
88.49928401717119
 30
0.0
 10
215.0950467435761
 20
88.1003019438482
 30
0.0
 10
214.7114824288848
 20
87.59999253237594
 30
0.0
 10
214.2362247132863
 20
86.8711720607732
 30
0.0
 10
213.6901219453676
 20
85.85495311057153
 30
0.0
 10
213.3939975635747
 20
84.867369824268
 30
0.0
 10
213.2447254738521
 20
84.36954313391206
 30
0.0
  0
LINE
  5
1AC
330
1F
100
AcDbEntity
  8
0
  6
Continuous
 62
     7
370
    25
100
AcDbLine
 10
208.6962804098
 20
84.3695431296
 30
0.0
 11
213.2447254739
 21
84.3695431339
 31
0.0
  0
LINE
  5
1AD
330
1F
100
AcDbEntity
  8
0
  6
Continuous
 62
     7
370
    25
100
AcDbLine
 10
205.7460739873
 20
94.4816599307
 30
0.0
 11
206.2646116546
 21
94.4816599307
 31
0.0
  0
ARC
  5
1AE
330
1F
100
AcDbEntity
  8
0
  6
Continuous
 62
     7
370
    25
100
AcDbCircle
 10
199.4705029413
 20
82.103482649
 30
0.0
 40
9.499999999999993
100
AcDbArc
 50
44.4654416734
 51
48.6553876907
  0
LINE
  5
1AF
330
1F
100
AcDbEntity
  8
0
  6
Continuous
 62
     7
370
    25
100
AcDbLine
 10
205.7460739873
 20
89.2356077213
 30
0.0
 11
205.7460739873
 21
94.4816599307
 31
0.0
  0
LINE
  5
1B0
330
1F
100
AcDbEntity
  8
0
  6
Continuous
 62
     7
370
    25
100
AcDbLine
 10
216.1949318953
 20
94.4816599307
 30
0.0
 11
216.1949318953
 21
89.2356077213
 31
0.0
  0
ARC
  5
1B1
330
1F
100
AcDbEntity
  8
0
  6
Continuous
 62
     7
370
    25
100
AcDbCircle
 10
222.4705029413
 20
82.103482649
 30
0.0
 40
9.50000000000001
100
AcDbArc
 50
131.3446123093
 51
135.5345583266
  0
LINE
  5
1B2
330
1F
100
AcDbEntity
  8
0
  6
Continuous
 62
     7
370
    25
100
AcDbLine
 10
215.676394228
 20
94.4816599307
 30
0.0
 11
216.1949318953
 21
94.4816599307
 31
0.0
  0
ARC
  5
1B3
330
1F
100
AcDbEntity
  8
0
  6
Continuous
 62
     7
370
    25
100
AcDbCircle
 10
214.6960857401
 20
94.4828137769
 30
0.0
 40
1.498846599345463
100
AcDbArc
 50
359.9558924033
 51
89.9558243884
  0
LINE
  5
1B4
330
1F
100
AcDbEntity
  8
0
  6
Continuous
 62
     7
370
    25
100
AcDbLine
 10
214.6972413655
 20
95.9816599307
 30
0.0
 11
214.0630341831
 21
95.9816599307
 31
0.0
  0
ARC
  5
1B5
330
1F
100
AcDbEntity
  8
0
  6
Continuous
 62
     7
370
    25
100
AcDbCircle
 10
207.2449201425
 20
94.4828137769
 30
0.0
 40
1.498846599345509
100
AcDbArc
 50
90.0441756116
 51
180.0441075967
  0
LINE
  5
1B6
330
1F
100
AcDbEntity
  8
0
  6
Continuous
 62
     7
370
    25
100
AcDbLine
 10
207.8779716995
 20
95.9816599307
 30
0.0
 11
207.2437645171
 21
95.9816599307
 31
0.0
  0
LINE
  5
1B7
330
1F
100
AcDbEntity
  8
0
  6
Continuous
 62
     7
370
    25
100
AcDbLine
 10
208.4105071488
 20
96.4114674455
 30
0.0
 11
208.3725170565
 21
96.459187304
 31
0.0
  0
LINE
  5
1B8
330
1F
100
AcDbEntity
  8
0
  6
Continuous
 62
     7
370
    25
100
AcDbLine
 10
213.5684888261
 20
96.459187304
 30
0.0
 11
213.5304987337
 21
96.4114674455
 31
0.0
  0
ELLIPSE
  5
1B9
330
1F
100
AcDbEntity
  8
0
  6
Continuous
 62
     7
370
    25
100
AcDbEllipse
 10
211.9462517047
 20
99.2816599307
 30
0.0
 11
1.500207016110437
 21
0.02894030982645291
 31
0.0
210
0.0
220
0.0
230
1.0
 40
0.2796306798
 41
6.257897524076055
 42
6.352604430584123
  0
LINE
  5
1BA
330
1F
100
AcDbEntity
  8
0
  6
Continuous
 62
     7
370
    25
100
AcDbLine
 10
205.7538716288
 20
89.2287052985
 30
0.0
 11
205.7460739873
 21
89.2356077213
 31
0.0
  0
LINE
  5
1BB
330
1F
100
AcDbEntity
  8
0
  6
Continuous
 62
     7
370
    25
100
AcDbLine
 10
216.1949318953
 20
89.2356077213
 30
0.0
 11
216.1871342538
 21
89.2287052985
 31
0.0
  0
SPLINE
  5
1BC
330
1F
100
AcDbEntity
  8
0
  6
Continuous
 62
     7
370
    25
100
AcDbSpline
210
0.0
220
0.0
230
1.0
 70
     8
 71
     3
 72
     9
 73
     5
 74
     0
 42
0.00000001
 43
0.00000001
 40
0.0
 40
0.0
 40
0.0
 40
0.0
 40
0.0576289627817999
 40
1.0
 40
1.0
 40
1.0
 40
1.0
 10
212.7330164918269
 20
84.36954313343196
 30
0.0
 10
212.7281604197311
 20
84.3520398604136
 30
0.0
 10
212.6438959828689
 20
84.04831631285228
 30
0.0
 10
212.5969378596977
 20
83.70573611841516
 30
0.0
 10
212.5526858844591
 20
83.38289846525302
 30
0.0
  0
SPLINE
  5
1BD
330
1F
100
AcDbEntity
  8
0
  6
Continuous
 62
     7
370
    25
100
AcDbSpline
210
0.0
220
0.0
230
1.0
 70
     8
 71
     3
 72
    10
 73
     6
 74
     0
 42
0.00000001
 43
0.00000001
 40
0.0
 40
0.0
 40
0.0
 40
0.0
 40
0.2746918501531821
 40
0.5573359346812419
 40
1.0
 40
1.0
 40
1.0
 40
1.0
 10
212.5526858844591
 20
83.38289846525302
 30
0.0
 10
212.2680651261047
 20
83.43612250841615
 30
0.0
 10
211.6905839365513
 20
83.54411141244545
 30
0.0
 10
210.6115659933845
 20
83.585897485684
 30
0.0
 10
209.8519329489518
 20
83.45983554515347
 30
0.0
 10
209.388319998139
 20
83.38289846525302
 30
0.0
  0
LINE
  5
1BE
330
1F
100
AcDbEntity
  8
0
  6
Continuous
 62
     7
370
    25
100
AcDbLine
 10
209.3883199981
 20
83.3828984653
 30
0.0
 11
209.1730852124
 21
84.3695431301
 31
0.0
  0
LINE
  5
1BF
330
1F
100
AcDbEntity
  8
0
  6
Continuous
 62
     7
370
    25
100
AcDbLine
 10
202.7905029413
 20
81.2816599307
 30
0.0
 11
211.9705029413
 21
81.2816599307
 31
0.0
  0
LWPOLYLINE
  5
1C0
330
1F
100
AcDbEntity
  8
0
  6
Continuous
 62
     7
370
    25
100
AcDbPolyline
 90
        3
 70
   128
 43
0.0
 10
202.8518577341
 20
81.2816599307
 10
202.9453414103
 20
80.3539157413
 10
202.9878702767
 20
79.9319080712
  0
LINE
  5
1C1
330
1F
100
AcDbEntity
  8
0
  6
Continuous
 62
     7
370
    25
100
AcDbLine
 10
211.9705029413
 20
79.9319080712
 30
0.0
 11
211.9705029413
 21
81.2816599307
 31
0.0
  0
LINE
  5
1C2
330
1F
100
AcDbEntity
  8
0
  6
Continuous
 62
     7
370
    25
100
AcDbLine
 10
203.4118940506
 20
97.4816599307
 30
0.0
 11
208.4106776042
 21
97.4816599307
 31
0.0
  0
LINE
  5
1C3
330
1F
100
AcDbEntity
  8
0
  6
Continuous
 62
     7
370
    25
100
AcDbLine
 10
213.5303282784
 20
97.4816599307
 30
0.0
 11
218.5291117784
 21
97.4816599307
 31
0.0
  0
SPLINE
  5
1C4
330
1F
100
AcDbEntity
  8
0
  6
Continuous
 62
     7
370
    25
100
AcDbSpline
210
0.0
220
0.0
230
1.0
 70
     8
 71
     3
 72
    12
 73
     8
 74
     0
 42
0.00000001
 43
0.00000001
 40
0.0
 40
0.0
 40
0.0
 40
0.0
 40
0.2271543139929597
 40
0.4542742953683958
 40
0.6823371405829708
 40
0.9121899191033218
 40
1.0
 40
1.0
 40
1.0
 40
1.0
 10
202.9878702766536
 20
79.93190807120546
 30
0.0
 10
202.998974221852
 20
79.87678826431107
 30
0.0
 10
203.0211804339733
 20
79.76655698145481
 30
0.0
 10
203.1216766455118
 20
79.6267029218664
 30
0.0
 10
203.2591389203422
 20
79.52645453278083
 30
0.0
 10
203.3901125036984
 20
79.48552584220609
 30
0.0
 10
203.4680054875132
 20
79.48249714071676
 30
0.0
 10
203.4895370862107
 20
79.48165993071596
 30
0.0
  0
LINE
  5
1C5
330
1F
100
AcDbEntity
  8
0
  6
Continuous
 62
     7
370
    25
100
AcDbLine
 10
218.5180091602
 20
79.4816599307
 30
0.0
 11
211.9705029413
 21
79.4816599307
 31
0.0
  0
SPLINE
  5
1C6
330
1F
100
AcDbEntity
  8
0
  6
Continuous
 62
     7
370
    25
100
AcDbSpline
210
0.0
220
0.0
230
1.0
 70
    24
 71
     3
 72
    12
 73
     8
 74
     0
 42
0.00000001
 43
0.00000001
 40
0.0
 40
0.0
 40
0.0
 40
0.0
 40
0.2316347876629375
 40
0.46330664808196
 40
0.6939442291381526
 40
0.9227406525226395
 40
1.0
 40
1.0
 40
1.0
 40
1.0
 10
211.970502941299
 20
79.48165993071596
 30
0.0
 10
211.970502941299
 20
79.48724939574622
 30
0.0
 10
211.970502941299
 20
79.49842922039119
 30
0.0
 10
211.970502941299
 20
79.58575228634686
 30
0.0
 10
211.970502941299
 20
79.71406246012891
 30
0.0
 10
211.970502941299
 20
79.83874188682672
 30
0.0
 10
211.970502941299
 20
79.91312989558003
 30
0.0
 10
211.970502941299
 20
79.93190807120546
 30
0.0
  0
SPLINE
  5
1C7
330
1F
100
AcDbEntity
  8
0
  6
Continuous
 62
     7
370
    25
100
AcDbSpline
210
0.0
220
0.0
230
1.0
 70
     8
 71
     3
 72
    11
 73
     7
 74
     0
 42
0.00000001
 43
0.00000001
 40
0.0
 40
0.0
 40
0.0
 40
0.0
 40
0.2981995125517625
 40
0.5964325929955623
 40
0.8933636912282922
 40
1.0
 40
1.0
 40
1.0
 40
1.0
 10
205.0544231581994
 20
79.48165993071596
 30
0.0
 10
205.1704456498078
 20
79.49285669632157
 30
0.0
 10
205.4025036935102
 20
79.51525148793668
 30
0.0
 10
205.7044075436785
 20
79.6946004140808
 30
0.0
 10
205.9043546720983
 20
79.8927471076501
 30
0.0
 10
205.956677469157
 20
80.04036352950162
 30
0.0
 10
205.970502941299
 20
80.07936883584479
 30
0.0
  0
LINE
  5
1C8
330
1F
100
AcDbEntity
  8
0
  6
Continuous
 62
     7
370
    25
100
AcDbLine
 10
205.9705029413
 20
79.4816599307
 30
0.0
 11
205.0544231582
 21
79.4816599307
 31
0.0
  0
LINE
  5
1C9
330
1F
100
AcDbEntity
  8
0
  6
Continuous
 62
     7
370
    25
100
AcDbLine
 10
203.4895370862
 20
79.4816599307
 30
0.0
 11
205.0544231582
 21
79.4816599307
 31
0.0
  0
LINE
  5
1CA
330
1F
100
AcDbEntity
  8
0
  6
Continuous
 62
     7
370
    25
100
AcDbLine
 10
211.7452297138
 20
80.9816599307
 30
0.0
 11
211.7705029413
 21
80.9816599307
 31
0.0
  0
LINE
  5
1CB
330
1F
100
AcDbEntity
  8
0
  6
Continuous
 62
     7
370
    25
100
AcDbLine
 10
210.1705029413
 20
80.9816599307
 30
0.0
 11
211.7452297138
 21
80.9816599307
 31
0.0
  0
CIRCLE
  5
1CC
330
1F
100
AcDbEntity
  8
0
  6
Continuous
 62
     7
370
    25
100
AcDbCircle
 10
210.9705029413
 20
60.2816599307
 30
0.0
 40
7.330999999999963
  0
CIRCLE
  5
1CD
330
1F
100
AcDbEntity
  8
0
  6
Continuous
 62
     7
370
    25
100
AcDbCircle
 10
210.9705029413
 20
60.2816599307
 30
0.0
 40
8.330999999999978
  0
CIRCLE
  5
1CE
330
1F
100
AcDbEntity
  8
0
  6
Continuous
 62
     7
370
    25
100
AcDbCircle
 10
210.9705029413
 20
60.2816599307
 30
0.0
 40
5.999999999999946
  0
CIRCLE
  5
1CF
330
1F
100
AcDbEntity
  8
0
  6
Continuous
 62
     7
370
    25
100
AcDbCircle
 10
210.9705029413
 20
60.2816599307
 30
0.0
 40
4.99999999999996
  0
CIRCLE
  5
1D0
330
1F
100
AcDbEntity
  8
0
  6
Continuous
 62
     7
370
    25
100
AcDbCircle
 10
210.9705029413
 20
60.2816599307
 30
0.0
 40
11.74999999999998
  0
CIRCLE
  5
1D1
330
1F
100
AcDbEntity
  8
0
  6
Continuous
 62
     7
370
    25
100
AcDbCircle
 10
210.9705029413
 20
60.2816599307
 30
0.0
 40
11.99999999999998
  0
ARC
  5
1D2
330
1F
100
AcDbEntity
  8
0
  6
Continuous
 62
     7
370
    25
100
AcDbCircle
 10
210.9705029413
 20
60.2816599307
 30
0.0
 40
15.24999999999998
100
AcDbArc
 50
124.9480137199
 51
145.0519862801
  0
SPLINE
  5
1D3
330
1F
100
AcDbEntity
  8
0
  6
Continuous
 62
     7
370
    25
100
AcDbSpline
210
0.0
220
0.0
230
1.0
 70
    24
 71
     3
 72
    10
 73
     6
 74
     0
 42
0.00000001
 43
0.00000001
 40
0.0
 40
0.0
 40
0.0
 40
0.0
 40
0.5
 40
0.5
 40
1.0
 40
1.0
 40
1.0
 40
1.0
 10
202.234800336471
 20
72.78165993071595
 30
0.0
 10
203.6468572673827
 20
72.78165993071595
 30
0.0
 10
205.0936401912606
 20
72.78165993071595
 30
0.0
 10
208.0069698377358
 20
72.78165993071595
 30
0.0
 10
209.4789282935917
 20
72.78165993071595
 30
0.0
 10
210.970502941299
 20
72.78165993071595
 30
0.0
  0
ARC
  5
1D4
330
1F
100
AcDbEntity
  8
0
  6
Continuous
 62
     7
370
    25
100
AcDbCircle
 10
210.9705029413
 20
60.2816599307
 30
0.0
 40
12.5
100
AcDbArc
 50
90.0
 51
180.0
  0
SPLINE
  5
1D5
330
1F
100
AcDbEntity
  8
0
  6
Continuous
 62
     7
370
    25
100
AcDbSpline
210
0.0
220
0.0
230
1.0
 70
    24
 71
     3
 72
    12
 73
     8
 74
     0
 42
0.00000001
 43
0.00000001
 40
0.0
 40
0.0
 40
0.0
 40
0.0
 40
0.25
 40
0.25
 40
0.5
 40
0.5
 40
1.0
 40
1.0
 40
1.0
 40
1.0
 10
198.470502941299
 20
60.28165993071595
 30
0.0
 10
198.470502941299
 20
61.02700614299027
 30
0.0
 10
198.470502941299
 20
61.7788329928593
 30
0.0
 10
198.470502941299
 20
63.25953345403457
 30
0.0
 10
198.470502941299
 20
63.9925050586366
 30
0.0
 10
198.470502941299
 20
66.17304917959258
 30
0.0
 10
198.470502941299
 20
67.60249277860181
 30
0.0
 10
198.470502941299
 20
69.01736253554402
 30
0.0
  0
ARC
  5
1D6
330
1F
100
AcDbEntity
  8
0
  6
Continuous
 62
     7
370
    25
100
AcDbCircle
 10
210.9705029413
 20
60.2816599307
 30
0.0
 40
15.24999999999999
100
AcDbArc
 50
214.9480137199
 51
235.0519862801
  0
ARC
  5
1D7
330
1F
100
AcDbEntity
  8
0
  6
Continuous
 62
     7
370
    25
100
AcDbCircle
 10
210.9705029413
 20
60.2816599307
 30
0.0
 40
12.50000000000001
100
AcDbArc
 50
180.0
 51
270.0
  0
SPLINE
  5
1D8
330
1F
100
AcDbEntity
  8
0
  6
Continuous
 62
     7
370
    25
100
AcDbSpline
210
0.0
220
0.0
230
1.0
 70
    24
 71
     3
 72
    10
 73
     6
 74
     0
 42
0.00000001
 43
0.00000001
 40
0.0
 40
0.0
 40
0.0
 40
0.0
 40
0.5
 40
0.5
 40
1.0
 40
1.0
 40
1.0
 40
1.0
 10
202.234800336471
 20
47.78165993071595
 30
0.0
 10
203.6468572673824
 20
47.78165993071595
 30
0.0
 10
205.0936401912598
 20
47.78165993071595
 30
0.0
 10
208.006969837735
 20
47.78165993071595
 30
0.0
 10
209.4789282935912
 20
47.78165993071595
 30
0.0
 10
210.970502941299
 20
47.78165993071595
 30
0.0
  0
SPLINE
  5
1D9
330
1F
100
AcDbEntity
  8
0
  6
Continuous
 62
     7
370
    25
100
AcDbSpline
210
0.0
220
0.0
230
1.0
 70
    24
 71
     3
 72
    10
 73
     6
 74
     0
 42
0.00000001
 43
0.00000001
 40
0.0
 40
0.0
 40
0.0
 40
0.0
 40
0.4999999999999999
 40
0.4999999999999999
 40
1.0
 40
1.0
 40
1.0
 40
1.0
 10
198.470502941299
 20
51.54595732588789
 30
0.0
 10
198.470502941299
 20
52.95801425679966
 30
0.0
 10
198.470502941299
 20
54.40479718067752
 30
0.0
 10
198.470502941299
 20
57.3181268271527
 30
0.0
 10
198.470502941299
 20
58.79008528300869
 30
0.0
 10
198.470502941299
 20
60.28165993071595
 30
0.0
  0
ARC
  5
1DA
330
1F
100
AcDbEntity
  8
0
  6
Continuous
 62
     7
370
    25
100
AcDbCircle
 10
210.9705029413
 20
60.2816599307
 30
0.0
 40
12.50000000000003
100
AcDbArc
 50
0.0
 51
90.0
  0
ARC
  5
1DB
330
1F
100
AcDbEntity
  8
0
  6
Continuous
 62
     7
370
    25
100
AcDbCircle
 10
210.9705029413
 20
60.2816599307
 30
0.0
 40
12.50000000000003
100
AcDbArc
 50
270.0
 51
0.0
  0
ARC
  5
1DC
330
1F
100
AcDbEntity
  8
0
  6
Continuous
 62
     7
370
    25
100
AcDbCircle
 10
210.9705029413
 20
60.2816599307
 30
0.0
 40
15.25000000000002
100
AcDbArc
 50
34.9480137199
 51
55.0519862801
  0
SPLINE
  5
1DD
330
1F
100
AcDbEntity
  8
0
  6
Continuous
 62
     7
370
    25
100
AcDbSpline
210
0.0
220
0.0
230
1.0
 70
    24
 71
     3
 72
    12
 73
     8
 74
     0
 42
0.00000001
 43
0.00000001
 40
0.0
 40
0.0
 40
0.0
 40
0.0
 40
0.2500000000000001
 40
0.2500000000000001
 40
0.5000000000000001
 40
0.5000000000000001
 40
1.0
 40
1.0
 40
1.0
 40
1.0
 10
223.470502941299
 20
60.28165993071595
 30
0.0
 10
223.470502941299
 20
61.02700614299027
 30
0.0
 10
223.470502941299
 20
61.7788329928593
 30
0.0
 10
223.470502941299
 20
63.25953345403457
 30
0.0
 10
223.470502941299
 20
63.9925050586366
 30
0.0
 10
223.470502941299
 20
66.17304917959258
 30
0.0
 10
223.470502941299
 20
67.60249277860181
 30
0.0
 10
223.470502941299
 20
69.01736253554402
 30
0.0
  0
SPLINE
  5
1DE
330
1F
100
AcDbEntity
  8
0
  6
Continuous
 62
     7
370
    25
100
AcDbSpline
210
0.0
220
0.0
230
1.0
 70
    24
 71
     3
 72
    12
 73
     8
 74
     0
 42
0.00000001
 43
0.00000001
 40
0.0
 40
0.0
 40
0.0
 40
0.0
 40
0.2500000000000001
 40
0.2500000000000001
 40
0.5000000000000001
 40
0.5000000000000001
 40
1.0
 40
1.0
 40
1.0
 40
1.0
 10
210.970502941299
 20
72.78165993071595
 30
0.0
 10
211.7158491535733
 20
72.78165993071595
 30
0.0
 10
212.4676760034424
 20
72.78165993071595
 30
0.0
 10
213.9483764646176
 20
72.78165993071595
 30
0.0
 10
214.6813480692197
 20
72.78165993071595
 30
0.0
 10
216.8618921901757
 20
72.78165993071595
 30
0.0
 10
218.2913357891849
 20
72.78165993071595
 30
0.0
 10
219.7062055461271
 20
72.78165993071595
 30
0.0
  0
SPLINE
  5
1DF
330
1F
100
AcDbEntity
  8
0
  6
Continuous
 62
     7
370
    25
100
AcDbSpline
210
0.0
220
0.0
230
1.0
 70
    24
 71
     3
 72
    10
 73
     6
 74
     0
 42
0.00000001
 43
0.00000001
 40
0.0
 40
0.0
 40
0.0
 40
0.0
 40
0.5
 40
0.5
 40
1.0
 40
1.0
 40
1.0
 40
1.0
 10
223.470502941299
 20
51.54595732588789
 30
0.0
 10
223.470502941299
 20
52.95801425679966
 30
0.0
 10
223.470502941299
 20
54.40479718067752
 30
0.0
 10
223.470502941299
 20
57.3181268271527
 30
0.0
 10
223.470502941299
 20
58.79008528300868
 30
0.0
 10
223.470502941299
 20
60.28165993071595
 30
0.0
  0
ARC
  5
1E0
330
1F
100
AcDbEntity
  8
0
  6
Continuous
 62
     7
370
    25
100
AcDbCircle
 10
210.9705029413
 20
60.2816599307
 30
0.0
 40
15.25000000000002
100
AcDbArc
 50
304.9480137199
 51
325.0519862801
  0
SPLINE
  5
1E1
330
1F
100
AcDbEntity
  8
0
  6
Continuous
 62
     7
370
    25
100
AcDbSpline
210
0.0
220
0.0
230
1.0
 70
    24
 71
     3
 72
    12
 73
     8
 74
     0
 42
0.00000001
 43
0.00000001
 40
0.0
 40
0.0
 40
0.0
 40
0.0
 40
0.2500000000000001
 40
0.2500000000000001
 40
0.5000000000000001
 40
0.5000000000000001
 40
1.0
 40
1.0
 40
1.0
 40
1.0
 10
210.970502941299
 20
47.78165993071595
 30
0.0
 10
211.7158491535741
 20
47.78165993071595
 30
0.0
 10
212.467676003443
 20
47.78165993071595
 30
0.0
 10
213.9483764646178
 20
47.78165993071595
 30
0.0
 10
214.6813480692196
 20
47.78165993071594
 30
0.0
 10
216.8618921901753
 20
47.78165993071594
 30
0.0
 10
218.2913357891846
 20
47.78165993071594
 30
0.0
 10
219.7062055461271
 20
47.78165993071594
 30
0.0
  0
LINE
  5
1E2
330
1F
100
AcDbEntity
  8
0
  6
Continuous
 62
     7
370
    25
100
AcDbLine
 10
203.2205029413
 20
78.9816599307
 30
0.0
 11
218.7205029413
 21
78.9816599307
 31
0.0
  0
LINE
  5
1E3
330
1F
100
AcDbEntity
  8
0
  6
Continuous
 62
     7
370
    25
100
AcDbLine
 10
219.2205029413
 20
78.4816599307
 30
0.0
 11
202.7205029413
 21
78.4816599307
 31
0.0
  0
SPLINE
  5
1E4
330
1F
100
AcDbEntity
  8
0
  6
Continuous
 62
     7
370
    25
100
AcDbSpline
210
0.0
220
0.0
230
1.0
 70
     8
 71
     3
 72
    11
 73
     7
 74
     0
 42
0.00000001
 43
0.00000001
 40
0.0
 40
0.0
 40
0.0
 40
0.0
 40
0.2843931288920266
 40
0.5687862577840547
 40
0.8531793866760868
 40
0.9999999999999999
 40
0.9999999999999999
 40
0.9999999999999999
 40
0.9999999999999999
 10
212.5486157306125
 20
99.29998379453147
 30
0.0
 10
212.5361492069971
 20
99.39004641537989
 30
0.0
 10
212.5112161597663
 20
99.57017165707674
 30
0.0
 10
212.3477628010361
 20
99.79243426049042
 30
0.0
 10
212.1584208625299
 20
99.93173839362751
 30
0.0
 10
212.0227713115511
 20
99.95037881896695
 30
0.0
 10
211.9765850509522
 20
99.95672555241497
 30
0.0
  0
LINE
  5
1E5
330
1F
100
AcDbEntity
  8
0
  6
Continuous
 62
     7
370
    25
100
AcDbLine
 10
208.3725170565
 20
96.459187304
 30
0.0
 11
208.3650462712
 21
96.4685714566
 31
0.0
  0
ELLIPSE
  5
1E6
330
1F
100
AcDbEntity
  8
0
  6
Continuous
 62
     7
370
    25
100
AcDbEllipse
 10
209.9947541779
 20
99.2816599307
 30
0.0
 11
1.500207016110408
 21
-0.02894030982646712
 31
0.0
210
0.0
220
0.0
230
1.0
 40
0.2796306798
 41
3.072215240172303
 42
3.166880436693457
  0
LINE
  5
1E7
330
1F
100
AcDbEntity
  8
0
  6
Continuous
 62
     7
370
    25
100
AcDbLine
 10
205.7460739873
 20
94.4816599307
 30
0.0
 11
205.7437645171
 21
94.4816599307
 31
0.0
  0
LINE
  5
1E8
330
1F
100
AcDbEntity
  8
0
  6
Continuous
 62
     7
370
    25
100
AcDbLine
 10
216.1972413655
 20
94.4816599307
 30
0.0
 11
216.1949318953
 21
94.4816599307
 31
0.0
  0
LINE
  5
1E9
330
1F
100
AcDbEntity
  8
0
  6
Continuous
 62
     7
370
    25
100
AcDbLine
 10
205.7437645171
 20
89.3697355165
 30
0.0
 11
201.9816953827
 21
89.3697355165
 31
0.0
  0
LINE
  5
1EA
330
1F
100
AcDbEntity
  8
0
  6
Continuous
 62
     7
370
    25
100
AcDbLine
 10
219.9593104999
 20
89.3697355165
 30
0.0
 11
216.1972413655
 21
89.3697355165
 31
0.0
  0
LINE
  5
1EB
330
1F
100
AcDbEntity
  8
0
  6
Continuous
 62
     7
370
    25
100
AcDbLine
 10
211.9705029413
 20
79.9319080712
 30
0.0
 11
219.0155277553
 21
79.9319080712
 31
0.0
  0
LINE
  5
1EC
330
1F
100
AcDbEntity
  8
0
  6
Continuous
 62
     7
370
    25
100
AcDbLine
 10
216.1972413655
 20
89.5932739701
 30
0.0
 11
219.9565511864
 21
89.5932739701
 31
0.0
  0
LINE
  5
1ED
330
1F
100
AcDbEntity
  8
0
  6
Continuous
 62
     7
370
    25
100
AcDbLine
 10
201.9844546962
 20
89.5932739701
 30
0.0
 11
205.7437645171
 21
89.5932739701
 31
0.0
  0
LINE
  5
1EE
330
1F
100
AcDbEntity
  8
0
  6
Continuous
 62
     7
370
    25
100
AcDbLine
 10
219.0252507704
 20
97.043677298
 30
0.0
 11
213.5504029229
 21
97.043677298
 31
0.0
  0
LINE
  5
1EF
330
1F
100
AcDbEntity
  8
0
  6
Continuous
 62
     7
370
    25
100
AcDbLine
 10
208.3906029597
 20
97.043677298
 30
0.0
 11
202.9157551122
 21
97.043677298
 31
0.0
  0
LINE
  5
1F0
330
1F
100
AcDbEntity
  8
0
  6
Continuous
 62
     7
370
    25
100
AcDbLine
 10
211.9705029413
 20
80.7816599307
 30
0.0
 11
209.9705029413
 21
80.7816599307
 31
0.0
  0
LINE
  5
1F1
330
1F
100
AcDbEntity
  8
0
  6
Continuous
 62
     7
370
    25
100
AcDbLine
 10
202.7205029413
 20
73.0316599307
 30
0.0
 11
219.2205029413
 21
73.0316599307
 31
0.0
  0
INSERT
  5
1FD
330
1F
100
AcDbEntity
  8
0
  6
Continuous
 62
     7
370
    18
100
AcDbBlockReference
  2
SW_CENTERMARKSYMBOL_0
 10
210.9705029413
 20
60.2816599307
 30
0.0
  0
LINE
  5
1FE
330
1F
100
AcDbEntity
  8
0
  6
Continuous
 62
     7
370
    25
100
AcDbLine
 10
89.186761213
 20
129.2864928575
 30
0.0
 11
89.2041802033
 21
129.2864928575
 31
0.0
  0
LINE
  5
1FF
330
1F
100
AcDbEntity
  8
0
  6
Continuous
 62
     7
370
    25
100
AcDbLine
 10
117.7649342825
 20
134.7516802994
 30
0.0
 11
116.5726942256
 21
133.9577070611
 31
0.0
  0
LINE
  5
200
330
1F
100
AcDbEntity
  8
0
  6
Continuous
 62
     7
370
    25
100
AcDbLine
 10
116.5726941664
 20
126.3553367114
 30
0.0
 11
117.7693134384
 21
125.5584471889
 31
0.0
  0
SPLINE
  5
201
330
1F
100
AcDbEntity
  8
0
  6
Continuous
 62
     7
370
    25
100
AcDbSpline
210
0.0
220
0.0
230
1.0
 70
     8
 71
     3
 72
    11
 73
     7
 74
     0
 42
0.00000001
 43
0.00000001
 40
0.0
 40
0.0
 40
0.0
 40
0.0
 40
0.2485427336868735
 40
0.4982459407376401
 40
0.7488347621401439
 40
1.0
 40
1.0
 40
1.0
 40
1.0
 10
116.572614383629
 20
133.9578517771084
 30
0.0
 10
116.151334240573
 20
133.7440865436532
 30
0.0
 10
115.306806951131
 20
133.3155579833532
 30
0.0
 10
113.9502013838969
 20
132.8768640217398
 30
0.0
 10
112.5521042777705
 20
132.5759350772457
 30
0.0
 10
111.6007483787897
 20
132.514654393133
 30
0.0
 10
111.1245239691494
 20
132.4839788513666
 30
0.0
  0
SPLINE
  5
202
330
1F
100
AcDbEntity
  8
0
  6
Continuous
 62
     7
370
    25
100
AcDbSpline
210
0.0
220
0.0
230
1.0
 70
     8
 71
     3
 72
    10
 73
     6
 74
     0
 42
0.00000001
 43
0.00000001
 40
0.0
 40
0.0
 40
0.0
 40
0.0
 40
0.0711023749285984
 40
0.5366329433438182
 40
0.9999999999999999
 40
0.9999999999999999
 40
0.9999999999999999
 40
0.9999999999999999
 10
113.7330992962857
 20
127.456615982757
 30
0.0
 10
113.8040736886391
 20
127.4423896291544
 30
0.0
 10
114.3397407055128
 20
127.3350186726357
 30
0.0
 10
115.3050159207967
 20
126.9885289729548
 30
0.0
 10
116.1507381581863
 20
126.5659763345962
 30
0.0
 10
116.572614383629
 20
126.3551921027995
 30
0.0
  0
LINE
  5
203
330
1F
100
AcDbEntity
  8
0
  6
Continuous
 62
     7
370
    25
100
AcDbLine
 10
111.1238526965
 20
132.5096137188
 30
0.0
 11
89.4694616667
 21
131.9425735337
 31
0.0
  0
LINE
  5
204
330
1F
100
AcDbEntity
  8
0
  6
Continuous
 62
     7
370
    25
100
AcDbLine
 10
89.4694651853
 20
128.3704702541
 30
0.0
 11
111.1238526965
 21
127.8034301611
 31
0.0
  0
SPLINE
  5
205
330
1F
100
AcDbEntity
  8
0
  6
Continuous
 62
     7
370
    25
100
AcDbSpline
210
0.0
220
0.0
230
1.0
 70
     8
 71
     3
 72
    12
 73
     8
 74
     0
 42
0.00000001
 43
0.00000001
 40
0.0
 40
0.0
 40
0.0
 40
0.0
 40
0.1074256954547196
 40
0.325317718265609
 40
0.5793322375717324
 40
0.8380756956807415
 40
1.0
 40
1.0
 40
1.0
 40
1.0
 10
84.4311520420566
 20
129.0716912602993
 30
0.0
 10
84.445308628164
 20
129.0405373879207
 30
0.0
 10
84.4881790817496
 20
128.9461939756262
 30
0.0
 10
84.61610405385639
 20
128.8141618650535
 30
0.0
 10
84.80191407329774
 20
128.6896160464506
 30
0.0
 10
85.00034324120678
 20
128.6088383347354
 30
0.0
 10
85.13807471651296
 20
128.5969266456711
 30
0.0
 10
85.19109060057566
 20
128.5923415737039
 30
0.0
  0
SPLINE
  5
206
330
1F
100
AcDbEntity
  8
0
  6
Continuous
 62
     7
370
    25
100
AcDbSpline
210
0.0
220
0.0
230
1.0
 70
     8
 71
     3
 72
    13
 73
     9
 74
     0
 42
0.00000001
 43
0.00000001
 40
0.0
 40
0.0
 40
0.0
 40
0.0
 40
0.0691335713422558
 40
0.2371285909469404
 40
0.4623926870591752
 40
0.7548195428915524
 40
0.9975347964342064
 40
1.0
 40
1.0
 40
1.0
 40
1.0
 10
85.19105594905298
 20
131.7200721439451
 30
0.0
 10
85.16836608675794
 20
131.719979373917
 30
0.0
 10
85.09053971426856
 20
131.7196611721286
 30
0.0
 10
84.94503899856511
 20
131.6793301556438
 30
0.0
 10
84.74806299122598
 20
131.5971770422185
 30
0.0
 10
84.5648374529796
 20
131.4518253024601
 30
0.0
 10
84.45216629848966
 20
131.3182518676398
 30
0.0
 10
84.42598363969012
 20
131.2445727605396
 30
0.0
 10
84.42572038223234
 20
131.2438319429407
 30
0.0
  0
SPLINE
  5
207
330
1F
100
AcDbEntity
  8
0
  6
Continuous
 62
     7
370
    25
100
AcDbSpline
210
0.0
220
0.0
230
1.0
 70
     8
 71
     3
 72
    11
 73
     7
 74
     0
 42
0.00000001
 43
0.00000001
 40
0.0
 40
0.0
 40
0.0
 40
0.0
 40
0.2188262914220436
 40
0.6090381954486073
 40
0.9585274453293705
 40
1.0
 40
1.0
 40
1.0
 40
1.0
 10
84.42597362412798
 20
131.2449518787541
 30
0.0
 10
84.3999316198659
 20
131.186288498642
 30
0.0
 10
84.32745141111872
 20
131.0230163482516
 30
0.0
 10
84.25536534759132
 20
130.725164128315
 30
0.0
 10
84.2313582379723
 20
130.4632930731069
 30
0.0
 10
84.23066060842164
 20
130.3319049590666
 30
0.0
 10
84.2305866050808
 20
130.317967534287
 30
0.0
  0
SPLINE
  5
208
330
1F
100
AcDbEntity
  8
0
  6
Continuous
 62
     7
370
    25
100
AcDbSpline
210
0.0
220
0.0
230
1.0
 70
     8
 71
     3
 72
    11
 73
     7
 74
     0
 42
0.00000001
 43
0.00000001
 40
0.0
 40
0.0
 40
0.0
 40
0.0
 40
0.1949959999485255
 40
0.5671794193074432
 40
0.9427355337124143
 40
1.0
 40
1.0
 40
1.0
 40
1.0
 10
84.2305866050808
 20
129.9950763456208
 30
0.0
 10
84.23213683667227
 20
129.929490531642
 30
0.0
 10
84.2366459520083
 20
129.738722906167
 30
0.0
 10
84.2872062101864
 20
129.4311444815196
 30
0.0
 10
84.36483524237212
 20
129.1966027292922
 30
0.0
 10
84.41882985015955
 20
129.08310796278
 30
0.0
 10
84.42597362412798
 20
129.0680920011537
 30
0.0
  0
LINE
  5
209
330
1F
100
AcDbEntity
  8
0
  6
Continuous
 62
     7
370
    25
100
AcDbLine
 10
84.2305866051
 20
130.3179675343
 30
0.0
 11
84.2305866051
 21
129.9950763456
 31
0.0
  0
ARC
  5
20A
330
1F
100
AcDbEntity
  8
0
  6
Continuous
 62
     7
370
    25
100
AcDbCircle
 10
139.7305866051
 20
130.15652194
 30
0.0
 40
8.993770368365617
100
AcDbArc
 50
200.7422454336
 51
90.0
  0
ARC
  5
20B
330
1F
100
AcDbEntity
  8
0
  6
Continuous
 62
     7
370
    25
100
AcDbCircle
 10
139.7305866051
 20
130.15652194
 30
0.0
 40
8.993770368365599
100
AcDbArc
 50
90.0
 51
159.2569091538
  0
LINE
  5
20C
330
1F
100
AcDbEntity
  8
0
  6
Continuous
 62
     7
370
    25
100
AcDbLine
 10
123.9805866051
 20
142.15652194
 30
0.0
 11
123.7305866051
 21
141.90652194
 31
0.0
  0
LINE
  5
20D
330
1F
100
AcDbEntity
  8
0
  6
Continuous
 62
     7
370
    25
100
AcDbLine
 10
123.7305866051
 20
118.40652194
 30
0.0
 11
123.9805866051
 21
118.15652194
 31
0.0
  0
LINE
  5
20E
330
1F
100
AcDbEntity
  8
0
  6
Continuous
 62
     7
370
    25
100
AcDbLine
 10
126.7305866051
 20
142.15652194
 30
0.0
 11
123.9805866051
 21
142.15652194
 31
0.0
  0
LINE
  5
20F
330
1F
100
AcDbEntity
  8
0
  6
Continuous
 62
     7
370
    25
100
AcDbLine
 10
123.9805866051
 20
118.15652194
 30
0.0
 11
126.7305866051
 21
118.15652194
 31
0.0
  0
LINE
  5
210
330
1F
100
AcDbEntity
  8
0
  6
Continuous
 62
     7
370
    25
100
AcDbLine
 10
112.7305866051
 20
138.48752194
 30
0.0
 11
111.7305866051
 21
137.48752194
 31
0.0
  0
LINE
  5
211
330
1F
100
AcDbEntity
  8
0
  6
Continuous
 62
     7
370
    25
100
AcDbLine
 10
111.7305866051
 20
122.82552194
 30
0.0
 11
112.7305866051
 21
121.82552194
 31
0.0
  0
LINE
  5
212
330
1F
100
AcDbEntity
  8
0
  6
Continuous
 62
     7
370
    25
100
AcDbLine
 10
120.2305866051
 20
121.82552194
 30
0.0
 11
121.2305866051
 21
122.82552194
 31
0.0
  0
LINE
  5
213
330
1F
100
AcDbEntity
  8
0
  6
Continuous
 62
     7
370
    25
100
AcDbLine
 10
121.2305866051
 20
137.48752194
 30
0.0
 11
120.2305866051
 21
138.48752194
 31
0.0
  0
LINE
  5
214
330
1F
100
AcDbEntity
  8
0
  6
Continuous
 62
     7
370
    25
100
AcDbLine
 10
120.2305866051
 20
138.48752194
 30
0.0
 11
112.7305866051
 21
138.48752194
 31
0.0
  0
LINE
  5
215
330
1F
100
AcDbEntity
  8
0
  6
Continuous
 62
     7
370
    25
100
AcDbLine
 10
112.7305866051
 20
121.82552194
 30
0.0
 11
120.2305866051
 21
121.82552194
 31
0.0
  0
LINE
  5
216
330
1F
100
AcDbEntity
  8
0
  6
Continuous
 62
     7
370
    25
100
AcDbLine
 10
123.7305866051
 20
137.15652194
 30
0.0
 11
121.2305866051
 21
137.15652194
 31
0.0
  0
LINE
  5
217
330
1F
100
AcDbEntity
  8
0
  6
Continuous
 62
     7
370
    25
100
AcDbLine
 10
121.2305866051
 20
123.15652194
 30
0.0
 11
123.7305866051
 21
123.15652194
 31
0.0
  0
LINE
  5
218
330
1F
100
AcDbEntity
  8
0
  6
Continuous
 62
     7
370
    25
100
AcDbLine
 10
154.9805866051
 20
118.15652194
 30
0.0
 11
155.2305866051
 21
118.40652194
 31
0.0
  0
LINE
  5
219
330
1F
100
AcDbEntity
  8
0
  6
Continuous
 62
     7
370
    25
100
AcDbLine
 10
155.2305866051
 20
141.90652194
 30
0.0
 11
154.9805866051
 21
142.15652194
 31
0.0
  0
LINE
  5
21A
330
1F
100
AcDbEntity
  8
0
  6
Continuous
 62
     7
370
    25
100
AcDbLine
 10
152.7305866051
 20
118.15652194
 30
0.0
 11
154.9805866051
 21
118.15652194
 31
0.0
  0
LINE
  5
21B
330
1F
100
AcDbEntity
  8
0
  6
Continuous
 62
     7
370
    25
100
AcDbLine
 10
154.9805866051
 20
142.15652194
 30
0.0
 11
152.7305866051
 21
142.15652194
 31
0.0
  0
LINE
  5
21C
330
1F
100
AcDbEntity
  8
0
  6
Continuous
 62
     7
370
    25
100
AcDbLine
 10
155.2305866051
 20
121.63802194
 30
0.0
 11
165.1366487982
 21
121.9475863835
 31
0.0
  0
LINE
  5
21D
330
1F
100
AcDbEntity
  8
0
  6
Continuous
 62
     7
370
    25
100
AcDbLine
 10
165.1366487982
 20
138.3654574964
 30
0.0
 11
155.2305866051
 21
138.67502194
 31
0.0
  0
LINE
  5
21E
330
1F
100
AcDbEntity
  8
0
  6
Continuous
 62
     7
370
    25
100
AcDbLine
 10
165.1366487982
 20
121.9475863835
 30
0.0
 11
167.2305866051
 21
123.15652194
 31
0.0
  0
LINE
  5
21F
330
1F
100
AcDbEntity
  8
0
  6
Continuous
 62
     7
370
    25
100
AcDbLine
 10
167.2305866051
 20
137.15652194
 30
0.0
 11
165.1366487982
 21
138.3654574964
 31
0.0
  0
LINE
  5
220
330
1F
100
AcDbEntity
  8
0
  6
Continuous
 62
     7
370
    25
100
AcDbLine
 10
137.4931025835
 20
129.181249395
 30
0.0
 11
137.4603070565
 21
129.1999934342
 31
0.0
  0
SPLINE
  5
221
330
1F
100
AcDbEntity
  8
0
  6
Continuous
 62
     7
370
    25
100
AcDbSpline
210
0.0
220
0.0
230
1.0
 70
     8
 71
     3
 72
    15
 73
    11
 74
     0
 42
0.00000001
 43
0.00000001
 40
0.0
 40
0.0
 40
0.0
 40
0.0
 40
0.1241930067305288
 40
0.2496556654892296
 40
0.3743703853151211
 40
0.4998404796364202
 40
0.6240146704162363
 40
0.7475381382242062
 40
0.8745858500551816
 40
1.0
 40
1.0
 40
1.0
 40
1.0
 10
138.2733923052113
 20
129.4536890455397
 30
0.0
 10
138.2578319101016
 20
129.4178418427958
 30
0.0
 10
138.2265520425901
 20
129.345780963584
 30
0.0
 10
138.1491156831017
 20
129.2559054502411
 30
0.0
 10
138.0557616793628
 20
129.1835816724468
 30
0.0
 10
137.9485360733418
 20
129.1346542539422
 30
0.0
 10
137.8341501626209
 20
129.1083262004874
 30
0.0
 10
137.7164793997356
 20
129.1074671064848
 30
0.0
 10
137.5995956745104
 20
129.1288498671144
 30
0.0
 10
137.5284468236156
 20
129.1638583935752
 30
0.0
 10
137.4931025835322
 20
129.1812493949566
 30
0.0
  0
LINE
  5
222
330
1F
100
AcDbEntity
  8
0
  6
Continuous
 62
     7
370
    25
100
AcDbLine
 10
139.2652463499
 20
132.2272682615
 30
0.0
 11
138.2733923052
 21
129.4536890455
 31
0.0
  0
SPLINE
  5
223
330
1F
100
AcDbEntity
  8
0
  6
Continuous
 62
     7
370
    25
100
AcDbSpline
210
0.0
220
0.0
230
1.0
 70
     8
 71
     3
 72
    15
 73
    11
 74
     0
 42
0.00000001
 43
0.00000001
 40
0.0
 40
0.0
 40
0.0
 40
0.0
 40
0.1233025178081761
 40
0.2485158700387114
 40
0.3756924668130948
 40
0.4999990880429331
 40
0.6243057092728396
 40
0.7514823060473044
 40
0.8766757256079959
 40
1.0
 40
1.0
 40
1.0
 40
1.0
 10
140.1959268634325
 20
132.2272682614531
 30
0.0
 10
140.1717758914701
 20
132.2679133973889
 30
0.0
 10
140.1230996769354
 20
132.3498335519767
 30
0.0
 10
140.0077490187303
 20
132.4396525077892
 30
0.0
 10
139.8745893964684
 20
132.4972266559503
 30
0.0
 10
139.7305867530996
 20
132.5163853516204
 30
0.0
 10
139.5865832244011
 20
132.4972272487354
 30
0.0
 10
139.4534333514356
 20
132.4396531349968
 30
0.0
 10
139.3380709939012
 20
132.3498475728501
 30
0.0
 10
139.28939920823
 20
132.2679226413253
 30
0.0
 10
139.2652463499132
 20
132.2272682614532
 30
0.0
  0
LINE
  5
224
330
1F
100
AcDbEntity
  8
0
  6
Continuous
 62
     7
370
    25
100
AcDbLine
 10
141.1875497698
 20
129.4543353911
 30
0.0
 11
140.1959268634
 21
132.2272682615
 31
0.0
  0
SPLINE
  5
225
330
1F
100
AcDbEntity
  8
0
  6
Continuous
 62
     7
370
    25
100
AcDbSpline
210
0.0
220
0.0
230
1.0
 70
     8
 71
     3
 72
    15
 73
    11
 74
     0
 42
0.00000001
 43
0.00000001
 40
0.0
 40
0.0
 40
0.0
 40
0.0
 40
0.1253320172137755
 40
0.2522975129251765
 40
0.3758847553984062
 40
0.5001929511416483
 40
0.6255758307380151
 40
0.7502289462456482
 40
0.8757444935777828
 40
1.0
 40
1.0
 40
1.0
 40
1.0
 10
141.9602515343463
 20
129.1776395404988
 30
0.0
 10
141.9250006177183
 20
129.160965232016
 30
0.0
 10
141.8540393518639
 20
129.1273992952867
 30
0.0
 10
141.7380524610755
 20
129.1076176790326
 30
0.0
 10
141.6214560948351
 20
129.1096904593792
 30
0.0
 10
141.5083354882537
 20
129.1367684857298
 30
0.0
 10
141.4024597739142
 20
129.1859813014369
 30
0.0
 10
141.3103506892951
 20
129.2580670653108
 30
0.0
 10
141.2339190254267
 20
129.3473545868102
 30
0.0
 10
141.2029541179274
 20
129.4187952572473
 30
0.0
 10
141.1875497698061
 20
129.4543353911054
 30
0.0
  0
LINE
  5
226
330
1F
100
AcDbEntity
  8
0
  6
Continuous
 62
     7
370
    25
100
AcDbLine
 10
142.0008661568
 20
129.1999934342
 30
0.0
 11
141.9602515343
 21
129.1776395405
 31
0.0
  0
LINE
  5
227
330
1F
100
AcDbEntity
  8
0
  6
Continuous
 62
     7
370
    25
100
AcDbLine
 10
141.3738829603
 20
128.0045823307
 30
0.0
 11
142.0008661568
 21
129.1999934342
 31
0.0
  0
SPLINE
  5
228
330
1F
100
AcDbEntity
  8
0
  6
Continuous
 62
     7
370
    25
100
AcDbSpline
210
0.0
220
0.0
230
1.0
 70
     8
 71
     3
 72
    15
 73
    11
 74
     0
 42
0.00000001
 43
0.00000001
 40
0.0
 40
0.0
 40
0.0
 40
0.0
 40
0.1246332186438571
 40
0.2519059530189798
 40
0.3765391000744966
 40
0.4994035903146521
 40
0.6264494152300174
 40
0.7526064410610431
 40
0.8746804377363274
 40
1.0
 40
1.0
 40
1.0
 40
1.0
 10
141.2686544715372
 20
127.9864651640013
 30
0.0
 10
141.2726689472054
 20
127.9833599291486
 30
0.0
 10
141.2807829181841
 20
127.9770836959468
 30
0.0
 10
141.2952215100206
 20
127.971470682467
 30
0.0
 10
141.3103549599537
 20
127.9689343298402
 30
0.0
 10
141.3257175022355
 20
127.969819733408
 30
0.0
 10
141.3406480810722
 20
127.9739508039237
 30
0.0
 10
141.3541499811015
 20
127.9814415038696
 30
0.0
 10
141.3658356359879
 20
127.9915800857839
 30
0.0
 10
141.3711771603286
 20
128.0002105081267
 30
0.0
 10
141.3738829603304
 20
128.0045823307189
 30
0.0
  0
SPLINE
  5
229
330
1F
100
AcDbEntity
  8
0
  6
Continuous
 62
     7
370
    25
100
AcDbSpline
210
0.0
220
0.0
230
1.0
 70
     8
 71
     3
 72
    11
 73
     7
 74
     0
 42
0.00000001
 43
0.00000001
 40
0.0
 40
0.0
 40
0.0
 40
0.0
 40
0.2506252605986011
 40
0.4999999999996215
 40
0.7493747394010042
 40
1.0
 40
1.0
 40
1.0
 40
1.0
 10
138.1925187418084
 20
127.9864651640012
 30
0.0
 10
138.4222464359817
 20
128.1493194559622
 30
0.0
 10
138.8805555737447
 20
128.4742154612011
 30
0.0
 10
139.7305866066808
 20
128.6079474081382
 30
0.0
 10
140.580617639611
 20
128.4742154611959
 30
0.0
 10
141.0389267773673
 20
128.1493194559605
 30
0.0
 10
141.2686544715372
 20
127.9864651640013
 30
0.0
  0
SPLINE
  5
22A
330
1F
100
AcDbEntity
  8
0
  6
Continuous
 62
     7
370
    25
100
AcDbSpline
210
0.0
220
0.0
230
1.0
 70
     8
 71
     3
 72
    15
 73
    11
 74
     0
 42
0.00000001
 43
0.00000001
 40
0.0
 40
0.0
 40
0.0
 40
0.0
 40
0.125319195797913
 40
0.2473928354984057
 40
0.3734492416489697
 40
0.5005950046079961
 40
0.6235484391777629
 40
0.7480947836179478
 40
0.875367145815393
 40
1.0
 40
1.0
 40
1.0
 40
1.0
 10
138.0872902530152
 20
128.0045823307189
 30
0.0
 10
138.0899960493476
 20
128.000210502435
 30
0.0
 10
138.0953375664448
 20
127.9915800688562
 30
0.0
 10
138.1070201390339
 20
127.9814442913564
 30
0.0
 10
138.1205211190211
 20
127.9739521754828
 30
0.0
 10
138.1354551478712
 20
127.9698197301907
 30
0.0
 10
138.1508221590603
 20
127.9689317884171
 30
0.0
 10
138.1659548954985
 20
127.9714727306747
 30
0.0
 10
138.1803903252801
 20
127.9770835089418
 30
0.0
 10
138.1885042761094
 20
127.9833598672506
 30
0.0
 10
138.1925187418084
 20
127.9864651640012
 30
0.0
  0
LINE
  5
22B
330
1F
100
AcDbEntity
  8
0
  6
Continuous
 62
     7
370
    25
100
AcDbLine
 10
137.4603070565
 20
129.1999934342
 30
0.0
 11
138.087290253
 21
128.0045823307
 31
0.0
  0
SPLINE
  5
22C
330
1F
100
AcDbEntity
  8
0
  6
Continuous
 62
     7
370
    25
100
AcDbSpline
210
0.0
220
0.0
230
1.0
 70
     8
 71
     3
 72
    15
 73
    11
 74
     0
 42
0.00000001
 43
0.00000001
 40
0.0
 40
0.0
 40
0.0
 40
0.0
 40
0.1233867499278388
 40
0.2487396502211602
 40
0.3739317114754985
 40
0.4999973617625659
 40
0.6259591330513601
 40
0.7512551380600303
 40
0.8765613478174267
 40
1.0
 40
1.0
 40
1.0
 40
1.0
 10
139.6677037402747
 20
130.1779313980967
 30
0.0
 10
139.6705819414666
 20
130.1839461941797
 30
0.0
 10
139.6763842075782
 20
130.1960716312684
 30
0.0
 10
139.691913612299
 20
130.2094628916184
 30
0.0
 10
139.7102681941724
 20
130.2183406031984
 30
0.0
 10
139.7305810106553
 20
130.2210972664949
 30
0.0
 10
139.7508994283704
 20
130.2183425852942
 30
0.0
 10
139.7692522975345
 20
130.2094668870048
 30
0.0
 10
139.78479040193
 20
130.1960765197511
 30
0.0
 10
139.7905909639613
 20
130.183949422205
 30
0.0
 10
139.7934694698869
 20
130.1779313980967
 30
0.0
  0
LINE
  5
22D
330
1F
100
AcDbEntity
  8
0
  6
Continuous
 62
     7
370
    25
100
AcDbLine
 10
139.4285902146
 20
129.5396773688
 30
0.0
 11
139.6677037403
 21
130.1779313981
 31
0.0
  0
SPLINE
  5
22E
330
1F
100
AcDbEntity
  8
0
  6
Continuous
 62
     7
370
    25
100
AcDbSpline
210
0.0
220
0.0
230
1.0
 70
     8
 71
     3
 72
    15
 73
    11
 74
     0
 42
0.00000001
 43
0.00000001
 40
0.0
 40
0.0
 40
0.0
 40
0.0
 40
0.1261585224210644
 40
0.2513121451548802
 40
0.3762846848783791
 40
0.4993062783340883
 40
0.6261594278645745
 40
0.7521171342021309
 40
0.8758196922692798
 40
1.0
 40
1.0
 40
1.0
 40
1.0
 10
139.491473079403
 20
129.4546130154742
 30
0.0
 10
139.4862419829144
 20
129.4549353220665
 30
0.0
 10
139.4758214575717
 20
129.455577367959
 30
0.0
 10
139.4610349070573
 20
129.4610256083342
 30
0.0
 10
139.4478445544318
 20
129.4692482109199
 30
0.0
 10
139.4369739795905
 20
129.4805048172324
 30
0.0
 10
139.428966392262
 20
129.4940255625735
 30
0.0
 10
139.4247997652293
 20
129.5091624501503
 30
0.0
 10
139.4241787137177
 20
129.5248515817215
 30
0.0
 10
139.4271178260724
 20
129.5347290940801
 30
0.0
 10
139.4285902145552
 20
129.5396773688242
 30
0.0
  0
LINE
  5
22F
330
1F
100
AcDbEntity
  8
0
  6
Continuous
 62
     7
370
    25
100
AcDbLine
 10
139.9697001336
 20
129.4546130155
 30
0.0
 11
139.4914730794
 21
129.4546130155
 31
0.0
  0
SPLINE
  5
230
330
1F
100
AcDbEntity
  8
0
  6
Continuous
 62
     7
370
    25
100
AcDbSpline
210
0.0
220
0.0
230
1.0
 70
     8
 71
     3
 72
    15
 73
    11
 74
     0
 42
0.00000001
 43
0.00000001
 40
0.0
 40
0.0
 40
0.0
 40
0.0
 40
0.1241186784437694
 40
0.2478474916628981
 40
0.373657414947894
 40
0.5005082335853294
 40
0.6234527658309922
 40
0.7484986612277523
 40
0.8736976492452768
 40
1.0
 40
1.0
 40
1.0
 40
1.0
 10
140.0325829983324
 20
129.5396773690473
 30
0.0
 10
140.0340540709412
 20
129.5347315233891
 30
0.0
 10
140.0369915954196
 20
129.5248553673109
 30
0.0
 10
140.0363748609195
 20
129.5091739716853
 30
0.0
 10
140.0322128993249
 20
129.494041439605
 30
0.0
 10
140.0242141515265
 20
129.4805265319905
 30
0.0
 10
140.0133480599897
 20
129.4692664707946
 30
0.0
 10
140.000160342165
 20
129.4610367583611
 30
0.0
 10
139.9853658955898
 20
129.455577187976
 30
0.0
 10
139.9749373046825
 20
129.4549353449191
 30
0.0
 10
139.9697001335681
 20
129.4546130154742
 30
0.0
  0
LINE
  5
231
330
1F
100
AcDbEntity
  8
0
  6
Continuous
 62
     7
370
    25
100
AcDbLine
 10
139.7934694699
 20
130.1779313981
 30
0.0
 11
140.0325829983
 21
129.539677369
 31
0.0
  0
CIRCLE
  5
232
330
1F
100
AcDbEntity
  8
0
  6
Continuous
 62
     7
370
    25
100
AcDbCircle
 10
139.7305866051
 20
130.15652194
 30
0.0
 40
4.499999999999972
  0
LINE
  5
233
330
1F
100
AcDbEntity
  8
0
  6
Continuous
 62
     7
370
    25
100
AcDbLine
 10
126.4305866051
 20
129.1441057053
 30
0.0
 11
126.4305866051
 21
131.1689381746
 31
0.0
  0
SPLINE
  5
234
330
1F
100
AcDbEntity
  8
0
  6
Continuous
 62
     7
370
    25
100
AcDbSpline
210
0.0
220
0.0
230
1.0
 70
     8
 71
     3
 72
    11
 73
     7
 74
     0
 42
0.00000001
 43
0.00000001
 40
0.0
 40
0.0
 40
0.0
 40
0.0
 40
0.2561894651307314
 40
0.509604493920692
 40
0.769274206655365
 40
1.0
 40
1.0
 40
1.0
 40
1.0
 10
126.4305866050808
 20
129.1441057053205
 30
0.0
 10
126.3549904727869
 20
129.0845936646721
 30
0.0
 10
126.2046168861123
 20
128.9662140765757
 30
0.0
 10
125.905404100157
 20
128.7955765344404
 30
0.0
 10
125.5778843652702
 20
128.6439526235396
 30
0.0
 10
125.3417059844564
 20
128.5645165878685
 30
0.0
 10
125.2305866050808
 20
128.5271427903455
 30
0.0
  0
LINE
  5
235
330
1F
100
AcDbEntity
  8
0
  6
Continuous
 62
     7
370
    25
100
AcDbLine
 10
125.2305866051
 20
131.7859010896
 30
0.0
 11
125.2305866051
 21
128.5271427903
 31
0.0
  0
SPLINE
  5
236
330
1F
100
AcDbEntity
  8
0
  6
Continuous
 62
     7
370
    25
100
AcDbSpline
210
0.0
220
0.0
230
1.0
 70
     8
 71
     3
 72
    11
 73
     7
 74
     0
 42
0.00000001
 43
0.00000001
 40
0.0
 40
0.0
 40
0.0
 40
0.0
 40
0.2307374805224083
 40
0.4903955403005851
 40
0.7438105520730633
 40
1.0
 40
1.0
 40
1.0
 40
1.0
 10
125.2305866050808
 20
131.7859010895624
 30
0.0
 10
125.3417118388372
 20
131.7485258986494
 30
0.0
 10
125.5778907159127
 20
131.6690909195548
 30
0.0
 10
125.9054083568638
 20
131.5174642397911
 30
0.0
 10
126.2046169535263
 20
131.3468299348428
 30
0.0
 10
126.3549904953397
 20
131.2284502592315
 30
0.0
 10
126.4305866050808
 20
131.1689381745874
 30
0.0
  0
LINE
  5
237
330
1F
100
AcDbEntity
  8
0
  6
Continuous
 62
     7
370
    25
100
AcDbLine
 10
124.6253583916
 20
128.3803615202
 30
0.0
 11
90.3486205938
 21
129.2779294878
 31
0.0
  0
LINE
  5
238
330
1F
100
AcDbEntity
  8
0
  6
Continuous
 62
     7
370
    25
100
AcDbLine
 10
90.3486205938
 20
129.2779294878
 30
0.0
 11
90.3486205938
 21
131.0351143921
 31
0.0
  0
LINE
  5
239
330
1F
100
AcDbEntity
  8
0
  6
Continuous
 62
     7
370
    25
100
AcDbLine
 10
90.3486205938
 20
131.0351143921
 30
0.0
 11
124.6253583916
 21
131.9326823597
 31
0.0
  0
ELLIPSE
  5
23A
330
1F
100
AcDbEntity
  8
0
  6
Continuous
 62
     7
370
    25
100
AcDbEllipse
 10
124.6305866051
 20
131.1322707033
 30
0.0
 11
0.9988086229566305
 21
0.06103964413861718
 31
0.0
210
0.0
220
0.0
230
0.9999999999999999
 40
0.7994627403
 41
0.8784769082856172
 42
1.527206254409842
  0
ELLIPSE
  5
23B
330
1F
100
AcDbEntity
  8
0
  6
Continuous
 62
     7
370
    25
100
AcDbEllipse
 10
124.6305866051
 20
129.1807731766
 30
0.0
 11
0.9988086229566305
 21
-0.06103964413864559
 31
0.0
210
0.0
220
0.0
230
0.9999999999999998
 40
0.7994627403
 41
4.755979052769778
 42
5.40470839889401
  0
SPLINE
  5
23C
330
1F
100
AcDbEntity
  8
0
  6
Continuous
 62
     7
370
    25
100
AcDbSpline
210
0.0
220
0.0
230
1.0
 70
    24
 71
     3
 72
    11
 73
     7
 74
     0
 42
0.00000001
 43
0.00000001
 40
0.0
 40
0.0
 40
0.0
 40
0.0
 40
0.2499999999999963
 40
0.4999999999999995
 40
0.7500000000000014
 40
1.0
 40
1.0
 40
1.0
 40
1.0
 10
90.33030300914565
 20
131.7346347292674
 30
0.0
 10
90.33063087040146
 20
131.7221142130448
 30
0.0
 10
90.3312865929131
 20
131.6970731805997
 30
0.0
 10
90.33554556205233
 20
131.5344297109771
 30
0.0
 10
90.34153741771418
 20
131.3056099749226
 30
0.0
 10
90.34625953512518
 20
131.1252795863764
 30
0.0
 10
90.34862059383069
 20
131.0351143921033
 30
0.0
  0
LINE
  5
23D
330
1F
100
AcDbEntity
  8
0
  6
Continuous
 62
     7
370
    25
100
AcDbLine
 10
124.6070408069
 20
132.6322026969
 30
0.0
 11
90.3303030091
 21
131.7346347293
 31
0.0
  0
SPLINE
  5
23E
330
1F
100
AcDbEntity
  8
0
  6
Continuous
 62
     7
370
    25
100
AcDbSpline
210
0.0
220
0.0
230
1.0
 70
    24
 71
     3
 72
    11
 73
     7
 74
     0
 42
0.00000001
 43
0.00000001
 40
0.0
 40
0.0
 40
0.0
 40
0.0
 40
0.2499999999999982
 40
0.4999999999999978
 40
0.750000000000001
 40
1.0
 40
1.0
 40
1.0
 40
1.0
 10
124.6070408068833
 20
132.6322026968866
 30
0.0
 10
124.6073686681391
 20
132.619682180664
 30
0.0
 10
124.6080243906507
 20
132.5946411482188
 30
0.0
 10
124.61228335979
 20
132.4319976785962
 30
0.0
 10
124.6182752154518
 20
132.2031779425418
 30
0.0
 10
124.6229973328628
 20
132.0228475539956
 30
0.0
 10
124.6253583915683
 20
131.9326823597224
 30
0.0
  0
ELLIPSE
  5
23F
330
1F
100
AcDbEntity
  8
0
  6
Continuous
 62
     7
370
    25
100
AcDbEllipse
 10
90.3486205938
 20
131.0560703104
 30
0.0
 11
1.49999997144873
 21
0.02095282558971689
 31
0.0
210
0.0
220
0.0
230
0.9999999999999997
 40
0.0139678873
 41
3.842044658396863
 42
4.712193869245414
  0
ELLIPSE
  5
240
330
1F
100
AcDbEntity
  8
0
  6
Continuous
 62
     7
370
    25
100
AcDbEllipse
 10
90.3486205938
 20
129.2569735695
 30
0.0
 11
1.49999997144873
 21
-0.02095282558971689
 31
0.0
210
0.0
220
0.0
230
0.9999999999999997
 40
0.0139678873
 41
1.570991437934172
 42
2.44114064878334
  0
SPLINE
  5
241
330
1F
100
AcDbEntity
  8
0
  6
Continuous
 62
     7
370
    25
100
AcDbSpline
210
0.0
220
0.0
230
1.0
 70
     8
 71
     3
 72
     9
 73
     5
 74
     0
 42
0.00000001
 43
0.00000001
 40
0.0
 40
0.0
 40
0.0
 40
0.0
 40
0.5600029565045499
 40
1.0
 40
1.0
 40
1.0
 40
1.0
 10
89.20198287838217
 20
129.28649785333
 30
0.0
 10
89.19383511902905
 20
129.2864922152638
 30
0.0
 10
89.17928562556928
 20
129.2864821473415
 30
0.0
 10
89.16534098262875
 20
129.2866043239449
 30
0.0
 10
89.1592053809623
 20
129.2866580812893
 30
0.0
  0
ELLIPSE
  5
242
330
1F
100
AcDbEntity
  8
0
  6
Continuous
 62
     7
370
    25
100
AcDbEllipse
 10
90.3486205938
 20
129.2393844074
 30
0.0
 11
1.499999872704137
 21
-0.0430792567095466
 31
0.0
210
0.0
220
0.0
230
1.0
 40
0.0143449667
 41
2.486833182542043
 42
2.678357024934519
  0
LINE
  5
243
330
1F
100
AcDbEntity
  8
0
  6
Continuous
 62
     7
370
    25
100
AcDbLine
 10
89.0069798073
 20
131.0255053145
 30
0.0
 11
89.0069798073
 21
129.2875385654
 31
0.0
  0
ELLIPSE
  5
244
330
1F
100
AcDbEntity
  8
0
  6
Continuous
 62
     7
370
    25
100
AcDbEllipse
 10
90.3486205938
 20
131.0736594725
 30
0.0
 11
1.499999872704137
 21
0.0430792567095466
 31
0.0
210
0.0
220
0.0
230
1.0
 40
0.0143449667
 41
3.604828282245839
 42
3.796352124638147
  0
SPLINE
  5
245
330
1F
100
AcDbEntity
  8
0
  6
Continuous
 62
     7
370
    25
100
AcDbSpline
210
0.0
220
0.0
230
1.0
 70
     8
 71
     3
 72
     9
 73
     5
 74
     0
 42
0.00000001
 43
0.00000001
 40
0.0
 40
0.0
 40
0.0
 40
0.0
 40
0.5599925069633377
 40
1.0
 40
1.0
 40
1.0
 40
1.0
 10
89.1592053809623
 20
131.0263857986186
 30
0.0
 10
89.16702819081922
 20
131.02645154377
 30
0.0
 10
89.18099768105284
 20
131.026568947397
 30
0.0
 10
89.19557065892332
 20
131.0265530302443
 30
0.0
 10
89.2019828783822
 20
131.0265460265779
 30
0.0
  0
LINE
  5
246
330
1F
100
AcDbEntity
  8
0
  6
Continuous
 62
     7
370
    25
100
AcDbLine
 10
90.3303030091
 20
128.5784091506
 30
0.0
 11
124.6070408069
 21
127.680841183
 31
0.0
  0
SPLINE
  5
247
330
1F
100
AcDbEntity
  8
0
  6
Continuous
 62
     7
370
    25
100
AcDbSpline
210
0.0
220
0.0
230
1.0
 70
    24
 71
     3
 72
    11
 73
     7
 74
     0
 42
0.00000001
 43
0.00000001
 40
0.0
 40
0.0
 40
0.0
 40
0.0
 40
0.249999999999998
 40
0.4999999999999973
 40
0.7500000000000001
 40
1.0
 40
1.0
 40
1.0
 40
1.0
 10
90.33030300914565
 20
128.5784091506405
 30
0.0
 10
90.33063087040146
 20
128.590929666863
 30
0.0
 10
90.33128659291309
 20
128.6159706993082
 30
0.0
 10
90.33554556205233
 20
128.7786141689308
 30
0.0
 10
90.34153741771418
 20
129.0074339049852
 30
0.0
 10
90.34625953512518
 20
129.1877642935315
 30
0.0
 10
90.34862059383069
 20
129.2779294878046
 30
0.0
  0
SPLINE
  5
248
330
1F
100
AcDbEntity
  8
0
  6
Continuous
 62
     7
370
    25
100
AcDbSpline
210
0.0
220
0.0
230
1.0
 70
    24
 71
     3
 72
    11
 73
     7
 74
     0
 42
0.00000001
 43
0.00000001
 40
0.0
 40
0.0
 40
0.0
 40
0.0
 40
0.2499999999999988
 40
0.5000000000000004
 40
0.7499999999999976
 40
1.0
 40
1.0
 40
1.0
 40
1.0
 10
124.6253583915684
 20
128.3803615201854
 30
0.0
 10
124.6229973328629
 20
128.2901963259123
 30
0.0
 10
124.6182752154518
 20
128.1098659373661
 30
0.0
 10
124.61228335979
 20
127.8810462013116
 30
0.0
 10
124.6080243906507
 20
127.718402731689
 30
0.0
 10
124.6073686681391
 20
127.6933616992439
 30
0.0
 10
124.6070408068833
 20
127.6808411830213
 30
0.0
  0
ELLIPSE
  5
249
330
1F
100
AcDbEntity
  8
0
  6
Continuous
 62
     7
370
    25
100
AcDbEllipse
 10
90.3303030091
 20
128.5574532323
 30
0.0
 11
0.7999998117959565
 21
-0.02096310677475799
 31
0.0
210
0.0
220
0.0
230
1.0
 40
0.026176936
 41
1.571482264229186
 42
2.441631475075595
  0
SPLINE
  5
24A
330
1F
100
AcDbEntity
  8
0
  6
Continuous
 62
     7
370
    25
100
AcDbSpline
210
0.0
220
0.0
230
1.0
 70
     8
 71
     3
 72
    12
 73
     8
 74
     0
 42
0.00000001
 43
0.00000001
 40
0.0
 40
0.0
 40
0.0
 40
0.0
 40
0.2198609600791294
 40
0.4397396970008148
 40
0.6583291451397767
 40
0.87912395168436
 40
1.0
 40
1.0
 40
1.0
 40
1.0
 10
89.71876289423977
 20
128.5869775161659
 30
0.0
 10
89.6588478315109
 20
128.59764951081
 30
0.0
 10
89.5390128616249
 20
128.6189943629816
 30
0.0
 10
89.38227787335036
 20
128.7471127582486
 30
0.0
 10
89.26570954956422
 20
128.9300506943136
 30
0.0
 10
89.20945285776997
 20
129.1215998662008
 30
0.0
 10
89.20393498655369
 20
129.2434055378858
 30
0.0
 10
89.20198287838217
 20
129.28649785333
 30
0.0
  0
ELLIPSE
  5
24B
330
1F
100
AcDbEntity
  8
0
  6
Continuous
 62
     7
370
    25
100
AcDbEllipse
 10
90.3303030091
 20
131.7555906476
 30
0.0
 11
0.7999998117959564
 21
0.02096310677478641
 31
0.0
210
0.0
220
0.0
230
1.0
 40
0.026176936
 41
3.8415538321025
 42
4.7117030429504
  0
SPLINE
  5
24C
330
1F
100
AcDbEntity
  8
0
  6
Continuous
 62
     7
370
    25
100
AcDbSpline
210
0.0
220
0.0
230
1.0
 70
     8
 71
     3
 72
    12
 73
     8
 74
     0
 42
0.00000001
 43
0.00000001
 40
0.0
 40
0.0
 40
0.0
 40
0.0
 40
0.2198610998683202
 40
0.4397399767664986
 40
0.6583294271823332
 40
0.8791242261983154
 40
1.0
 40
1.0
 40
1.0
 40
1.0
 10
89.2019828783822
 20
131.0265460265779
 30
0.0
 10
89.20808582827752
 20
131.105236936297
 30
0.0
 10
89.22029222152663
 20
131.2626251183463
 30
0.0
 10
89.31281616262501
 20
131.4719068668313
 30
0.0
 10
89.44860011004673
 20
131.6305561874957
 30
0.0
 10
89.59302797341012
 20
131.7106562502109
 30
0.0
 10
89.68590498505888
 20
131.7220392875126
 30
0.0
 10
89.7187628942398
 20
131.726066363742
 30
0.0
  0
SPLINE
  5
24D
330
1F
100
AcDbEntity
  8
0
  6
Continuous
 62
     7
370
    25
100
AcDbSpline
210
0.0
220
0.0
230
1.0
 70
     8
 71
     3
 72
    11
 73
     7
 74
     0
 42
0.00000001
 43
0.00000001
 40
0.0
 40
0.0
 40
0.0
 40
0.0
 40
0.2561894651307129
 40
0.5096044939206584
 40
0.7692742066444705
 40
1.0
 40
1.0
 40
1.0
 40
1.0
 10
126.4305866050808
 20
131.1689381745874
 30
0.0
 10
126.386221614464
 20
131.2824457099086
 30
0.0
 10
126.2979720895293
 20
131.5082315362855
 30
0.0
 10
126.0881600026048
 20
131.8334338720449
 30
0.0
 10
125.8406521331132
 20
132.1233902299741
 30
0.0
 10
125.6459023023751
 20
132.2744520511525
 30
0.0
 10
125.5542746087158
 20
132.3455250077866
 30
0.0
  0
SPLINE
  5
24E
330
1F
100
AcDbEntity
  8
0
  6
Continuous
 62
     7
370
    25
100
AcDbSpline
210
0.0
220
0.0
230
1.0
 70
    24
 71
     3
 72
    10
 73
     6
 74
     0
 42
0.00000001
 43
0.00000001
 40
0.0
 40
0.0
 40
0.0
 40
0.0
 40
0.2808335173386709
 40
0.5616510917414143
 40
0.9999999999999999
 40
0.9999999999999999
 40
0.9999999999999999
 40
0.9999999999999999
 10
125.5542746087158
 20
132.3455250077866
 30
0.0
 10
125.536066489071
 20
132.3140450049916
 30
0.0
 10
125.4996512834574
 20
132.2510867865232
 30
0.0
 10
125.389868198657
 20
132.0612829032135
 30
0.0
 10
125.2909062459232
 20
131.8901876660651
 30
0.0
 10
125.2305866050808
 20
131.7859010895624
 30
0.0
  0
ELLIPSE
  5
24F
330
1F
100
AcDbEntity
  8
0
  6
Continuous
 62
     7
370
    25
100
AcDbEllipse
 10
124.6305866051
 20
131.1322707033
 30
0.0
 11
1.557390436637263
 21
0.09517594847733335
 31
0.0
210
0.0
220
0.0
230
0.9999999999999999
 40
0.9613560848
 41
0.8784769082856233
 42
1.527206254409843
  0
SPLINE
  5
250
330
1F
100
AcDbEntity
  8
0
  6
Continuous
 62
     7
370
    25
100
AcDbSpline
210
0.0
220
0.0
230
1.0
 70
    24
 71
     3
 72
    10
 73
     6
 74
     0
 42
0.00000001
 43
0.00000001
 40
0.0
 40
0.0
 40
0.0
 40
0.0
 40
0.2808335173386708
 40
0.5616510917414125
 40
1.0
 40
1.0
 40
1.0
 40
1.0
 10
125.2305866050808
 20
128.5271427903455
 30
0.0
 10
125.2689370540432
 20
128.4608387312732
 30
0.0
 10
125.3456357748108
 20
128.328234377214
 30
0.0
 10
125.4707901248528
 20
128.1118551263096
 30
0.0
 10
125.5226591912061
 20
128.0221787409592
 30
0.0
 10
125.5542746087158
 20
127.9675188721213
 30
0.0
  0
ELLIPSE
  5
251
330
1F
100
AcDbEntity
  8
0
  6
Continuous
 62
     7
370
    25
100
AcDbEllipse
 10
124.6305866051
 20
129.1807731766
 30
0.0
 11
1.557390436637263
 21
-0.09517594847736179
 31
0.0
210
0.0
220
0.0
230
1.0
 40
0.9613560848
 41
4.755979052769783
 42
5.404708398893979
  0
SPLINE
  5
252
330
1F
100
AcDbEntity
  8
0
  6
Continuous
 62
     7
370
    25
100
AcDbSpline
210
0.0
220
0.0
230
1.0
 70
     8
 71
     3
 72
    11
 73
     7
 74
     0
 42
0.00000001
 43
0.00000001
 40
0.0
 40
0.0
 40
0.0
 40
0.0
 40
0.2307374805226512
 40
0.4903955403005855
 40
0.7438105520730652
 40
0.9999999999999999
 40
0.9999999999999999
 40
0.9999999999999999
 40
0.9999999999999999
 10
125.5542746087158
 20
127.9675188721213
 30
0.0
 10
125.6459066134753
 20
128.0385958903114
 30
0.0
 10
125.840655756012
 20
128.1896587027307
 30
0.0
 10
126.0881633232499
 20
128.4796147318862
 30
0.0
 10
126.297972052644
 20
128.8048123924349
 30
0.0
 10
126.3862216021244
 20
129.030598186329
 30
0.0
 10
126.4305866050808
 20
129.1441057053205
 30
0.0
  0
LINE
  5
253
330
1F
100
AcDbEntity
  8
0
  6
Continuous
 62
     7
370
    25
100
AcDbLine
 10
126.7306000604
 20
132.7619786101
 30
0.0
 11
124.6070408069
 21
132.6322026969
 31
0.0
  0
SPLINE
  5
254
330
1F
100
AcDbEntity
  8
0
  6
Continuous
 62
     7
370
    25
100
AcDbSpline
210
0.0
220
0.0
230
1.0
 70
     8
 71
     3
 72
    13
 73
     9
 74
     0
 42
0.00000001
 43
0.00000001
 40
0.0
 40
0.0
 40
0.0
 40
0.0
 40
0.1035746466401555
 40
0.2111076158583393
 40
0.3219769626223817
 40
0.4454462032504118
 40
0.7113049728010379
 40
1.0
 40
1.0
 40
1.0
 40
1.0
 10
128.8305866050808
 20
131.3156080596541
 30
0.0
 10
128.8233304403204
 20
131.4139508381029
 30
0.0
 10
128.8085408012288
 20
131.6143947707513
 30
0.0
 10
128.6822681916669
 20
131.8973368209813
 30
0.0
 10
128.4857208035361
 20
132.1555950460002
 30
0.0
 10
128.1218691304488
 20
132.4586903957552
 30
0.0
 10
127.5242817437135
 20
132.7242200620387
 30
0.0
 10
127.0023252601538
 20
132.7490515774536
 30
0.0
 10
126.7306000603604
 20
132.7619786100699
 30
0.0
  0
LINE
  5
255
330
1F
100
AcDbEntity
  8
0
  6
Continuous
 62
     7
370
    25
100
AcDbLine
 10
126.4305866051
 20
131.1689381746
 30
0.0
 11
128.8305866051
 21
131.3156080597
 31
0.0
  0
LINE
  5
256
330
1F
100
AcDbEntity
  8
0
  6
Continuous
 62
     7
370
    25
100
AcDbLine
 10
128.8305866051
 20
128.9974358203
 30
0.0
 11
126.4305866051
 21
129.1441057053
 31
0.0
  0
SPLINE
  5
257
330
1F
100
AcDbEntity
  8
0
  6
Continuous
 62
     7
370
    25
100
AcDbSpline
210
0.0
220
0.0
230
1.0
 70
     8
 71
     3
 72
    13
 73
     9
 74
     0
 42
0.00000001
 43
0.00000001
 40
0.0
 40
0.0
 40
0.0
 40
0.0
 40
0.2886949682914851
 40
0.554553683594315
 40
0.6780091910936104
 40
0.7888922083801199
 40
0.8964194071406489
 40
1.0
 40
1.0
 40
1.0
 40
1.0
 10
126.7306000603604
 20
127.551065269838
 30
0.0
 10
127.0023252509366
 20
127.5639922753208
 30
0.0
 10
127.5242817167911
 20
127.5888237386148
 30
0.0
 10
128.1218571248943
 20
127.8543483400473
 30
0.0
 10
128.4857113050739
 20
128.1574393366516
 30
0.0
 10
128.6822587966395
 20
128.4156910907722
 30
0.0
 10
128.8085420857457
 20
128.6986424569404
 30
0.0
 10
128.8233305877168
 20
128.8990871196316
 30
0.0
 10
128.8305866050808
 20
128.9974358202537
 30
0.0
  0
LINE
  5
258
330
1F
100
AcDbEntity
  8
0
  6
Continuous
 62
     7
370
    25
100
AcDbLine
 10
124.6070408069
 20
127.680841183
 30
0.0
 11
126.7306000604
 21
127.5510652698
 31
0.0
  0
SPLINE
  5
259
330
1F
100
AcDbEntity
  8
0
  6
Continuous
 62
     7
370
    25
100
AcDbSpline
210
0.0
220
0.0
230
1.0
 70
     8
 71
     3
 72
    12
 73
     8
 74
     0
 42
0.00000001
 43
0.00000001
 40
0.0
 40
0.0
 40
0.0
 40
0.0
 40
0.2225634137434379
 40
0.4462063173695244
 40
0.6680851268156933
 40
0.8917990985568367
 40
1.0
 40
1.0
 40
1.0
 40
1.0
 10
89.6766473112073
 20
131.7251211278699
 30
0.0
 10
89.61495074557241
 20
131.7127680203032
 30
0.0
 10
89.49125837006802
 20
131.6880018894161
 30
0.0
 10
89.33209202827453
 20
131.5554179614183
 30
0.0
 10
89.21601014025758
 20
131.3690605579237
 30
0.0
 10
89.16429508952972
 20
131.1809697465704
 30
0.0
 10
89.1604566677528
 20
131.0643897136821
 30
0.0
 10
89.1592053809623
 20
131.0263857986186
 30
0.0
  0
SPLINE
  5
25A
330
1F
100
AcDbEntity
  8
0
  6
Continuous
 62
     7
370
    25
100
AcDbSpline
210
0.0
220
0.0
230
1.0
 70
     8
 71
     3
 72
    12
 73
     8
 74
     0
 42
0.00000001
 43
0.00000001
 40
0.0
 40
0.0
 40
0.0
 40
0.0
 40
0.2225634137435274
 40
0.446206317369568
 40
0.6680851268158019
 40
0.8917990985569294
 40
1.0
 40
1.0
 40
1.0
 40
1.0
 10
89.1592053809623
 20
129.2866580812893
 30
0.0
 10
89.16479194706481
 20
129.2081544212467
 30
0.0
 10
89.17599217555437
 20
129.05076633819
 30
0.0
 10
89.27004295324144
 20
128.8414148005626
 30
0.0
 10
89.40953401663948
 20
128.6826555060926
 30
0.0
 10
89.55475811647581
 20
128.6048066357759
 30
0.0
 10
89.64668128520587
 20
128.5920735949425
 30
0.0
 10
89.6766473112073
 20
128.5879227520379
 30
0.0
  0
ELLIPSE
  5
25B
330
1F
100
AcDbEntity
  8
0
  6
Continuous
 62
     7
370
    25
100
AcDbEllipse
 10
90.3110020914
 20
128.5406490782
 30
0.0
 11
0.7999991634988675
 21
-0.04310148564323413
 31
0.0
210
0.0
220
0.0
230
1.0
 40
0.0268411366
 41
2.487867318783687
 42
2.679391161173962
  0
SPLINE
  5
25C
330
1F
100
AcDbEntity
  8
0
  6
Continuous
 62
     7
370
    25
100
AcDbSpline
210
0.0
220
0.0
230
1.0
 70
     8
 71
     3
 72
    11
 73
     7
 74
     0
 42
0.00000001
 43
0.00000001
 40
0.0
 40
0.0
 40
0.0
 40
0.0
 40
0.2499999999999991
 40
0.4999999999999979
 40
0.7499999999999996
 40
1.0
 40
1.0
 40
1.0
 40
1.0
 10
89.59546033860384
 20
128.5888032361839
 30
0.0
 10
89.51722523027158
 20
128.6038025413505
 30
0.0
 10
89.36075501360703
 20
128.6338011516836
 30
0.0
 10
89.16742886219058
 20
128.7973208544803
 30
0.0
 10
89.03305242991162
 20
129.0229004685627
 30
0.0
 10
89.01567068152441
 20
129.1993258664777
 30
0.0
 10
89.00697980733081
 20
129.2875385654352
 30
0.0
  0
SPLINE
  5
25D
330
1F
100
AcDbEntity
  8
0
  6
Continuous
 62
     7
370
    25
100
AcDbSpline
210
0.0
220
0.0
230
1.0
 70
     8
 71
     3
 72
    11
 73
     7
 74
     0
 42
0.00000001
 43
0.00000001
 40
0.0
 40
0.0
 40
0.0
 40
0.0
 40
0.249999999999999
 40
0.4999999999999998
 40
0.7499999999999988
 40
1.0
 40
1.0
 40
1.0
 40
1.0
 10
89.59546033860387
 20
131.724240643724
 30
0.0
 10
89.5172252302716
 20
131.7092413385574
 30
0.0
 10
89.36075501360708
 20
131.6792427282242
 30
0.0
 10
89.16742886219059
 20
131.5157230254276
 30
0.0
 10
89.03305242991158
 20
131.2901434113452
 30
0.0
 10
89.01567068152441
 20
131.1137180134302
 30
0.0
 10
89.00697980733081
 20
131.0255053144726
 30
0.0
  0
ELLIPSE
  5
25E
330
1F
100
AcDbEntity
  8
0
  6
Continuous
 62
     7
370
    25
100
AcDbEllipse
 10
90.3110020914
 20
131.7723948017
 30
0.0
 11
0.7999991634988675
 21
0.04310148564323413
 31
0.0
210
0.0
220
0.0
230
1.0
 40
0.0268411366
 41
3.603794146005467
 42
3.795317988397907
  0
LINE
  5
25F
330
1F
100
AcDbEntity
  8
0
  6
Continuous
 62
     7
370
    25
100
AcDbLine
 10
128.8305866051
 20
131.3156080597
 30
0.0
 11
128.8305866051
 21
128.9974358203
 31
0.0
  0
LINE
  5
260
330
1F
100
AcDbEntity
  8
0
  6
Continuous
 62
     7
370
    25
100
AcDbLine
 10
89.4963179831
 20
131.9427626024
 30
0.0
 11
111.1238661518
 21
132.5090998825
 31
0.0
  0
SPLINE
  5
261
330
1F
100
AcDbEntity
  8
0
  6
Continuous
 62
     7
370
    25
100
AcDbSpline
210
0.0
220
0.0
230
1.0
 70
     8
 71
     3
 72
     9
 73
     5
 74
     0
 42
0.00000001
 43
0.00000001
 40
0.0
 40
0.0
 40
0.0
 40
0.0
 40
0.5600012771711205
 40
0.9999999999999999
 40
0.9999999999999999
 40
0.9999999999999999
 40
0.9999999999999999
 10
111.1238661517996
 20
132.509099882451
 30
0.0
 10
111.6012962883246
 20
132.497265470106
 30
0.0
 10
112.4538481591646
 20
132.4761326391153
 30
0.0
 10
113.310737363808
 20
132.4551719097028
 30
0.0
 10
113.687767519457
 20
132.4459492155318
 30
0.0
  0
SPLINE
  5
262
330
1F
100
AcDbEntity
  8
0
  6
Continuous
 62
     7
370
    25
100
AcDbSpline
210
0.0
220
0.0
230
1.0
 70
     8
 71
     3
 72
     9
 73
     5
 74
     0
 42
0.00000001
 43
0.00000001
 40
0.0
 40
0.0
 40
0.0
 40
0.0
 40
0.5599999095971039
 40
1.0
 40
1.0
 40
1.0
 40
1.0
 10
113.687767519457
 20
132.4459492155318
 30
0.0
 10
113.7818970101195
 20
132.4436518056345
 30
0.0
 10
113.9499854134377
 20
132.4395492872986
 30
0.0
 10
114.1182279331334
 20
132.4354528941056
 30
0.0
 10
114.1922546570092
 20
132.4336504807303
 30
0.0
  0
LINE
  5
263
330
1F
100
AcDbEntity
  8
0
  6
Continuous
 62
     7
370
    25
100
AcDbLine
 10
114.192254657
 20
132.4336504807
 30
0.0
 11
126.7306000604
 21
132.7619786101
 31
0.0
  0
LINE
  5
264
330
1F
100
AcDbEntity
  8
0
  6
Continuous
 62
     7
370
    25
100
AcDbLine
 10
89.7187628942
 20
131.7260663637
 30
0.0
 11
89.4963179831
 21
131.9427626024
 31
0.0
  0
LINE
  5
265
330
1F
100
AcDbEntity
  8
0
  6
Continuous
 62
     7
370
    25
100
AcDbLine
 10
126.7306000604
 20
127.5510652698
 30
0.0
 11
114.192254657
 21
127.8793933992
 31
0.0
  0
SPLINE
  5
266
330
1F
100
AcDbEntity
  8
0
  6
Continuous
 62
     7
370
    25
100
AcDbSpline
210
0.0
220
0.0
230
1.0
 70
     8
 71
     3
 72
     9
 73
     5
 74
     0
 42
0.00000001
 43
0.00000001
 40
0.0
 40
0.0
 40
0.0
 40
0.0
 40
0.5600000882143319
 40
1.0
 40
1.0
 40
1.0
 40
1.0
 10
114.1922546570092
 20
127.8793933991776
 30
0.0
 10
114.0980422414775
 20
127.8770992830365
 30
0.0
 10
113.9298058116724
 20
127.8730026477156
 30
0.0
 10
113.7617236540039
 20
127.8688998812563
 30
0.0
 10
113.687767519457
 20
127.8670946643761
 30
0.0
  0
SPLINE
  5
267
330
1F
100
AcDbEntity
  8
0
  6
Continuous
 62
     7
370
    25
100
AcDbSpline
210
0.0
220
0.0
230
1.0
 70
     8
 71
     3
 72
     9
 73
     5
 74
     0
 42
0.00000001
 43
0.00000001
 40
0.0
 40
0.0
 40
0.0
 40
0.0
 40
0.5599987526606142
 40
1.0
 40
1.0
 40
1.0
 40
1.0
 10
113.687767519457
 20
127.8670946643761
 30
0.0
 10
113.2080012615699
 20
127.8553530778537
 30
0.0
 10
112.3512738927896
 20
127.8343859123617
 30
0.0
 10
111.498908144317
 20
127.8132457119896
 30
0.0
 10
111.1238661517996
 20
127.8039439974568
 30
0.0
  0
LINE
  5
268
330
1F
100
AcDbEntity
  8
0
  6
Continuous
 62
     7
370
    25
100
AcDbLine
 10
111.1238661518
 20
127.8039439975
 30
0.0
 11
89.4963179831
 21
128.3702812775
 31
0.0
  0
LINE
  5
269
330
1F
100
AcDbEntity
  8
0
  6
Continuous
 62
     7
370
    25
100
AcDbLine
 10
89.4963179831
 20
128.3702812775
 30
0.0
 11
89.7187628942
 21
128.5869775162
 31
0.0
  0
LINE
  5
26A
330
1F
100
AcDbEntity
  8
0
  6
Continuous
 62
     7
370
    25
100
AcDbLine
 10
84.4280296642
 20
131.0255053145
 30
0.0
 11
89.0069798073
 21
131.0255053145
 31
0.0
  0
SPLINE
  5
26B
330
1F
100
AcDbEntity
  8
0
  6
Continuous
 62
     7
370
    25
100
AcDbSpline
210
0.0
220
0.0
230
1.0
 70
     8
 71
     3
 72
    13
 73
     9
 74
     0
 42
0.00000001
 43
0.00000001
 40
0.0
 40
0.0
 40
0.0
 40
0.0
 40
0.1143463544469914
 40
0.2890454840074685
 40
0.5294852105593209
 40
0.7014879056604271
 40
0.9335094878266192
 40
1.0
 40
1.0
 40
1.0
 40
1.0
 10
85.18999051439928
 20
131.7242406437239
 30
0.0
 10
85.14878931369033
 20
131.7194060522189
 30
0.0
 10
85.04464064136748
 20
131.7071851392888
 30
0.0
 10
84.85728114698762
 20
131.6345370442478
 30
0.0
 10
84.67525341697885
 20
131.504024777841
 30
0.0
 10
84.52296983576448
 20
131.3171571786714
 30
0.0
 10
84.4504665588845
 20
131.1557837739148
 30
0.0
 10
84.43211686956579
 20
131.0492374230628
 30
0.0
 10
84.4280296641756
 20
131.0255053144726
 30
0.0
  0
LINE
  5
26C
330
1F
100
AcDbEntity
  8
0
  6
Continuous
 62
     7
370
    25
100
AcDbLine
 10
89.5954603386
 20
131.7242406437
 30
0.0
 11
85.1899905144
 21
131.7242406437
 31
0.0
  0
LINE
  5
26D
330
1F
100
AcDbEntity
  8
0
  6
Continuous
 62
     7
370
    25
100
AcDbLine
 10
85.1899905144
 20
128.5888032362
 30
0.0
 11
89.5954603386
 21
128.5888032362
 31
0.0
  0
SPLINE
  5
26E
330
1F
100
AcDbEntity
  8
0
  6
Continuous
 62
     7
370
    25
100
AcDbSpline
210
0.0
220
0.0
230
1.0
 70
     8
 71
     3
 72
    12
 73
     8
 74
     0
 42
0.00000001
 43
0.00000001
 40
0.0
 40
0.0
 40
0.0
 40
0.0
 40
0.139683458618249
 40
0.3831896274038307
 40
0.55131692930133
 40
0.8194729461607051
 40
0.9999999999999999
 40
0.9999999999999999
 40
0.9999999999999999
 40
0.9999999999999999
 10
84.4280296641756
 20
129.2875385654352
 30
0.0
 10
84.43827104492186
 20
129.2378236449568
 30
0.0
 10
84.46636593111019
 20
129.101442128899
 30
0.0
 10
84.57351629246497
 20
128.9215260196868
 30
0.0
 10
84.75385337987797
 20
128.7431845913019
 30
0.0
 10
84.96230952444694
 20
128.6226643667505
 30
0.0
 10
85.12466642515088
 20
128.5985183534436
 30
0.0
 10
85.18999051439927
 20
128.5888032361839
 30
0.0
  0
LINE
  5
26F
330
1F
100
AcDbEntity
  8
0
  6
Continuous
 62
     7
370
    25
100
AcDbLine
 10
89.0069798073
 20
129.2875385654
 30
0.0
 11
84.4280296642
 21
129.2875385654
 31
0.0
  0
ELLIPSE
  5
270
330
1F
100
AcDbEntity
  8
0
  6
Continuous
 62
     7
370
    25
100
AcDbEllipse
 10
84.7833730096
 20
130.3310604951
 30
0.0
 11
0.008721666502694349
 21
1.000418978703721
 31
0.0
210
0.0
220
0.0
230
0.9999999999999999
 40
0.499714557
 41
0.8079180407726356
 42
1.588240544501486
  0
ELLIPSE
  5
271
330
1F
100
AcDbEntity
  8
0
  6
Continuous
 62
     7
370
    25
100
AcDbEllipse
 10
84.7833730096
 20
129.9819833848
 30
0.0
 11
-0.008721666502680138
 21
1.000418978703721
 31
0.0
210
0.0
220
0.0
230
1.0
 40
0.499714557
 41
1.553352109088314
 42
2.333674612817175
  0
LINE
  5
272
330
1F
100
AcDbEntity
  8
0
  6
Continuous
 62
     7
370
    25
100
AcDbLine
 10
84.2833730096
 20
130.3179675343
 30
0.0
 11
84.2833730096
 21
129.9950763456
 31
0.0
  0
LINE
  5
273
330
1F
100
AcDbEntity
  8
0
  6
Continuous
 62
     7
370
    25
100
AcDbLine
 10
89.4974458403
 20
131.899691472
 30
0.0
 11
89.4963179831
 21
131.9427626024
 31
0.0
  0
LINE
  5
274
330
1F
100
AcDbEntity
  8
0
  6
Continuous
 62
     7
370
    25
100
AcDbLine
 10
89.4974458403
 20
128.4133524079
 30
0.0
 11
89.4963179831
 21
128.3702812775
 31
0.0
  0
ELLIPSE
  5
275
330
1F
100
AcDbEntity
  8
0
  6
Continuous
 62
     7
370
    25
100
AcDbEllipse
 10
53.2795794056
 20
129.9941942154
 30
0.0
 11
36.18915845259203
 21
1.947628334984188
 31
0.0
210
0.0
220
0.0
230
1.0
 40
0.0007414247
 41
0.0282885576640066
 42
0.4911607830437584
  0
LINE
  5
276
330
1F
100
AcDbEntity
  8
0
  6
Continuous
 62
     7
370
    25
100
AcDbLine
 10
89.4542179288
 20
131.9418022391
 30
0.0
 11
89.6766473112
 21
131.7251211279
 31
0.0
  0
LINE
  5
277
330
1F
100
AcDbEntity
  8
0
  6
Continuous
 62
     7
370
    25
100
AcDbLine
 10
89.6766473112
 20
128.587922752
 30
0.0
 11
89.4542179288
 21
128.3712416408
 31
0.0
  0
ELLIPSE
  5
278
330
1F
100
AcDbEntity
  8
0
  6
Continuous
 62
     7
370
    25
100
AcDbEllipse
 10
53.2795794056
 20
130.3188496646
 30
0.0
 11
36.18915845257634
 21
-1.947628334983335
 31
0.0
210
0.0
220
0.0
230
1.0
 40
0.0007414247
 41
5.792024524150261
 42
6.254896749545615
  0
LINE
  5
279
330
1F
100
AcDbEntity
  8
0
  6
Continuous
 62
     7
370
    25
100
AcDbLine
 10
117.298462183
 20
133.0214703521
 30
0.0
 11
117.9491156491
 21
133.2555654859
 31
0.0
  0
SPLINE
  5
27A
330
1F
100
AcDbEntity
  8
0
  6
Continuous
 62
     7
370
    25
100
AcDbSpline
210
0.0
220
0.0
230
1.0
 70
     8
 71
     3
 72
    10
 73
     6
 74
     0
 42
0.00000001
 43
0.00000001
 40
0.0
 40
0.0
 40
0.0
 40
0.0
 40
0.2383396858856107
 40
0.571650633368965
 40
1.0
 40
1.0
 40
1.0
 40
1.0
 10
117.3005623429979
 20
133.0150443820087
 30
0.0
 10
117.0562960878979
 20
132.9404461795818
 30
0.0
 10
116.4704307548974
 20
132.7615246143079
 30
0.0
 10
115.4338759538919
 20
132.5251805020529
 30
0.0
 10
114.6391818582924
 20
132.4665971258675
 30
0.0
 10
114.1922546570093
 20
132.4336504807303
 30
0.0
  0
SPLINE
  5
27B
330
1F
100
AcDbEntity
  8
0
  6
Continuous
 62
     7
370
    25
100
AcDbSpline
210
0.0
220
0.0
230
1.0
 70
     8
 71
     3
 72
    11
 73
     7
 74
     0
 42
0.00000001
 43
0.00000001
 40
0.0
 40
0.0
 40
0.0
 40
0.0
 40
0.2506671725023492
 40
0.5010414677145718
 40
0.7508849997170933
 40
1.0
 40
1.0
 40
1.0
 40
1.0
 10
111.1238661517996
 20
132.509099882451
 30
0.0
 10
111.5995541643602
 20
132.5359744491062
 30
0.0
 10
112.5503743998474
 20
132.5896921824124
 30
0.0
 10
113.9510470170597
 20
132.8751576460663
 30
0.0
 10
115.3146127783114
 20
133.296685792686
 30
0.0
 10
116.1672803248673
 20
133.713042870383
 30
0.0
 10
116.5929916061807
 20
133.9209174467594
 30
0.0
  0
SPLINE
  5
27C
330
1F
100
AcDbEntity
  8
0
  6
Continuous
 62
     7
370
    25
100
AcDbSpline
210
0.0
220
0.0
230
1.0
 70
     8
 71
     3
 72
     9
 73
     5
 74
     0
 42
0.00000001
 43
0.00000001
 40
0.0
 40
0.0
 40
0.0
 40
0.0
 40
0.501325902198991
 40
1.0
 40
1.0
 40
1.0
 40
1.0
 10
116.5929915767389
 20
133.9209175001236
 30
0.0
 10
116.817067277573
 20
134.0459601575937
 30
0.0
 10
117.2640334124788
 20
134.2953840491613
 30
0.0
 10
117.6780786921743
 20
134.5971521575825
 30
0.0
 10
117.8845523484752
 20
134.7476360967946
 30
0.0
  0
LINE
  5
27D
330
1F
100
AcDbEntity
  8
0
  6
Continuous
 62
     7
370
    25
100
AcDbLine
 10
119.9503328085
 20
134.8624025361
 30
0.0
 11
117.8843790736
 21
134.7476273286
 31
0.0
  0
SPLINE
  5
27E
330
1F
100
AcDbEntity
  8
0
  6
Continuous
 62
     7
370
    25
100
AcDbSpline
210
0.0
220
0.0
230
1.0
 70
     8
 71
     3
 72
    14
 73
    10
 74
     0
 42
0.00000001
 43
0.00000001
 40
0.0
 40
0.0
 40
0.0
 40
0.0
 40
0.0829413618596714
 40
0.1664594845668882
 40
0.2437726390188662
 40
0.3161479456895724
 40
0.4353725718192331
 40
0.6486290670514194
 40
1.0
 40
1.0
 40
1.0
 40
1.0
 10
119.9503327956345
 20
134.8624025312913
 30
0.0
 10
119.9961320969094
 20
134.8605873417089
 30
0.0
 10
120.0880491804105
 20
134.8569443400086
 30
0.0
 10
120.1385942129468
 20
134.7752832075211
 30
0.0
 10
120.0976893165066
 20
134.6419997272362
 30
0.0
 10
119.9620882704021
 20
134.4536732709986
 30
0.0
 10
119.6451799996573
 20
134.1554061913363
 30
0.0
 10
118.9681913894241
 20
133.697379032551
 30
0.0
 10
118.3400245732107
 20
133.4250435038731
 30
0.0
 10
117.9491127094859
 20
133.2555675202233
 30
0.0
  0
LINE
  5
27F
330
1F
100
AcDbEntity
  8
0
  6
Continuous
 62
     7
370
    25
100
AcDbLine
 10
117.8843790735
 20
125.5654165513
 30
0.0
 11
119.9503328084
 21
125.4506413438
 31
0.0
  0
SPLINE
  5
280
330
1F
100
AcDbEntity
  8
0
  6
Continuous
 62
     7
370
    25
100
AcDbSpline
210
0.0
220
0.0
230
1.0
 70
     8
 71
     3
 72
     9
 73
     5
 74
     0
 42
0.00000001
 43
0.00000001
 40
0.0
 40
0.0
 40
0.0
 40
0.0
 40
0.4986740982738612
 40
1.0
 40
1.0
 40
1.0
 40
1.0
 10
117.8845521472496
 20
125.565407601278
 30
0.0
 10
117.6780785061799
 20
125.7158915375571
 30
0.0
 10
117.2640332574203
 20
126.0176596398104
 30
0.0
 10
116.8170671554754
 20
126.2670835314327
 30
0.0
 10
116.5929914713768
 20
126.3921261888123
 30
0.0
  0
SPLINE
  5
281
330
1F
100
AcDbEntity
  8
0
  6
Continuous
 62
     7
370
    25
100
AcDbSpline
210
0.0
220
0.0
230
1.0
 70
     8
 71
     3
 72
    11
 73
     7
 74
     0
 42
0.00000001
 43
0.00000001
 40
0.0
 40
0.0
 40
0.0
 40
0.0
 40
0.2491150002829079
 40
0.4989585322854286
 40
0.7493328274976518
 40
1.0
 40
1.0
 40
1.0
 40
1.0
 10
116.5929916061807
 20
126.3921264331484
 30
0.0
 10
116.1672803248673
 20
126.6000010095249
 30
0.0
 10
115.3146127783114
 20
127.0163580872219
 30
0.0
 10
113.9510470170597
 20
127.4378862338416
 30
0.0
 10
112.5503743998474
 20
127.7233516974955
 30
0.0
 10
111.5995541643602
 20
127.7770694308017
 30
0.0
 10
111.1238661517996
 20
127.8039439974568
 30
0.0
  0
SPLINE
  5
282
330
1F
100
AcDbEntity
  8
0
  6
Continuous
 62
     7
370
    25
100
AcDbSpline
210
0.0
220
0.0
230
1.0
 70
     8
 71
     3
 72
    10
 73
     6
 74
     0
 42
0.00000001
 43
0.00000001
 40
0.0
 40
0.0
 40
0.0
 40
0.0
 40
0.428349366631063
 40
0.7616603141144169
 40
1.0
 40
1.0
 40
1.0
 40
1.0
 10
114.1922546570094
 20
127.8793933991776
 30
0.0
 10
114.6391818582924
 20
127.8464467540404
 30
0.0
 10
115.433875953892
 20
127.787863377855
 30
0.0
 10
116.4704307548975
 20
127.5515192656
 30
0.0
 10
117.0562960878979
 20
127.3725977003262
 30
0.0
 10
117.3005623429979
 20
127.2979994978994
 30
0.0
  0
LINE
  5
283
330
1F
100
AcDbEntity
  8
0
  6
Continuous
 62
     7
370
    25
100
AcDbLine
 10
117.2984621829
 20
127.2915735275
 30
0.0
 11
117.949115649
 21
127.0574783937
 31
0.0
  0
SPLINE
  5
284
330
1F
100
AcDbEntity
  8
0
  6
Continuous
 62
     7
370
    25
100
AcDbSpline
210
0.0
220
0.0
230
1.0
 70
     8
 71
     3
 72
    15
 73
    11
 74
     0
 42
0.00000001
 43
0.00000001
 40
0.0
 40
0.0
 40
0.0
 40
0.0
 40
0.2091652517822448
 40
0.4176299509274911
 40
0.5931463878153098
 40
0.6923603779431111
 40
0.7731125739307029
 40
0.8543366880968446
 40
0.9261517123972134
 40
1.0
 40
1.0
 40
1.0
 40
1.0
 10
117.9491127093953
 20
127.0574763594531
 30
0.0
 10
118.1826969214907
 20
126.9597787269637
 30
0.0
 10
118.6490830071508
 20
126.7647106785444
 30
0.0
 10
119.27273315433
 20
126.4154308251919
 30
0.0
 10
119.7325827836306
 20
126.0825406382485
 30
0.0
 10
119.9944671544004
 20
125.8209225522125
 30
0.0
 10
120.1149371349156
 20
125.6403285392987
 30
0.0
 10
120.1337303618253
 20
125.5182343759884
 30
0.0
 10
120.0726921605188
 20
125.4541843866699
 30
0.0
 10
119.9914970420074
 20
125.451833300632
 30
0.0
 10
119.9503327955996
 20
125.4506413486185
 30
0.0
  0
SPLINE
  5
285
330
1F
100
AcDbEntity
  8
0
  6
Continuous
 62
     7
370
    25
100
AcDbSpline
210
0.0
220
0.0
230
1.0
 70
    24
 71
     3
 72
    11
 73
     7
 74
     0
 42
0.00000001
 43
0.00000001
 40
0.0
 40
0.0
 40
0.0
 40
0.0
 40
0.2499999999999989
 40
0.4999999999999996
 40
0.749999999999999
 40
1.0
 40
1.0
 40
1.0
 40
1.0
 10
126.7175160712997
 20
127.0514078861494
 30
0.0
 10
126.7192025418036
 20
127.1158115963445
 30
0.0
 10
126.7225754828115
 20
127.2446190167346
 30
0.0
 10
126.7268553797128
 20
127.408061685345
 30
0.0
 10
126.7298975005265
 20
127.5242355922182
 30
0.0
 10
126.7303658737491
 20
127.5421220439648
 30
0.0
 10
126.7306000603604
 20
127.551065269838
 30
0.0
  0
LINE
  5
286
330
1F
100
AcDbEntity
  8
0
  6
Continuous
 62
     7
370
    25
100
AcDbLine
 10
117.300562343
 20
127.2979994979
 30
0.0
 11
126.7175160713
 21
127.0514078861
 31
0.0
  0
LINE
  5
287
330
1F
100
AcDbEntity
  8
0
  6
Continuous
 62
     7
370
    25
100
AcDbLine
 10
126.7175160713
 20
133.2616359938
 30
0.0
 11
117.300562343
 21
133.015044382
 31
0.0
  0
SPLINE
  5
288
330
1F
100
AcDbEntity
  8
0
  6
Continuous
 62
     7
370
    25
100
AcDbSpline
210
0.0
220
0.0
230
1.0
 70
    24
 71
     3
 72
    11
 73
     7
 74
     0
 42
0.00000001
 43
0.00000001
 40
0.0
 40
0.0
 40
0.0
 40
0.0
 40
0.2500000000000009
 40
0.5000000000000002
 40
0.7500000000000007
 40
0.9999999999999999
 40
0.9999999999999999
 40
0.9999999999999999
 40
0.9999999999999999
 10
126.7306000603604
 20
132.7619786100699
 30
0.0
 10
126.7303658737491
 20
132.7709218359431
 30
0.0
 10
126.7298975005265
 20
132.7888082876896
 30
0.0
 10
126.7268553797128
 20
132.9049821945629
 30
0.0
 10
126.7225754828115
 20
133.0684248631732
 30
0.0
 10
126.7192025418036
 20
133.1972322835634
 30
0.0
 10
126.7175160712997
 20
133.2616359937585
 30
0.0
  0
ELLIPSE
  5
289
330
1F
100
AcDbEntity
  8
0
  6
Continuous
 62
     7
370
    25
100
AcDbEllipse
 10
126.7305866051
 20
129.0524370272
 30
0.0
 11
2.497021557391562
 21
-0.1525991103465856
 31
2.131628207280301E-14
210
-8.504919643681463E-15
220
5.197564944336542E-16
230
1.0
 40
0.7994627403
 41
4.755979052769774
 42
6.332003616895592
  0
SPLINE
  5
28A
330
1F
100
AcDbEntity
  8
0
  6
Continuous
 62
     7
370
    25
100
AcDbSpline
210
0.0
220
0.0
230
1.0
 70
    24
 71
     3
 72
    11
 73
     7
 74
     0
 42
0.00000001
 43
0.00000001
 40
0.0
 40
0.0
 40
0.0
 40
0.0
 40
0.2500000000000007
 40
0.5000000000000022
 40
0.7500000000000036
 40
1.0
 40
1.0
 40
1.0
 40
1.0
 10
128.8305866050808
 20
128.9974358202537
 30
0.0
 10
128.8558465432849
 20
128.9974358202537
 30
0.0
 10
128.9063664196933
 20
128.9974358202537
 30
0.0
 10
129.0052250288936
 20
128.9974358202537
 30
0.0
 10
129.1146123087171
 20
128.9974358202537
 30
0.0
 10
129.1919285062929
 20
128.9974358202537
 30
0.0
 10
129.2305866050808
 20
128.9974358202537
 30
0.0
  0
ELLIPSE
  5
28B
330
1F
100
AcDbEntity
  8
0
  6
Continuous
 62
     7
370
    25
100
AcDbEllipse
 10
126.7305866051
 20
131.2606068528
 30
0.0
 11
2.497021557391562
 21
0.152599110346614
 31
2.131628207280301E-14
210
-8.504919643681457E-15
220
-5.197564944335934E-16
230
1.0
 40
0.7994627403
 41
6.234366997463598
 42
7.810391561589412
  0
SPLINE
  5
28C
330
1F
100
AcDbEntity
  8
0
  6
Continuous
 62
     7
370
    25
100
AcDbSpline
210
0.0
220
0.0
230
1.0
 70
    24
 71
     3
 72
    11
 73
     7
 74
     0
 42
0.00000001
 43
0.00000001
 40
0.0
 40
0.0
 40
0.0
 40
0.0
 40
0.2500000000000002
 40
0.500000000000003
 40
0.7499999999999994
 40
1.0
 40
1.0
 40
1.0
 40
1.0
 10
129.2305866050808
 20
131.3156080596541
 30
0.0
 10
129.1919285062929
 20
131.3156080596541
 30
0.0
 10
129.1146123087171
 20
131.3156080596541
 30
0.0
 10
129.0052250288936
 20
131.3156080596541
 30
0.0
 10
128.9063664196933
 20
131.3156080596541
 30
0.0
 10
128.8558465432849
 20
131.3156080596541
 30
0.0
 10
128.8305866050808
 20
131.3156080596541
 30
0.0
  0
LINE
  5
28D
330
1F
100
AcDbEntity
  8
0
  6
Continuous
 62
     7
370
    25
100
AcDbLine
 10
129.3674082796
 20
126.4297835157
 30
0.0
 11
117.9516789961
 21
127.0639906981
 31
0.0
  0
LINE
  5
28E
330
1F
100
AcDbEntity
  8
0
  6
Continuous
 62
     7
370
    25
100
AcDbLine
 10
129.2842032502
 20
124.9320929859
 30
0.0
 11
129.3674082796
 21
126.4297835157
 31
0.0
  0
LINE
  5
28F
330
1F
100
AcDbEntity
  8
0
  6
Continuous
 62
     7
370
    25
100
AcDbLine
 10
119.9505252387
 20
125.4506306532
 30
0.0
 11
129.2842032502
 21
124.9320929859
 31
0.0
  0
LINE
  5
290
330
1F
100
AcDbEntity
  8
0
  6
Continuous
 62
     7
370
    25
100
AcDbLine
 10
129.2305866051
 20
128.9974358203
 30
0.0
 11
129.2305866051
 21
131.3156080597
 31
0.0
  0
LINE
  5
291
330
1F
100
AcDbEntity
  8
0
  6
Continuous
 62
     7
370
    25
100
AcDbLine
 10
129.2842032502
 20
135.380950894
 30
0.0
 11
119.9505252387
 21
134.8624132267
 31
0.0
  0
LINE
  5
292
330
1F
100
AcDbEntity
  8
0
  6
Continuous
 62
     7
370
    25
100
AcDbLine
 10
129.3674082796
 20
133.8832603642
 30
0.0
 11
129.2842032502
 21
135.380950894
 31
0.0
  0
LINE
  5
293
330
1F
100
AcDbEntity
  8
0
  6
Continuous
 62
     7
370
    25
100
AcDbLine
 10
117.9516789961
 20
133.2490531818
 30
0.0
 11
129.3674082796
 21
133.8832603642
 31
0.0
  0
LINE
  5
294
330
1F
100
AcDbEntity
  8
0
  6
Continuous
 62
     7
370
    25
100
AcDbLine
 10
129.7305866051
 20
126.7929618412
 30
0.0
 11
129.3674082796
 21
126.4297835157
 31
0.0
  0
LINE
  5
295
330
1F
100
AcDbEntity
  8
0
  6
Continuous
 62
     7
370
    25
100
AcDbLine
 10
129.3674082796
 20
133.8832603642
 30
0.0
 11
129.7305866051
 21
133.5200820387
 31
0.0
  0
LINE
  5
296
330
1F
100
AcDbEntity
  8
0
  6
Continuous
 62
     7
370
    25
100
AcDbLine
 10
129.7305866051
 20
126.7929618412
 30
0.0
 11
129.7305866051
 21
133.5200820387
 31
0.0
  0
LINE
  5
297
330
1F
100
AcDbEntity
  8
0
  6
Continuous
 62
     7
370
    25
100
AcDbLine
 10
129.7305866051
 20
134.2464386897
 30
0.0
 11
129.3674082796
 21
133.8832603642
 31
0.0
  0
ARC
  5
298
330
1F
100
AcDbEntity
  8
0
  6
Continuous
 62
     7
370
    25
100
AcDbCircle
 10
129.3674082796
 20
133.8832603642
 30
0.0
 40
1.500000000000004
100
AcDbArc
 50
75.9883675978
 51
93.1798301199
  0
LINE
  5
299
330
1F
100
AcDbEntity
  8
0
  6
Continuous
 62
     7
370
    25
100
AcDbLine
 10
129.7305866051
 20
134.2464386897
 30
0.0
 11
129.7305866051
 21
135.3386302498
 31
0.0
  0
LINE
  5
29A
330
1F
100
AcDbEntity
  8
0
  6
Continuous
 62
     7
370
    25
100
AcDbLine
 10
129.7305866051
 20
133.5200820387
 30
0.0
 11
129.7305866051
 21
134.2464386897
 31
0.0
  0
LINE
  5
29B
330
1F
100
AcDbEntity
  8
0
  6
Continuous
 62
     7
370
    25
100
AcDbLine
 10
129.3674082796
 20
126.4297835157
 30
0.0
 11
129.7305866051
 21
126.0666051902
 31
0.0
  0
LINE
  5
29C
330
1F
100
AcDbEntity
  8
0
  6
Continuous
 62
     7
370
    25
100
AcDbLine
 10
129.7305866051
 20
126.0666051902
 30
0.0
 11
129.7305866051
 21
126.7929618412
 31
0.0
  0
ARC
  5
29D
330
1F
100
AcDbEntity
  8
0
  6
Continuous
 62
     7
370
    25
100
AcDbCircle
 10
129.3674082796
 20
126.4297835157
 30
0.0
 40
1.500000000000007
100
AcDbArc
 50
266.8201698801
 51
284.0116324022
  0
LINE
  5
29E
330
1F
100
AcDbEntity
  8
0
  6
Continuous
 62
     7
370
    25
100
AcDbLine
 10
129.7305866051
 20
124.9744136301
 30
0.0
 11
129.7305866051
 21
126.0666051902
 31
0.0
  0
SPLINE
  5
29F
330
1F
100
AcDbEntity
  8
0
  6
Continuous
 62
     7
370
    25
100
AcDbSpline
210
0.0
220
0.0
230
1.0
 70
    24
 71
     3
 72
     9
 73
     5
 74
     0
 42
0.00000001
 43
0.00000001
 40
0.0
 40
0.0
 40
0.0
 40
0.0
 40
0.5389665913333133
 40
0.9999999999999999
 40
0.9999999999999999
 40
0.9999999999999999
 40
0.9999999999999999
 10
117.8845531438801
 20
134.7476369991955
 30
0.0
 10
117.8386272021026
 20
134.7450855579857
 30
0.0
 10
117.7534160915886
 20
134.7403516074015
 30
0.0
 10
117.7659972837516
 20
134.7410505625217
 30
0.0
 10
117.7717976336597
 20
134.7413728041833
 30
0.0
  0
SPLINE
  5
2A0
330
1F
100
AcDbEntity
  8
0
  6
Continuous
 62
     7
370
    25
100
AcDbSpline
210
0.0
220
0.0
230
1.0
 70
    24
 71
     3
 72
     9
 73
     5
 74
     0
 42
0.00000001
 43
0.00000001
 40
0.0
 40
0.0
 40
0.0
 40
0.0
 40
0.449000901028251
 40
1.0
 40
1.0
 40
1.0
 40
1.0
 10
117.777895704825
 20
125.5713322939932
 30
0.0
 10
117.7695101522333
 20
125.5717981580261
 30
0.0
 10
117.7508341260327
 20
125.5728357150372
 30
0.0
 10
117.8370488878182
 20
125.5680460060491
 30
0.0
 10
117.8845531438801
 20
125.5654068807124
 30
0.0
  0
SPLINE
  5
2A1
330
1F
100
AcDbEntity
  8
0
  6
Continuous
 62
     7
370
    25
100
AcDbSpline
210
0.0
220
0.0
230
1.0
 70
     8
 71
     3
 72
     9
 73
     5
 74
     0
 42
0.00000001
 43
0.00000001
 40
0.0
 40
0.0
 40
0.0
 40
0.0
 40
0.5407747560677784
 40
1.0
 40
1.0
 40
1.0
 40
1.0
 10
89.49631798305872
 20
131.9427626023706
 30
0.0
 10
89.48856194101127
 20
131.9427921027834
 30
0.0
 10
89.4742194777945
 20
131.9428466549098
 30
0.0
 10
89.45990097398656
 20
131.9422424097749
 30
0.0
 10
89.4533255555826
 20
131.9419649251554
 30
0.0
  0
LINE
  5
2A2
330
1F
100
AcDbEntity
  8
0
  6
Continuous
 62
     7
370
    25
100
AcDbLine
 10
89.4963179831
 20
128.3702812775
 30
0.0
 11
89.4533255556
 21
128.3710789547
 31
0.0
  0
CIRCLE
  5
2A3
330
1F
100
AcDbEntity
  8
0
  6
Continuous
 62
     7
370
    25
100
AcDbCircle
 10
139.7305866051
 20
130.15652194
 30
0.0
 40
7.558608890731364
  0
CIRCLE
  5
2A4
330
1F
100
AcDbEntity
  8
0
  6
Continuous
 62
     7
370
    25
100
AcDbCircle
 10
139.7305866051
 20
130.15652194
 30
0.0
 40
8.054747829088171
  0
CIRCLE
  5
2A5
330
1F
100
AcDbEntity
  8
0
  6
Continuous
 62
     7
370
    25
100
AcDbCircle
 10
139.7305866051
 20
130.15652194
 30
0.0
 40
5.500000000000028
  0
SPLINE
  5
2A6
330
1F
100
AcDbEntity
  8
0
  6
Continuous
 62
     7
370
    25
100
AcDbSpline
210
0.0
220
0.0
230
1.0
 70
     8
 71
     3
 72
    11
 73
     7
 74
     0
 42
0.00000001
 43
0.00000001
 40
0.0
 40
0.0
 40
0.0
 40
0.0
 40
0.2920574028183094
 40
0.5665622171831318
 40
0.8065682389915578
 40
1.0
 40
1.0
 40
1.0
 40
1.0
 10
131.6143809980274
 20
128.676756234163
 30
0.0
 10
131.6460415343429
 20
128.5091556987393
 30
0.0
 10
131.7074598154036
 20
128.1840273848038
 30
0.0
 10
131.7873721746681
 20
127.7834237189376
 30
0.0
 10
131.8264709883956
 20
127.5255835229323
 30
0.0
 10
131.811054625466
 20
127.4749380946507
 30
0.0
 10
131.8041747124819
 20
127.4523363862443
 30
0.0
  0
ARC
  5
2A7
330
1F
100
AcDbEntity
  8
0
  6
Continuous
 62
     7
370
    25
100
AcDbCircle
 10
139.7305866051
 20
130.15652194
 30
0.0
 40
8.249999999999996
100
AcDbArc
 50
169.6671934996
 51
190.3328065004
  0
SPLINE
  5
2A8
330
1F
100
AcDbEntity
  8
0
  6
Continuous
 62
     7
370
    25
100
AcDbSpline
210
0.0
220
0.0
230
1.0
 70
     8
 71
     3
 72
    12
 73
     8
 74
     0
 42
0.00000001
 43
0.00000001
 40
0.0
 40
0.0
 40
0.0
 40
0.0
 40
0.1882084234719069
 40
0.3759134198095928
 40
0.5768476463044282
 40
0.8018243756979397
 40
1.0
 40
1.0
 40
1.0
 40
1.0
 10
131.8041747124852
 20
132.8607074936602
 30
0.0
 10
131.8110463038547
 20
132.8391042991476
 30
0.0
 10
131.8247711061967
 20
132.7959556951783
 30
0.0
 10
131.7989464062386
 20
132.6024158373958
 30
0.0
 10
131.7478666115969
 20
132.3275867793567
 30
0.0
 10
131.6806266099287
 20
131.9918466419874
 30
0.0
 10
131.6355103628085
 20
131.7496949419746
 30
0.0
 10
131.6143809980274
 20
131.6362876457449
 30
0.0
  0
ARC
  5
2A9
330
1F
100
AcDbEntity
  8
0
  6
Continuous
 62
     7
370
    25
100
AcDbCircle
 10
139.7305866051
 20
130.15652194
 30
0.0
 40
8.986048245082019
100
AcDbArc
 50
200.7364869057
 51
159.2635130943
  0
LINE
  5
2AA
330
1F
100
AcDbEntity
  8
0
  6
Continuous
 62
     7
370
    25
100
AcDbLine
 10
131.8041747125
 20
127.4523363862
 30
0.0
 11
130.0745150608
 21
125.7226767345
 31
0.0
  0
LINE
  5
2AB
330
1F
100
AcDbEntity
  8
0
  6
Continuous
 62
     7
370
    25
100
AcDbLine
 10
130.0745150608
 20
134.5903671454
 30
0.0
 11
131.8041747125
 21
132.8607074937
 31
0.0
  0
ARC
  5
2AC
330
1F
100
AcDbEntity
  8
0
  6
Continuous
 62
     7
370
    25
100
AcDbCircle
 10
129.3674082796
 20
133.8832603642
 30
0.0
 40
0.999999999999988
100
AcDbArc
 50
45.0
 51
68.7044833353
  0
ARC
  5
2AD
330
1F
100
AcDbEntity
  8
0
  6
Continuous
 62
     7
370
    25
100
AcDbCircle
 10
129.3674082796
 20
126.4297835157
 30
0.0
 40
1.000000000000006
100
AcDbArc
 50
291.2955166647
 51
315.0
  0
LINE
  5
2AE
330
1F
100
AcDbEntity
  8
0
  6
Continuous
 62
     7
370
    25
100
AcDbLine
 10
123.7305866051
 20
118.40652194
 30
0.0
 11
123.7305866051
 21
125.240627244
 31
0.0
  0
LINE
  5
2AF
330
1F
100
AcDbEntity
  8
0
  6
Continuous
 62
     7
370
    25
100
AcDbLine
 10
123.7305866051
 20
135.0724166359
 30
0.0
 11
123.7305866051
 21
141.90652194
 31
0.0
  0
LINE
  5
2B0
330
1F
100
AcDbEntity
  8
0
  6
Continuous
 62
     7
370
    25
100
AcDbLine
 10
123.9805866051
 20
142.15652194
 30
0.0
 11
123.9805866051
 21
135.0863055248
 31
0.0
  0
LINE
  5
2B1
330
1F
100
AcDbEntity
  8
0
  6
Continuous
 62
     7
370
    25
100
AcDbLine
 10
123.9805866051
 20
125.2267383551
 30
0.0
 11
123.9805866051
 21
118.15652194
 31
0.0
  0
LINE
  5
2B2
330
1F
100
AcDbEntity
  8
0
  6
Continuous
 62
     7
370
    25
100
AcDbLine
 10
111.7305866051
 20
122.82552194
 30
0.0
 11
111.7305866051
 21
127.7565301599
 31
0.0
  0
LINE
  5
2B3
330
1F
100
AcDbEntity
  8
0
  6
Continuous
 62
     7
370
    25
100
AcDbLine
 10
111.7305866051
 20
132.5491137086
 30
0.0
 11
111.7305866051
 21
137.48752194
 31
0.0
  0
LINE
  5
2B4
330
1F
100
AcDbEntity
  8
0
  6
Continuous
 62
     7
370
    25
100
AcDbLine
 10
112.7305866051
 20
138.48752194
 30
0.0
 11
112.7305866051
 21
132.6655081762
 31
0.0
  0
LINE
  5
2B5
330
1F
100
AcDbEntity
  8
0
  6
Continuous
 62
     7
370
    25
100
AcDbLine
 10
112.7305866051
 20
127.6586508363
 30
0.0
 11
112.7305866051
 21
121.82552194
 31
0.0
  0
LINE
  5
2B6
330
1F
100
AcDbEntity
  8
0
  6
Continuous
 62
     7
370
    25
100
AcDbLine
 10
120.2305866051
 20
121.82552194
 30
0.0
 11
120.2305866051
 21
125.4350716884
 31
0.0
  0
LINE
  5
2B7
330
1F
100
AcDbEntity
  8
0
  6
Continuous
 62
     7
370
    25
100
AcDbLine
 10
120.2305866051
 20
134.8779721915
 30
0.0
 11
120.2305866051
 21
138.48752194
 31
0.0
  0
LINE
  5
2B8
330
1F
100
AcDbEntity
  8
0
  6
Continuous
 62
     7
370
    25
100
AcDbLine
 10
121.2305866051
 20
137.48752194
 30
0.0
 11
121.2305866051
 21
134.933527747
 31
0.0
  0
LINE
  5
2B9
330
1F
100
AcDbEntity
  8
0
  6
Continuous
 62
     7
370
    25
100
AcDbLine
 10
121.2305866051
 20
125.3795161329
 30
0.0
 11
121.2305866051
 21
122.82552194
 31
0.0
  0
SPLINE
  5
2BA
330
1F
100
AcDbEntity
  8
0
  6
Continuous
 62
     7
370
    25
100
AcDbSpline
210
0.0
220
0.0
230
1.0
 70
     8
 71
     3
 72
    10
 73
     6
 74
     0
 42
0.00000001
 43
0.00000001
 40
0.0
 40
0.0
 40
0.0
 40
0.0
 40
0.5000000000000001
 40
0.5000000000000001
 40
1.0
 40
1.0
 40
1.0
 40
1.0
 10
151.1428733648093
 20
138.892224544782
 30
0.0
 10
151.6099162034698
 20
137.4800468496855
 30
0.0
 10
152.0122653322358
 20
136.0334085246727
 30
0.0
 10
152.5729843565073
 20
133.120389179327
 30
0.0
 10
152.7305866050808
 20
131.648395287924
 30
0.0
 10
152.7305866050808
 20
130.1565219399539
 30
0.0
  0
LINE
  5
2BB
330
1F
100
AcDbEntity
  8
0
  6
Continuous
 62
     7
370
    25
100
AcDbLine
 10
151.1428733648
 20
142.65652194
 30
0.0
 11
151.1428733648
 21
138.8922245448
 31
0.0
  0
SPLINE
  5
2BC
330
1F
100
AcDbEntity
  8
0
  6
Continuous
 62
     7
370
    25
100
AcDbSpline
210
0.0
220
0.0
230
1.0
 70
    24
 71
     3
 72
    12
 73
     8
 74
     0
 42
0.00000001
 43
0.00000001
 40
0.0
 40
0.0
 40
0.0
 40
0.0
 40
0.2499999999999999
 40
0.2499999999999999
 40
0.4999999999999998
 40
0.4999999999999998
 40
1.0
 40
1.0
 40
1.0
 40
1.0
 10
152.7305866050808
 20
142.6565219399539
 30
0.0
 10
152.7305866050808
 20
142.6565219399539
 30
0.0
 10
152.6911776397014
 20
142.6565219399539
 30
0.0
 10
152.5405582183685
 20
142.6565219399539
 30
0.0
 10
152.4296890025776
 20
142.6565219399539
 30
0.0
 10
152.0085260054055
 20
142.6565219399539
 30
0.0
 10
151.6108392481819
 20
142.6565219399539
 30
0.0
 10
151.1428733648093
 20
142.6565219399539
 30
0.0
  0
LINE
  5
2BD
330
1F
100
AcDbEntity
  8
0
  6
Continuous
 62
     7
370
    25
100
AcDbLine
 10
152.7305866051
 20
142.65652194
 30
0.0
 11
152.7305866051
 21
130.15652194
 31
0.0
  0
LINE
  5
2BE
330
1F
100
AcDbEntity
  8
0
  6
Continuous
 62
     7
370
    25
100
AcDbLine
 10
128.3182998454
 20
138.8922245448
 30
0.0
 11
128.3182998454
 21
142.65652194
 31
0.0
  0
SPLINE
  5
2BF
330
1F
100
AcDbEntity
  8
0
  6
Continuous
 62
     7
370
    25
100
AcDbSpline
210
0.0
220
0.0
230
1.0
 70
     8
 71
     3
 72
     9
 73
     5
 74
     0
 42
0.00000001
 43
0.00000001
 40
0.0
 40
0.0
 40
0.0
 40
0.0
 40
0.4308597066807026
 40
1.0
 40
1.0
 40
1.0
 40
1.0
 10
127.3139270754328
 20
135.2714911065039
 30
0.0
 10
127.4361196105989
 20
135.7975299415454
 30
0.0
 10
127.7197212871339
 20
137.0184350920734
 30
0.0
 10
128.1011904016336
 20
138.2125854562482
 30
0.0
 10
128.3182998453523
 20
138.892224544782
 30
0.0
  0
SPLINE
  5
2C0
330
1F
100
AcDbEntity
  8
0
  6
Continuous
 62
     7
370
    25
100
AcDbSpline
210
0.0
220
0.0
230
1.0
 70
    24
 71
     3
 72
    12
 73
     8
 74
     0
 42
0.00000001
 43
0.00000001
 40
0.0
 40
0.0
 40
0.0
 40
0.0
 40
0.25
 40
0.25
 40
0.5
 40
0.5
 40
1.0
 40
1.0
 40
1.0
 40
1.0
 10
126.7305866050808
 20
142.6565219399539
 30
0.0
 10
126.7305866050808
 20
142.6565219399539
 30
0.0
 10
126.7699796904504
 20
142.6565219399539
 30
0.0
 10
126.9206110932158
 20
142.6565219399539
 30
0.0
 10
127.0314915223876
 20
142.6565219399539
 30
0.0
 10
127.452678928352
 20
142.6565219399539
 30
0.0
 10
127.8503666738317
 20
142.6565219399539
 30
0.0
 10
128.3182998453523
 20
142.6565219399539
 30
0.0
  0
LINE
  5
2C1
330
1F
100
AcDbEntity
  8
0
  6
Continuous
 62
     7
370
    25
100
AcDbLine
 10
126.7305866051
 20
135.2390833026
 30
0.0
 11
126.7305866051
 21
142.65652194
 31
0.0
  0
LINE
  5
2C2
330
1F
100
AcDbEntity
  8
0
  6
Continuous
 62
     7
370
    25
100
AcDbLine
 10
151.1428733648
 20
138.8922245448
 30
0.0
 11
141.8696063429
 21
138.8922245448
 31
0.0
  0
LINE
  5
2C3
330
1F
100
AcDbEntity
  8
0
  6
Continuous
 62
     7
370
    25
100
AcDbLine
 10
137.5915668672
 20
138.8922245448
 30
0.0
 11
128.3182998454
 21
138.8922245448
 31
0.0
  0
LINE
  5
2C4
330
1F
100
AcDbEntity
  8
0
  6
Continuous
 62
     7
370
    25
100
AcDbLine
 10
151.1428733648
 20
142.65652194
 30
0.0
 11
128.3182998454
 21
142.65652194
 31
0.0
  0
SPLINE
  5
2C5
330
1F
100
AcDbEntity
  8
0
  6
Continuous
 62
     7
370
    25
100
AcDbSpline
210
0.0
220
0.0
230
1.0
 70
     8
 71
     3
 72
    12
 73
     8
 74
     0
 42
0.00000001
 43
0.00000001
 40
0.0
 40
0.0
 40
0.0
 40
0.0
 40
0.2500000000000001
 40
0.2500000000000001
 40
0.5000000000000001
 40
0.5000000000000001
 40
1.0
 40
1.0
 40
1.0
 40
1.0
 10
152.7305866050808
 20
130.1565219399539
 30
0.0
 10
152.7305866050808
 20
129.4109607199952
 30
0.0
 10
152.6911776397014
 20
128.6591616179302
 30
0.0
 10
152.5405582183685
 20
127.1786412579146
 30
0.0
 10
152.4296890025777
 20
126.4457263174614
 30
0.0
 10
152.0085260054055
 20
124.2652736589387
 30
0.0
 10
151.6108392481819
 20
122.8357880015126
 30
0.0
 10
151.1428733648093
 20
121.4208193351259
 30
0.0
  0
LINE
  5
2C6
330
1F
100
AcDbEntity
  8
0
  6
Continuous
 62
     7
370
    25
100
AcDbLine
 10
151.1428733648
 20
121.4208193351
 30
0.0
 11
141.8696063429
 21
121.4208193351
 31
0.0
  0
LINE
  5
2C7
330
1F
100
AcDbEntity
  8
0
  6
Continuous
 62
     7
370
    25
100
AcDbLine
 10
137.5915668672
 20
121.4208193351
 30
0.0
 11
128.3182998454
 21
121.4208193351
 31
0.0
  0
SPLINE
  5
2C8
330
1F
100
AcDbEntity
  8
0
  6
Continuous
 62
     7
370
    25
100
AcDbSpline
210
0.0
220
0.0
230
1.0
 70
     8
 71
     3
 72
     9
 73
     5
 74
     0
 42
0.00000001
 43
0.00000001
 40
0.0
 40
0.0
 40
0.0
 40
0.0
 40
0.5268904349897643
 40
0.9999999999999999
 40
0.9999999999999999
 40
0.9999999999999999
 40
0.9999999999999999
 10
128.3182998453523
 20
121.4208193351259
 30
0.0
 10
128.1165065544913
 20
122.0495494616317
 30
0.0
 10
127.7335174594911
 20
123.2428338425069
 30
0.0
 10
127.4510226676395
 20
124.4637393384189
 30
0.0
 10
127.3173716795489
 20
125.0413614065085
 30
0.0
  0
SPLINE
  5
2C9
330
1F
100
AcDbEntity
  8
0
  6
Continuous
 62
     7
370
    25
100
AcDbSpline
210
0.0
220
0.0
230
1.0
 70
    24
 71
     3
 72
    12
 73
     8
 74
     0
 42
0.00000001
 43
0.00000001
 40
0.0
 40
0.0
 40
0.0
 40
0.0
 40
0.2499999999999999
 40
0.2499999999999999
 40
0.4999999999999999
 40
0.4999999999999999
 40
1.0
 40
1.0
 40
1.0
 40
1.0
 10
152.7305866050808
 20
117.6565219399539
 30
0.0
 10
152.7305866050808
 20
117.6565219399539
 30
0.0
 10
152.6911776397014
 20
117.6565219399539
 30
0.0
 10
152.5405582183685
 20
117.6565219399539
 30
0.0
 10
152.4296890025777
 20
117.6565219399539
 30
0.0
 10
152.0085260054055
 20
117.6565219399539
 30
0.0
 10
151.6108392481819
 20
117.6565219399539
 30
0.0
 10
151.1428733648093
 20
117.6565219399539
 30
0.0
  0
LINE
  5
2CA
330
1F
100
AcDbEntity
  8
0
  6
Continuous
 62
     7
370
    25
100
AcDbLine
 10
151.1428733648
 20
121.4208193351
 30
0.0
 11
151.1428733648
 21
117.65652194
 31
0.0
  0
LINE
  5
2CB
330
1F
100
AcDbEntity
  8
0
  6
Continuous
 62
     7
370
    25
100
AcDbLine
 10
152.7305866051
 20
130.15652194
 30
0.0
 11
152.7305866051
 21
117.65652194
 31
0.0
  0
LINE
  5
2CC
330
1F
100
AcDbEntity
  8
0
  6
Continuous
 62
     7
370
    25
100
AcDbLine
 10
128.3182998454
 20
117.65652194
 30
0.0
 11
128.3182998454
 21
121.4208193351
 31
0.0
  0
SPLINE
  5
2CD
330
1F
100
AcDbEntity
  8
0
  6
Continuous
 62
     7
370
    25
100
AcDbSpline
210
0.0
220
0.0
230
1.0
 70
    24
 71
     3
 72
    12
 73
     8
 74
     0
 42
0.00000001
 43
0.00000001
 40
0.0
 40
0.0
 40
0.0
 40
0.0
 40
0.2500000000000001
 40
0.2500000000000001
 40
0.5000000000000001
 40
0.5000000000000001
 40
1.0
 40
1.0
 40
1.0
 40
1.0
 10
126.7305866050808
 20
117.6565219399539
 30
0.0
 10
126.7305866050808
 20
117.6565219399539
 30
0.0
 10
126.7699796904504
 20
117.6565219399539
 30
0.0
 10
126.9206110932158
 20
117.6565219399539
 30
0.0
 10
127.0314915223876
 20
117.6565219399539
 30
0.0
 10
127.452678928352
 20
117.6565219399539
 30
0.0
 10
127.8503666738317
 20
117.6565219399539
 30
0.0
 10
128.3182998453523
 20
117.6565219399539
 30
0.0
  0
LINE
  5
2CE
330
1F
100
AcDbEntity
  8
0
  6
Continuous
 62
     7
370
    25
100
AcDbLine
 10
126.7305866051
 20
117.65652194
 30
0.0
 11
126.7305866051
 21
125.0739605773
 31
0.0
  0
LINE
  5
2CF
330
1F
100
AcDbEntity
  8
0
  6
Continuous
 62
     7
370
    25
100
AcDbLine
 10
151.1428733648
 20
117.65652194
 30
0.0
 11
128.3182998454
 21
117.65652194
 31
0.0
  0
LINE
  5
2D0
330
1F
100
AcDbEntity
  8
0
  6
Continuous
 62
     7
370
    25
100
AcDbLine
 10
155.2305866051
 20
130.15652194
 30
0.0
 11
155.2305866051
 21
118.40652194
 31
0.0
  0
LINE
  5
2D1
330
1F
100
AcDbEntity
  8
0
  6
Continuous
 62
     7
370
    25
100
AcDbLine
 10
155.2305866051
 20
141.90652194
 30
0.0
 11
155.2305866051
 21
130.15652194
 31
0.0
  0
LINE
  5
2D2
330
1F
100
AcDbEntity
  8
0
  6
Continuous
 62
     7
370
    25
100
AcDbLine
 10
154.9805866051
 20
118.15652194
 30
0.0
 11
154.9805866051
 21
142.15652194
 31
0.0
  0
LINE
  5
2D3
330
1F
100
AcDbEntity
  8
0
  6
Continuous
 62
     7
370
    25
100
AcDbLine
 10
165.1366487982
 20
121.9475863835
 30
0.0
 11
165.1366487982
 21
138.3654574964
 31
0.0
  0
LINE
  5
2D4
330
1F
100
AcDbEntity
  8
0
  6
Continuous
 62
     7
370
    25
100
AcDbLine
 10
167.2305866051
 20
137.15652194
 30
0.0
 11
167.2305866051
 21
123.15652194
 31
0.0
  0
LINE
  5
2D5
330
1F
100
AcDbEntity
  8
0
  6
Continuous
 62
     7
370
    25
100
AcDbLine
 10
116.5799162953
 20
126.368427038
 30
0.0
 11
116.5929916062
 21
126.3921264331
 31
0.0
  0
ARC
  5
2D6
330
1F
100
AcDbEntity
  8
0
  6
Continuous
 62
     7
370
    25
100
AcDbCircle
 10
84.6664677934
 20
129.1755264475
 30
0.0
 40
0.2634377650394255
100
AcDbArc
 50
154.8370658127
 51
203.8290284548
  0
ARC
  5
2D7
330
1F
100
AcDbEntity
  8
0
  6
Continuous
 62
     7
370
    25
100
AcDbCircle
 10
84.6662979642
 20
131.1374830487
 30
0.0
 40
0.2632694356199103
100
AcDbArc
 50
155.9734913938
 51
205.1718765856
  0
LINE
  5
2D8
330
1F
100
AcDbEntity
  8
0
  6
Continuous
 62
     7
370
    25
100
AcDbLine
 10
84.2833730096
 20
130.3179675343
 30
0.0
 11
84.2305866651
 21
130.3179675343
 31
0.0
  0
LINE
  5
2D9
330
1F
100
AcDbEntity
  8
0
  6
Continuous
 62
     7
370
    25
100
AcDbLine
 10
84.2833730096
 20
129.9950763456
 30
0.0
 11
84.230586672
 21
129.9950763456
 31
0.0
  0
LINE
  5
2DA
330
1F
100
AcDbEntity
  8
0
  6
Continuous
 62
     7
370
    25
100
AcDbLine
 10
130.0745150608
 20
125.7226767345
 30
0.0
 11
129.7305866051
 21
126.0666051902
 31
0.0
  0
LINE
  5
2DB
330
1F
100
AcDbEntity
  8
0
  6
Continuous
 62
     7
370
    25
100
AcDbLine
 10
129.7305866051
 20
126.7929618412
 30
0.0
 11
131.614380998
 21
128.6767562342
 31
0.0
  0
LINE
  5
2DC
330
1F
100
AcDbEntity
  8
0
  6
Continuous
 62
     7
370
    25
100
AcDbLine
 10
131.614380998
 20
131.6362876457
 30
0.0
 11
129.7305866051
 21
133.5200820387
 31
0.0
  0
LINE
  5
2DD
330
1F
100
AcDbEntity
  8
0
  6
Continuous
 62
     7
370
    25
100
AcDbLine
 10
130.0745150608
 20
134.5903671454
 30
0.0
 11
129.7305866051
 21
134.2464386897
 31
0.0
  0
INSERT
  5
2E9
330
1F
100
AcDbEntity
  8
0
  6
Continuous
 62
     7
370
    18
100
AcDbBlockReference
  2
SW_CENTERMARKSYMBOL_1
 10
139.7305866051
 20
130.15652194
 30
0.0
  0
LINE
  5
2EA
330
1F
100
AcDbEntity
  8
0
  6
Continuous
 62
     7
370
    18
100
AcDbLine
 10
155.7305866051
 20
122.32214694
 30
0.0
 11
166.3607829686
 21
122.6543405763
 31
0.0
  0
LINE
  5
2EB
330
1F
100
AcDbEntity
  8
0
  6
Continuous
 62
     7
370
    18
100
AcDbLine
 10
166.3607829686
 20
137.6587033036
 30
0.0
 11
155.7305866051
 21
137.99089694
 31
0.0
  0
LINE
  5
2EC
330
1F
100
AcDbEntity
  8
0
  6
Continuous
 62
     7
370
    18
100
AcDbLine
 10
121.0865866051
 20
137.63152194
 30
0.0
 11
111.8745866051
 21
137.63152194
 31
0.0
  0
LINE
  5
2ED
330
1F
100
AcDbEntity
  8
0
  6
Continuous
 62
     7
370
    18
100
AcDbLine
 10
111.8745866051
 20
122.68152194
 30
0.0
 11
121.0865866051
 21
122.68152194
 31
0.0
  0
LINE
  5
2EE
330
1F
100
AcDbEntity
  8
0
  6
Continuous
 62
     7
370
    18
100
AcDbLine
 10
121.0865866051
 20
137.63152194
 30
0.0
 11
121.0865866051
 21
137.6112277183
 31
0.0
  0
LINE
  5
2EF
330
1F
100
AcDbEntity
  8
0
  6
Continuous
 62
     7
370
    18
100
AcDbLine
 10
121.0865866051
 20
125.3875161329
 30
0.0
 11
121.0865866051
 21
125.0319708478
 31
0.0
  0
SPLINE
  5
2F0
330
1F
100
AcDbEntity
  8
0
  6
Continuous
 62
     7
370
     0
100
AcDbSpline
210
0.0
220
0.0
230
1.0
 70
     8
 71
     3
 72
    14
 73
    10
 74
     0
 42
0.00000001
 43
0.00000001
 40
0.0
 40
0.0
 40
0.0
 40
0.0
 40
0.1472273365250722
 40
0.2944546728269468
 40
0.4416820091288196
 40
0.5889093454306944
 40
0.7361366817325673
 40
0.8833640180344425
 40
1.0
 40
1.0
 40
1.0
 40
1.0
 10
121.0865378379822
 20
137.6112277183309
 30
0.0
 10
121.0865866050808
 20
137.493801294535
 30
0.0
 10
121.0865866050808
 20
137.2733755521154
 30
0.0
 10
121.0865866050808
 20
136.9530447853166
 30
0.0
 10
121.0865866050808
 20
136.5373057359308
 30
0.0
 10
121.0865866050808
 20
136.0319944689
 30
0.0
 10
121.0865866050808
 20
135.4442044467574
 30
0.0
 10
121.0865866050808
 20
134.9255277470399
 30
0.0
 10
121.0865866011369
 20
135.1015614555194
 30
0.0
 10
121.0865866050808
 20
134.9255277470399
 30
0.0
  0
SPLINE
  5
2F1
330
1F
100
AcDbEntity
  8
0
  6
Continuous
 62
     7
370
     0
100
AcDbSpline
210
0.0
220
0.0
230
1.0
 70
     8
 71
     3
 72
    14
 73
    10
 74
     0
 42
0.00000001
 43
0.00000001
 40
0.0
 40
0.0
 40
0.0
 40
0.0
 40
0.1453825485537668
 40
0.2907650968871309
 40
0.4361476452204963
 40
0.5815301935538616
 40
0.7269127418872268
 40
0.8722952902205922
 40
1.0
 40
1.0
 40
1.0
 40
1.0
 10
121.0865378379822
 20
125.0319708478056
 30
0.0
 10
121.0865866050808
 20
124.4243052739575
 30
0.0
 10
121.0865866050808
 20
123.8971074569261
 30
0.0
 10
121.0865866050808
 20
123.4577780984306
 30
0.0
 10
121.0865866050808
 20
123.1124844196425
 30
0.0
 10
121.0865866050808
 20
122.8660735869189
 30
0.0
 10
121.0865866050808
 20
122.7220046682121
 30
0.0
 10
121.0865866050808
 20
122.6815219399539
 30
0.0
 10
121.0865866004717
 20
122.6893988611066
 30
0.0
 10
121.0865866050808
 20
122.6815219399539
 30
0.0
  0
ENDSEC
  0
SECTION
  2
OBJECTS
  0
DICTIONARY
  5
C
330
0
100
AcDbDictionary
281
     1
  3
ACAD_GROUP
350
D
  3
ACAD_LAYOUT
350
1A
  3
ACAD_MLINESTYLE
350
17
  3
ACAD_PLOTSETTINGS
350
19
  3
ACAD_PLOTSTYLENAME
350
E
  3
ACAD_SCALELIST
350
47
  3
DWGPROPS
350
2F2
  0
DICTIONARY
  5
D
102
{ACAD_REACTORS
330
C
102
}
330
C
100
AcDbDictionary
281
     1
  0
DICTIONARY
  5
1A
102
{ACAD_REACTORS
330
C
102
}
330
C
100
AcDbDictionary
281
     1
  3
Layout1
350
1E
  3
Layout2
350
26
  3
Model
350
22
  0
DICTIONARY
  5
17
102
{ACAD_REACTORS
330
C
102
}
330
C
100
AcDbDictionary
281
     1
  3
Standard
350
18
  0
DICTIONARY
  5
19
102
{ACAD_REACTORS
330
C
102
}
330
C
100
AcDbDictionary
281
     1
  0
ACDBDICTIONARYWDFLT
  5
E
102
{ACAD_REACTORS
330
C
102
}
330
C
100
AcDbDictionary
281
     1
  3
Normal
350
F
100
AcDbDictionaryWithDefault
340
F
  0
DICTIONARY
  5
47
102
{ACAD_REACTORS
330
C
102
}
330
C
100
AcDbDictionary
281
     1
  3
A0
350
48
  3
A1
350
49
  3
A2
350
4A
  3
A3
350
4B
  3
A4
350
4C
  3
A5
350
4D
  3
A6
350
4E
  3
A7
350
4F
  3
A8
350
50
  3
A9
350
51
  3
B0
350
52
  3
B1
350
53
  3
B2
350
54
  3
B3
350
55
  3
B4
350
56
  3
B5
350
57
  3
B6
350
58
  0
XRECORD
  5
2F2
102
{ACAD_REACTORS
330
C
102
}
330
C
100
AcDbXrecord
280
     1
  1
DWGPROPS COOKIE
  2

  3

  4

  6

  7

  8
user28
  9

300
=
301
=
302
=
303
=
304
=
305
=
306
=
307
=
308
=
309
=
 40
0.0
 41
2460297.250493472
 42
2460297.250495046
  1

 90
        0
  0
LAYOUT
  5
1E
102
{ACAD_REACTORS
330
1A
102
}
330
1A
100
AcDbPlotSettings
  1

  2
none_device
  4

  6

 40
0.0
 41
0.0
 42
0.0
 43
0.0
 44
0.0
 45
0.0
 46
0.0
 47
0.0
 48
0.0
 49
0.0
140
0.0
141
0.0
142
1.0
143
1.0
 70
   688
 72
     1
 73
     0
 74
     5
  7

 75
    16
147
1.0
148
0.0
149
0.0
100
AcDbLayout
  1
Layout1
 70
     1
 71
     1
 10
0.0
 20
0.0
 11
420.0
 21
297.0
 12
0.0
 22
0.0
 32
0.0
 14
1.0000000000E+20
 24
1.0000000000E+20
 34
1.0000000000E+20
 15
-1.0000000000E+20
 25
-1.0000000000E+20
 35
-1.0000000000E+20
146
0.0
 13
0.0
 23
0.0
 33
0.0
 16
1.0
 26
0.0
 36
0.0
 17
0.0
 27
1.0
 37
0.0
 76
     0
330
1B
  0
LAYOUT
  5
26
102
{ACAD_REACTORS
330
1A
102
}
330
1A
100
AcDbPlotSettings
  1

  2
none_device
  4

  6

 40
0.0
 41
0.0
 42
0.0
 43
0.0
 44
0.0
 45
0.0
 46
0.0
 47
0.0
 48
0.0
 49
0.0
140
0.0
141
0.0
142
1.0
143
1.0
 70
   688
 72
     1
 73
     0
 74
     5
  7

 75
    16
147
1.0
148
0.0
149
0.0
100
AcDbLayout
  1
Layout2
 70
     1
 71
     2
 10
0.0
 20
0.0
 11
0.0
 21
0.0
 12
0.0
 22
0.0
 32
0.0
 14
0.0
 24
0.0
 34
0.0
 15
0.0
 25
0.0
 35
0.0
146
0.0
 13
0.0
 23
0.0
 33
0.0
 16
1.0
 26
0.0
 36
0.0
 17
0.0
 27
1.0
 37
0.0
 76
     0
330
23
  0
LAYOUT
  5
22
102
{ACAD_REACTORS
330
1A
102
}
330
1A
100
AcDbPlotSettings
  1

  2
none_device
  4
Letter_(8.50_x_11.00_Inches)
  6

 40
6.35
 41
6.35
 42
6.35000508
 43
6.35000508
 44
215.9
 45
279.4
 46
0.0
 47
0.0
 48
0.0
 49
0.0
140
0.0
141
0.0
142
1.0
143
1.0
 70
  1712
 72
     1
 73
     0
 74
     0
  7

 75
     0
147
1.0
148
0.0
149
0.0
100
AcDbLayout
  1
Model
 70
     1
 71
     0
 10
0.0
 20
0.0
 11
431.8
 21
279.4
 12
0.0
 22
0.0
 32
0.0
 14
0.0
 24
0.0
 34
0.0
 15
431.8
 25
279.4
 35
0.0
146
0.0
 13
0.0
 23
0.0
 33
0.0
 16
1.0
 26
0.0
 36
0.0
 17
0.0
 27
1.0
 37
0.0
 76
     0
330
1F
331
29
  0
MLINESTYLE
  5
18
102
{ACAD_REACTORS
330
17
102
}
330
17
100
AcDbMlineStyle
  2
Standard
 70
     0
  3

 62
   256
 51
90.0
 52
90.0
 71
     2
 49
0.5
 62
   256
  6
BYLAYER
 49
-0.5
 62
   256
  6
BYLAYER
  0
ACDBPLACEHOLDER
  5
F
102
{ACAD_REACTORS
330
E
102
}
330
E
  0
SCALE
  5
48
102
{ACAD_REACTORS
330
47
102
}
330
47
100
AcDbScale
 70
     0
300
1:1
140
1.0
141
1.0
290
     1
  0
SCALE
  5
49
102
{ACAD_REACTORS
330
47
102
}
330
47
100
AcDbScale
 70
     0
300
1:2
140
1.0
141
2.0
290
     0
  0
SCALE
  5
4A
102
{ACAD_REACTORS
330
47
102
}
330
47
100
AcDbScale
 70
     0
300
1:4
140
1.0
141
4.0
290
     0
  0
SCALE
  5
4B
102
{ACAD_REACTORS
330
47
102
}
330
47
100
AcDbScale
 70
     0
300
1:5
140
1.0
141
5.0
290
     0
  0
SCALE
  5
4C
102
{ACAD_REACTORS
330
47
102
}
330
47
100
AcDbScale
 70
     0
300
1:8
140
1.0
141
8.0
290
     0
  0
SCALE
  5
4D
102
{ACAD_REACTORS
330
47
102
}
330
47
100
AcDbScale
 70
     0
300
1:10
140
1.0
141
10.0
290
     0
  0
SCALE
  5
4E
102
{ACAD_REACTORS
330
47
102
}
330
47
100
AcDbScale
 70
     0
300
1:16
140
1.0
141
16.0
290
     0
  0
SCALE
  5
4F
102
{ACAD_REACTORS
330
47
102
}
330
47
100
AcDbScale
 70
     0
300
1:20
140
1.0
141
20.0
290
     0
  0
SCALE
  5
50
102
{ACAD_REACTORS
330
47
102
}
330
47
100
AcDbScale
 70
     0
300
1:30
140
1.0
141
30.0
290
     0
  0
SCALE
  5
51
102
{ACAD_REACTORS
330
47
102
}
330
47
100
AcDbScale
 70
     0
300
1:40
140
1.0
141
40.0
290
     0
  0
SCALE
  5
52
102
{ACAD_REACTORS
330
47
102
}
330
47
100
AcDbScale
 70
     0
300
1:50
140
1.0
141
50.0
290
     0
  0
SCALE
  5
53
102
{ACAD_REACTORS
330
47
102
}
330
47
100
AcDbScale
 70
     0
300
1:100
140
1.0
141
100.0
290
     0
  0
SCALE
  5
54
102
{ACAD_REACTORS
330
47
102
}
330
47
100
AcDbScale
 70
     0
300
2:1
140
2.0
141
1.0
290
     0
  0
SCALE
  5
55
102
{ACAD_REACTORS
330
47
102
}
330
47
100
AcDbScale
 70
     0
300
4:1
140
4.0
141
1.0
290
     0
  0
SCALE
  5
56
102
{ACAD_REACTORS
330
47
102
}
330
47
100
AcDbScale
 70
     0
300
8:1
140
8.0
141
1.0
290
     0
  0
SCALE
  5
57
102
{ACAD_REACTORS
330
47
102
}
330
47
100
AcDbScale
 70
     0
300
10:1
140
10.0
141
1.0
290
     0
  0
SCALE
  5
58
102
{ACAD_REACTORS
330
47
102
}
330
47
100
AcDbScale
 70
     0
300
100:1
140
100.0
141
1.0
290
     0
  0
ENDSEC
  0
EOF
